  0
SECTION
  2
HEADER
  9
$EXTMAX
 10
210.0
 20
297.0
 30
0.0
  9
$EXTMIN
 10
0.0
 20
0.0
 30
0.0
  9
$LIMMIN
 10
0.0
 20
0.0
  9
$LIMMAX
 10
210.0
 20
297.0
  9
$VIEWCTR
 10
105.0
 20
148.5
  9
$VIEWSIZE
 40
297.0
  9
$CLAYER
  8
0
  9
$LTSCALE
 40
19.36
  9
$CELTYPE
  6
BYLAYER
  9
$DIMSCALE
 40
1.0
  9
$DIMASZ
 40
3.5
  9
$DIMEXO
 40
1.0
  9
$DIMDLI
 40
13.376
  9
$DIMEXE
 40
2.0
  9
$DIMCEN
 40
3.168
  9
$DIMLFAC
 40
1.0
  9
$DIMBLK
  1
_FILLED
  9
$DIMALT
 70
0
  9
$DIMALTF
 40
0.0393700787
  9
$DIMTXT
 40
3.5
  9
$AUNITS
 70
0
  9
$PDMODE
 70
3
  9
$PDSIZE
 40
0.3125
  9
$TILEMODE
 70
1
  0
ENDSEC
  0
SECTION
  2
TABLES
  0
TABLE
  2
LTYPE
 70
6
  0
LTYPE
  2
BYBLOCK
 70
0
  3

 72
65
 73
0
 40
0.0
  0
LTYPE
  2
BYLAYER
 70
0
  3

 72
65
 73
0
 40
0.0
  0
LTYPE
  2
CONTINUOUS
 70
64
  3
Solid line
 72
65
 73
0
 40
0.0
  0
LTYPE
  2
CENTER
 70
64
  3
____ _ ____ _ ____ _ ____ _ ____ _ ____ _ ____
 72
65
 73
4
 40
0.6
 49
0.375
 49
-0.075
 49
0.075
 49
-0.075
  0
LTYPE
  2
HIDDEN
 70
64
  3
- - - - - - - - - - - - - - - - - - - -
 72
65
 73
2
 40
0.2
 49
0.1
 49
-0.1
  0
LTYPE
  2
PHANTOM
 70
64
  3
_____ _ _ _____ _ _ _____ _ _ _____
 72
65
 73
6
 40
0.8
 49
0.45
 49
-0.05
 49
0.1
 49
-0.05
 49
0.1
 49
-0.05
  0
LTYPE
  2
DOT
 70
64
  3
. . . . . . . . . . . . . . . . . . . .
 72
65
 73
2
 40
0.2
 49
0.1
 49
-0.1
  0
LTYPE
  2
DASHED
 70
64
  3
- - - - - - - - - - - - - - - - - - - -
 72
65
 73
2
 40
0.2
 49
0.1
 49
-0.1
  0
ENDTAB
  0
TABLE
  2
LAYER
 70
36
  0
LAYER
  2
0
 70
0
 62
7
  6
CONTINUOUS
  0
LAYER
  2
DEFAULT_1
 70
0
 62
7
  6
CENTER
  0
LAYER
  2
DEFAULT_2
 70
0
 62
8
  6
HIDDEN
  0
LAYER
  2
DEFAULT_3
 70
0
 62
7
  6
PHANTOM
  0
LAYER
  2
1_AXIS
 70
0
 62
7
  6
CONTINUOUS
  0
LAYER
  2
1_CSYS
 70
0
 62
7
  6
CONTINUOUS
  0
LAYER
  2
1_DATUM_PLANE
 70
0
 62
7
  6
CONTINUOUS
  0
LAYER
  2
2_FEATURE
 70
0
 62
7
  6
CONTINUOUS
  0
LAYER
  2
6_DIM
 70
0
 62
7
  6
CONTINUOUS
  0
LAYER
  2
AXES
 70
0
 62
7
  6
CONTINUOUS
  0
LAYER
  2
CSYS
 70
0
 62
7
  6
CONTINUOUS
  0
LAYER
  2
PITCH
 70
0
 62
7
  6
CONTINUOUS
  0
LAYER
  2
PLANES
 70
0
 62
7
  6
CONTINUOUS
  0
LAYER
  2
QUILTS
 70
0
 62
7
  6
CONTINUOUS
  0
LAYER
  2
SQ
 70
0
 62
7
  6
CONTINUOUS
  0
ENDTAB
  0
TABLE
  2
STYLE
 70
1
  0
STYLE
  2
STANDARD
 70
0
 40
0.0
 41
0.8
 50
0.0
 71
0
 42
0.2
  3
txt
  4

  0
STYLE
  2
TEXTSTYLE_1
 70
0
 40
0.0
 41
0.8
 50
0.0
 71
0
 42
0.2
  3
gdt
  4

  0
STYLE
  2
TEXTSTYLE_2
 70
0
 40
0.0
 41
0.6
 50
0.0
 71
0
 42
0.2
  3
txt
  4

  0
STYLE
  2
TEXTSTYLE_3
 70
0
 40
0.0
 41
1.0
 50
0.0
 71
0
 42
0.2
  3
ftb_____.ttf
  4

  0
STYLE
  2
TEXTSTYLE_4
 70
0
 40
0.0
 41
1.0
 50
0.0
 71
0
 42
0.2
  3
fti_____.ttf
  4

  0
STYLE
  2
TEXTSTYLE_5
 70
0
 40
0.0
 41
1.0
 50
0.0
 71
0
 42
0.2
  3
frutiger light.ttf
  4

  0
STYLE
  2
TEXTSTYLE_6
 70
0
 40
0.0
 41
0.7
 50
0.0
 71
0
 42
0.2
  3
txt
  4

  0
STYLE
  2
TEXTSTYLE_7
 70
0
 40
0.0
 41
0.6
 50
0.0
 71
0
 42
0.2
  3
txt
  4

  0
ENDTAB
  0
ENDSEC
  0
SECTION
  2
BLOCKS
  0
BLOCK
  8
0
 62
2
  6
CONTINUOUS
  2
UNI_LOGO2_BL1
 70
64
 10
173.5956734183
 20
35.5937998301
  0
TEXT
  8
0
 62
7
  6
CONTINUOUS
 10
164.6539584268
 20
30.6865562072
  7
TEXTSTYLE_4
 40
1.0655737705
  1
The brand for plastic modular belts and chains
 41
1.0
 72
0
  0
LINE
  8
0
 62
7
  6
CONTINUOUS
 10
149.5737418074
 20
36.1675703219
 11
149.5737418074
 21
34.0364227809
  0
LINE
  8
0
 62
7
  6
CONTINUOUS
 10
149.8628043005
 20
31.0454914852
 11
149.8628043005
 21
31.1422825445
  0
LINE
  8
0
 62
7
  6
CONTINUOUS
 10
149.5737418074
 20
31.1100188581
 11
149.6315543091
 21
30.9164367395
  0
LINE
  8
0
 62
7
  6
CONTINUOUS
 10
150.9671844304
 20
33.9544555678
 11
150.9671844304
 21
36.1675703219
  0
LINE
  8
0
 62
7
  6
CONTINUOUS
 10
151.8862417523
 20
32.1101932727
 11
151.8862417523
 21
30.5937998301
  0
LINE
  8
0
 62
7
  6
CONTINUOUS
 10
152.1753043074
 20
30.5937998301
 11
152.1753043074
 21
31.3358647082
  0
LINE
  8
0
 62
7
  6
CONTINUOUS
 10
152.1753043074
 20
31.4649194539
 11
152.1753043074
 21
32.1101932727
  0
LINE
  8
0
 62
7
  6
CONTINUOUS
 10
149.6315543091
 20
31.3036010218
 11
149.5737418074
 21
31.1100188581
  0
LINE
  8
0
 62
7
  6
CONTINUOUS
 10
149.9784292936
 20
30.8841730531
 11
149.8628043005
 21
31.0454914852
  0
LINE
  8
0
 62
7
  6
CONTINUOUS
 10
151.0768668626
 20
31.400392081
 11
151.1346793074
 21
31.3036010218
  0
LINE
  8
0
 62
7
  6
CONTINUOUS
 10
151.4237418626
 20
31.3036010218
 11
151.3659292523
 21
31.4326557675
  0
LINE
  8
0
 62
7
  6
CONTINUOUS
 10
152.852430332
 20
36.1675703219
 11
152.852430332
 21
34.3642916334
  0
LINE
  8
0
 62
7
  6
CONTINUOUS
 10
152.852430332
 20
33.0528162235
 11
152.852430332
 21
32.3970785186
  0
LINE
  8
0
 62
7
  6
CONTINUOUS
 10
153.2159293074
 20
31.2390736489
 11
153.2159293074
 21
30.5937998301
  0
LINE
  8
0
 62
7
  6
CONTINUOUS
 10
153.5049916972
 20
30.5937998301
 11
153.5049916972
 21
31.2390736489
  0
LINE
  8
0
 62
7
  6
CONTINUOUS
 10
149.8628043005
 20
31.1422825445
 11
149.9206168074
 21
31.2713373354
  0
LINE
  8
0
 62
7
  6
CONTINUOUS
 10
149.6315543091
 20
30.9164367395
 11
149.7471793074
 21
30.7873819712
  0
LINE
  8
0
 62
7
  6
CONTINUOUS
 10
153.1581166972
 20
31.3681283946
 11
153.2159293074
 21
31.2390736489
  0
LINE
  8
0
 62
7
  6
CONTINUOUS
 10
153.9674919177
 20
30.8841730531
 11
154.0253041972
 21
30.7551182848
  0
LINE
  8
0
 62
7
  6
CONTINUOUS
 10
153.5049916972
 20
31.2390736489
 11
153.4471794177
 21
31.400392081
  0
LINE
  8
0
 62
7
  6
CONTINUOUS
 10
153.9674919177
 20
31.4326557675
 11
153.9674919177
 21
31.3681283946
  0
LINE
  8
0
 62
7
  6
CONTINUOUS
 10
153.9674919177
 20
30.9809641124
 11
153.9674919177
 21
30.8841730531
  0
LINE
  8
0
 62
7
  6
CONTINUOUS
 10
154.245872955
 20
32.3970785186
 11
154.245872955
 21
36.1675703219
  0
LINE
  8
0
 62
7
  6
CONTINUOUS
 10
154.2565543074
 20
30.8519093441
 11
154.2565543074
 21
30.9164367395
  0
LINE
  8
0
 62
7
  6
CONTINUOUS
 10
154.5737418074
 20
36.1675703219
 11
154.5737418074
 21
32.3970785186
  0
LINE
  8
0
 62
7
  6
CONTINUOUS
 10
151.3659292523
 20
30.7873819712
 11
151.4237418626
 21
30.9164367395
  0
LINE
  8
0
 62
7
  6
CONTINUOUS
 10
155.759679528
 20
30.6905909007
 11
155.7018665869
 21
30.8519093441
  0
LINE
  8
0
 62
7
  6
CONTINUOUS
 10
155.412804528
 20
31.3681283946
 11
155.412804528
 21
31.2713373354
  0
LINE
  8
0
 62
7
  6
CONTINUOUS
 10
155.412804528
 20
31.1422825445
 11
155.412804528
 21
30.9487004259
  0
LINE
  8
0
 62
7
  6
CONTINUOUS
 10
155.7018665869
 20
30.8519093441
 11
155.7018665869
 21
31.3681283946
  0
LINE
  8
0
 62
7
  6
CONTINUOUS
 10
155.9671844304
 20
32.3970785186
 11
155.9671844304
 21
34.2003572071
  0
LINE
  8
0
 62
7
  6
CONTINUOUS
 10
155.9671844304
 20
35.511832617
 11
155.9671844304
 21
36.1675703219
  0
LINE
  8
0
 62
7
  6
CONTINUOUS
 10
156.279992028
 20
32.1101932727
 11
156.279992028
 21
31.9488748406
  0
LINE
  8
0
 62
7
  6
CONTINUOUS
 10
156.279992028
 20
31.626237886
 11
156.279992028
 21
30.5937998301
  0
LINE
  8
0
 62
7
  6
CONTINUOUS
 10
156.5690540869
 20
30.5937998301
 11
156.5690540869
 21
31.626237886
  0
LINE
  8
0
 62
7
  6
CONTINUOUS
 10
156.5690540869
 20
31.9488748406
 11
156.5690540869
 21
32.1101932727
  0
LINE
  8
0
 62
7
  6
CONTINUOUS
 10
151.1346793074
 20
30.9164367395
 11
151.0768668626
 21
30.8196456577
  0
LINE
  8
0
 62
7
  6
CONTINUOUS
 10
153.4471794177
 20
31.400392081
 11
153.3893668074
 21
31.4649194539
  0
LINE
  8
0
 62
7
  6
CONTINUOUS
 10
154.3143669177
 20
30.7873819712
 11
154.2565543074
 21
30.8519093441
  0
LINE
  8
0
 62
7
  6
CONTINUOUS
 10
155.4706168074
 20
30.6583272086
 11
155.5284290869
 21
30.5937998301
  0
LINE
  8
0
 62
7
  6
CONTINUOUS
 10
155.412804528
 20
30.7551182848
 11
155.4706168074
 21
30.6583272086
  0
LINE
  8
0
 62
7
  6
CONTINUOUS
 10
155.8174918074
 20
30.5937998301
 11
155.759679528
 21
30.6905909007
  0
LINE
  8
0
 62
7
  6
CONTINUOUS
 10
155.7018665869
 20
31.3681283946
 11
155.6440543074
 21
31.4649194539
  0
LINE
  8
0
 62
7
  6
CONTINUOUS
 10
157.0315543074
 20
31.626237886
 11
157.0315543074
 21
30.5937998301
  0
LINE
  8
0
 62
7
  6
CONTINUOUS
 10
157.320617028
 20
30.5937998301
 11
157.320617028
 21
31.3358647082
  0
LINE
  8
0
 62
7
  6
CONTINUOUS
 10
157.320617028
 20
31.4649194539
 11
157.320617028
 21
31.626237886
  0
LINE
  8
0
 62
7
  6
CONTINUOUS
 10
157.852430332
 20
34.6101932727
 11
157.852430332
 21
32.3970785186
  0
LINE
  8
0
 62
7
  6
CONTINUOUS
 10
149.7471793074
 20
31.4326557675
 11
149.6315543091
 21
31.3036010218
  0
LINE
  8
0
 62
7
  6
CONTINUOUS
 10
149.9206168074
 20
31.2713373354
 11
149.9784292936
 21
31.3358647082
  0
LINE
  8
0
 62
7
  6
CONTINUOUS
 10
149.7471793074
 20
30.7873819712
 11
149.8628043005
 21
30.7228545871
  0
LINE
  8
0
 62
7
  6
CONTINUOUS
 10
150.1518667936
 20
30.7873819712
 11
149.9784292936
 21
30.8841730531
  0
LINE
  8
0
 62
7
  6
CONTINUOUS
 10
155.3549915869
 20
31.4326557675
 11
155.412804528
 21
31.3681283946
  0
LINE
  8
0
 62
7
  6
CONTINUOUS
 10
158.3034290869
 20
31.3681283946
 11
158.361242028
 21
31.2068099625
  0
LINE
  8
0
 62
7
  6
CONTINUOUS
 10
158.6503040869
 20
31.2068099625
 11
158.5924918074
 21
31.3681283946
  0
LINE
  8
0
 62
7
  6
CONTINUOUS
 10
158.361242028
 20
31.2068099625
 11
158.361242028
 21
30.5937998301
  0
LINE
  8
0
 62
7
  6
CONTINUOUS
 10
158.6503040869
 20
30.5937998301
 11
158.6503040869
 21
31.2068099625
  0
LINE
  8
0
 62
7
  6
CONTINUOUS
 10
159.1128043074
 20
31.4326557675
 11
159.1128043074
 21
31.3681283946
  0
LINE
  8
0
 62
7
  6
CONTINUOUS
 10
159.245872955
 20
32.3970785186
 11
159.245872955
 21
34.5282260596
  0
LINE
  8
0
 62
7
  6
CONTINUOUS
 10
159.5737418074
 20
36.1675703219
 11
159.5737418074
 21
32.3970785186
  0
LINE
  8
0
 62
7
  6
CONTINUOUS
 10
154.2565543074
 20
30.9164367395
 11
154.3143669177
 21
31.0132277988
  0
LINE
  8
0
 62
7
  6
CONTINUOUS
 10
149.8628043005
 20
30.7228545871
 11
150.0362418212
 21
30.6583272086
  0
LINE
  8
0
 62
7
  6
CONTINUOUS
 10
151.3659292523
 20
31.4326557675
 11
151.1924917523
 21
31.5294468267
  0
LINE
  8
0
 62
7
  6
CONTINUOUS
 10
154.0253041972
 20
30.7551182848
 11
154.1987416972
 21
30.6583272086
  0
LINE
  8
0
 62
7
  6
CONTINUOUS
 10
153.0424918074
 20
31.4326557675
 11
153.1581166972
 21
31.3681283946
  0
LINE
  8
0
 62
7
  6
CONTINUOUS
 10
153.3893668074
 20
31.4649194539
 11
153.2737419177
 21
31.5294468267
  0
LINE
  8
0
 62
7
  6
CONTINUOUS
 10
159.1128043074
 20
30.8519093441
 11
159.228429528
 21
30.7228545871
  0
LINE
  8
0
 62
7
  6
CONTINUOUS
 10
159.4596793074
 20
30.7873819712
 11
159.401867028
 21
30.8519093441
  0
LINE
  8
0
 62
7
  6
CONTINUOUS
 10
159.1128043074
 20
31.3681283946
 11
159.228429528
 21
31.2390736489
  0
LINE
  8
0
 62
7
  6
CONTINUOUS
 10
158.5924918074
 20
31.3681283946
 11
158.534679528
 21
31.4649194539
  0
LINE
  8
0
 62
7
  6
CONTINUOUS
 10
160.9628038663
 20
30.7873819712
 11
160.9628038663
 21
30.8519093441
  0
LINE
  8
0
 62
7
  6
CONTINUOUS
 10
160.9671844304
 20
32.3970785186
 11
160.9671844304
 21
36.1675703219
  0
LINE
  8
0
 62
7
  6
CONTINUOUS
 10
154.0253041972
 20
31.4971831403
 11
153.9674919177
 21
31.4326557675
  0
LINE
  8
0
 62
7
  6
CONTINUOUS
 10
150.9034292799
 20
31.4649194539
 11
151.0768668626
 21
31.400392081
  0
LINE
  8
0
 62
7
  6
CONTINUOUS
 10
155.6440543074
 20
31.4649194539
 11
155.5284290869
 21
31.5294468267
  0
LINE
  8
0
 62
7
  6
CONTINUOUS
 10
159.4596793074
 20
31.3036010218
 11
159.401867028
 21
31.3681283946
  0
LINE
  8
0
 62
7
  6
CONTINUOUS
 10
160.615929528
 20
30.9164367395
 11
160.6737418074
 21
30.8519093441
  0
LINE
  8
0
 62
7
  6
CONTINUOUS
 10
160.9628038663
 20
30.8519093441
 11
160.8471793074
 21
30.9809641124
  0
LINE
  8
0
 62
7
  6
CONTINUOUS
 10
160.615929528
 20
31.4326557675
 11
160.6737418074
 21
31.3681283946
  0
LINE
  8
0
 62
7
  6
CONTINUOUS
 10
160.9628038663
 20
31.3681283946
 11
160.8471793074
 21
31.4971831403
  0
LINE
  8
0
 62
7
  6
CONTINUOUS
 10
154.2565543074
 20
31.3681283946
 11
154.3143669177
 21
31.4326557675
  0
LINE
  8
0
 62
7
  6
CONTINUOUS
 10
154.0831168074
 20
31.1100188581
 11
153.9674919177
 21
30.9809641124
  0
LINE
  8
0
 62
7
  6
CONTINUOUS
 10
155.412804528
 20
30.9487004259
 11
155.3549915869
 21
30.8841730531
  0
LINE
  8
0
 62
7
  6
CONTINUOUS
 10
155.3549915869
 20
30.6905909007
 11
155.412804528
 21
30.7551182848
  0
LINE
  8
0
 62
7
  6
CONTINUOUS
 10
154.1987416972
 20
30.6583272086
 11
154.3143669177
 21
30.6260635193
  0
LINE
  8
0
 62
7
  6
CONTINUOUS
 10
151.1924917523
 20
31.5294468267
 11
150.9612418074
 21
31.5939741996
  0
LINE
  8
0
 62
7
  6
CONTINUOUS
 10
154.5456166972
 20
30.7228545871
 11
154.3143669177
 21
30.7873819712
  0
LINE
  8
0
 62
7
  6
CONTINUOUS
 10
153.2737419177
 20
31.5294468267
 11
153.1003044177
 21
31.5939741996
  0
LINE
  8
0
 62
7
  6
CONTINUOUS
 10
155.5284290869
 20
31.5294468267
 11
155.3549915869
 21
31.5939741996
  0
LINE
  8
0
 62
7
  6
CONTINUOUS
 10
158.187804528
 20
31.4326557675
 11
158.3034290869
 21
31.3681283946
  0
LINE
  8
0
 62
7
  6
CONTINUOUS
 10
158.534679528
 20
31.4649194539
 11
158.4190543074
 21
31.5294468267
  0
LINE
  8
0
 62
7
  6
CONTINUOUS
 10
150.0362418212
 20
30.6583272086
 11
150.2096793212
 21
30.6260635193
  0
LINE
  8
0
 62
7
  6
CONTINUOUS
 10
150.498741835
 20
30.7228545871
 11
150.1518667936
 21
30.7873819712
  0
LINE
  8
0
 62
7
  6
CONTINUOUS
 10
152.9268669177
 20
31.4649194539
 11
153.0424918074
 21
31.4326557675
  0
LINE
  8
0
 62
7
  6
CONTINUOUS
 10
155.239367028
 20
31.4649194539
 11
155.3549915869
 21
31.4326557675
  0
LINE
  8
0
 62
7
  6
CONTINUOUS
 10
159.575304528
 20
30.7551182848
 11
159.4596793074
 21
30.7873819712
  0
LINE
  8
0
 62
7
  6
CONTINUOUS
 10
158.0721793074
 20
31.4649194539
 11
158.187804528
 21
31.4326557675
  0
LINE
  8
0
 62
7
  6
CONTINUOUS
 10
159.228429528
 20
30.7228545871
 11
159.401867028
 21
30.6583272086
  0
LINE
  8
0
 62
7
  6
CONTINUOUS
 10
158.4190543074
 20
31.5294468267
 11
158.2456168074
 21
31.5939741996
  0
LINE
  8
0
 62
7
  6
CONTINUOUS
 10
159.6331168074
 20
31.2390736489
 11
159.4596793074
 21
31.3036010218
  0
LINE
  8
0
 62
7
  6
CONTINUOUS
 10
160.442492028
 20
30.9809641124
 11
160.615929528
 21
30.9164367395
  0
LINE
  8
0
 62
7
  6
CONTINUOUS
 10
160.8471793074
 20
31.4971831403
 11
160.6737418074
 21
31.5617105132
  0
LINE
  8
0
 62
7
  6
CONTINUOUS
 10
159.228429528
 20
31.2390736489
 11
159.4596793074
 21
31.1422825445
  0
LINE
  8
0
 62
7
  6
CONTINUOUS
 10
160.8471793074
 20
30.9809641124
 11
160.615929528
 21
31.0777551716
  0
LINE
  8
0
 62
7
  6
CONTINUOUS
 10
159.401867028
 20
31.3681283946
 11
159.4596793074
 21
31.4326557675
  0
LINE
  8
0
 62
7
  6
CONTINUOUS
 10
149.8628043005
 20
31.4971831403
 11
149.7471793074
 21
31.4326557675
  0
LINE
  8
0
 62
7
  6
CONTINUOUS
 10
149.9784292936
 20
31.3358647082
 11
150.1518667936
 21
31.4326557675
  0
LINE
  8
0
 62
7
  6
CONTINUOUS
 10
152.2909293626
 20
31.5294468267
 11
152.1753043074
 21
31.4649194539
  0
LINE
  8
0
 62
7
  6
CONTINUOUS
 10
152.1753043074
 20
31.3358647082
 11
152.2909293626
 21
31.400392081
  0
LINE
  8
0
 62
7
  6
CONTINUOUS
 10
151.1924917523
 20
30.6905909007
 11
151.3659292523
 21
30.7873819712
  0
LINE
  8
0
 62
7
  6
CONTINUOUS
 10
150.2096793212
 20
30.6260635193
 11
150.5565542799
 21
30.5937998301
  0
LINE
  8
0
 62
7
  6
CONTINUOUS
 10
154.3143669177
 20
30.6260635193
 11
154.5456166972
 21
30.5937998301
  0
LINE
  8
0
 62
7
  6
CONTINUOUS
 10
152.6956168074
 20
31.4971831403
 11
152.9268669177
 21
31.4649194539
  0
LINE
  8
0
 62
7
  6
CONTINUOUS
 10
155.0081169177
 20
31.4971831403
 11
155.239367028
 21
31.4649194539
  0
LINE
  8
0
 62
7
  6
CONTINUOUS
 10
159.4596793074
 20
31.1422825445
 11
160.442492028
 21
30.9809641124
  0
LINE
  8
0
 62
7
  6
CONTINUOUS
 10
160.615929528
 20
31.0777551716
 11
159.6331168074
 21
31.2390736489
  0
LINE
  8
0
 62
7
  6
CONTINUOUS
 10
153.1003044177
 20
31.5939741996
 11
152.9268669177
 21
31.626237886
  0
LINE
  8
0
 62
7
  6
CONTINUOUS
 10
159.401867028
 20
30.6583272086
 11
159.575304528
 21
30.6260635193
  0
LINE
  8
0
 62
7
  6
CONTINUOUS
 10
158.2456168074
 20
31.5939741996
 11
158.0721793074
 21
31.626237886
  0
LINE
  8
0
 62
7
  6
CONTINUOUS
 10
160.5003043074
 20
31.4649194539
 11
160.615929528
 21
31.4326557675
  0
LINE
  8
0
 62
7
  6
CONTINUOUS
 10
160.6737418074
 20
30.8519093441
 11
160.615929528
 21
30.7873819712
  0
LINE
  8
0
 62
7
  6
CONTINUOUS
 10
159.228429528
 20
31.5294468267
 11
159.1128043074
 21
31.4326557675
  0
LINE
  8
0
 62
7
  6
CONTINUOUS
 10
154.1409294177
 20
31.5617105132
 11
154.0253041972
 21
31.4971831403
  0
LINE
  8
0
 62
7
  6
CONTINUOUS
 10
154.1987416972
 20
31.1745462761
 11
154.0831168074
 21
31.1100188581
  0
LINE
  8
0
 62
7
  6
CONTINUOUS
 10
154.3143669177
 20
31.0132277988
 11
154.4299918074
 21
31.0777551716
  0
LINE
  8
0
 62
7
  6
CONTINUOUS
 10
151.8862417523
 20
30.5937998301
 11
152.1753043074
 21
30.5937998301
  0
LINE
  8
0
 62
7
  6
CONTINUOUS
 10
153.2159293074
 20
30.5937998301
 11
153.5049916972
 21
30.5937998301
  0
LINE
  8
0
 62
7
  6
CONTINUOUS
 10
154.5456166972
 20
30.5937998301
 11
154.8924916972
 21
30.5937998301
  0
LINE
  8
0
 62
7
  6
CONTINUOUS
 10
155.5284290869
 20
30.5937998301
 11
155.8174918074
 21
30.5937998301
  0
LINE
  8
0
 62
7
  6
CONTINUOUS
 10
156.279992028
 20
30.5937998301
 11
156.5690540869
 21
30.5937998301
  0
LINE
  8
0
 62
7
  6
CONTINUOUS
 10
157.0315543074
 20
30.5937998301
 11
157.320617028
 21
30.5937998301
  0
LINE
  8
0
 62
7
  6
CONTINUOUS
 10
158.361242028
 20
30.5937998301
 11
158.6503040869
 21
30.5937998301
  0
LINE
  8
0
 62
7
  6
CONTINUOUS
 10
159.922179528
 20
30.5937998301
 11
160.269054528
 21
30.5937998301
  0
LINE
  8
0
 62
7
  6
CONTINUOUS
 10
160.269054528
 20
30.7228545871
 11
159.922179528
 21
30.7228545871
  0
LINE
  8
0
 62
7
  6
CONTINUOUS
 10
154.8924916972
 20
30.7228545871
 11
154.5456166972
 21
30.7228545871
  0
LINE
  8
0
 62
7
  6
CONTINUOUS
 10
159.401867028
 20
30.8519093441
 11
159.1128043074
 21
30.8519093441
  0
LINE
  8
0
 62
7
  6
CONTINUOUS
 10
151.4237418626
 20
30.9164367395
 11
151.1346793074
 21
30.9164367395
  0
LINE
  8
0
 62
7
  6
CONTINUOUS
 10
150.498741835
 20
31.4971831403
 11
150.9034292799
 21
31.4649194539
  0
LINE
  8
0
 62
7
  6
CONTINUOUS
 10
150.9612418074
 20
31.5939741996
 11
150.5565542799
 21
31.626237886
  0
LINE
  8
0
 62
7
  6
CONTINUOUS
 10
159.575304528
 20
30.6260635193
 11
159.922179528
 21
30.5937998301
  0
LINE
  8
0
 62
7
  6
CONTINUOUS
 10
159.922179528
 20
30.7228545871
 11
159.575304528
 21
30.7551182848
  0
LINE
  8
0
 62
7
  6
CONTINUOUS
 10
155.3549915869
 20
31.5939741996
 11
155.0081169177
 21
31.626237886
  0
LINE
  8
0
 62
7
  6
CONTINUOUS
 10
160.1534293074
 20
31.4971831403
 11
160.5003043074
 21
31.4649194539
  0
LINE
  8
0
 62
7
  6
CONTINUOUS
 10
160.5003043074
 20
31.5939741996
 11
160.1534293074
 21
31.626237886
  0
LINE
  8
0
 62
7
  6
CONTINUOUS
 10
157.840929528
 20
31.4971831403
 11
158.0721793074
 21
31.4649194539
  0
LINE
  8
0
 62
7
  6
CONTINUOUS
 10
160.6737418074
 20
31.5617105132
 11
160.5003043074
 21
31.5939741996
  0
LINE
  8
0
 62
7
  6
CONTINUOUS
 10
160.8471793074
 20
30.6905909007
 11
160.9628038663
 21
30.7873819712
  0
LINE
  8
0
 62
7
  6
CONTINUOUS
 10
155.3549915869
 20
30.8841730531
 11
155.1815540869
 21
30.7873819712
  0
LINE
  8
0
 62
7
  6
CONTINUOUS
 10
157.4362415869
 20
31.5294468267
 11
157.320617028
 21
31.4649194539
  0
LINE
  8
0
 62
7
  6
CONTINUOUS
 10
157.320617028
 20
31.3358647082
 11
157.4362415869
 21
31.400392081
  0
LINE
  8
0
 62
7
  6
CONTINUOUS
 10
150.0362418212
 20
31.5617105132
 11
149.8628043005
 21
31.4971831403
  0
LINE
  8
0
 62
7
  6
CONTINUOUS
 10
152.4643666972
 20
31.5939741996
 11
152.2909293626
 21
31.5294468267
  0
LINE
  8
0
 62
7
  6
CONTINUOUS
 10
152.2909293626
 20
31.400392081
 11
152.4643666972
 21
31.4649194539
  0
LINE
  8
0
 62
7
  6
CONTINUOUS
 10
151.0768668626
 20
30.8196456577
 11
150.9034292799
 21
30.7551182848
  0
LINE
  8
0
 62
7
  6
CONTINUOUS
 10
160.5003043074
 20
30.7551182848
 11
160.269054528
 21
30.7228545871
  0
LINE
  8
0
 62
7
  6
CONTINUOUS
 10
154.8924916972
 20
30.5937998301
 11
155.1815540869
 21
30.6260635193
  0
LINE
  8
0
 62
7
  6
CONTINUOUS
 10
160.269054528
 20
30.5937998301
 11
160.615929528
 21
30.6260635193
  0
LINE
  8
0
 62
7
  6
CONTINUOUS
 10
150.5565542799
 20
30.5937998301
 11
150.9612418074
 21
30.6260635193
  0
LINE
  8
0
 62
7
  6
CONTINUOUS
 10
150.9034292799
 20
30.7551182848
 11
150.498741835
 21
30.7228545871
  0
LINE
  8
0
 62
7
  6
CONTINUOUS
 10
154.7768668074
 20
31.1422825445
 11
155.412804528
 21
31.1422825445
  0
LINE
  8
0
 62
7
  6
CONTINUOUS
 10
155.412804528
 20
31.2713373354
 11
154.7768668074
 21
31.2713373354
  0
LINE
  8
0
 62
7
  6
CONTINUOUS
 10
151.1346793074
 20
31.3036010218
 11
151.4237418626
 21
31.3036010218
  0
LINE
  8
0
 62
7
  6
CONTINUOUS
 10
153.9674919177
 20
31.3681283946
 11
154.2565543074
 21
31.3681283946
  0
LINE
  8
0
 62
7
  6
CONTINUOUS
 10
160.6737418074
 20
31.3681283946
 11
160.9628038663
 21
31.3681283946
  0
LINE
  8
0
 62
7
  6
CONTINUOUS
 10
154.6612419177
 20
31.4971831403
 11
155.0081169177
 21
31.4971831403
  0
LINE
  8
0
 62
7
  6
CONTINUOUS
 10
159.8065543074
 20
31.4971831403
 11
160.1534293074
 21
31.4971831403
  0
LINE
  8
0
 62
7
  6
CONTINUOUS
 10
160.1534293074
 20
31.626237886
 11
159.8065543074
 21
31.626237886
  0
LINE
  8
0
 62
7
  6
CONTINUOUS
 10
158.0721793074
 20
31.626237886
 11
157.840929528
 21
31.626237886
  0
LINE
  8
0
 62
7
  6
CONTINUOUS
 10
157.320617028
 20
31.626237886
 11
157.0315543074
 21
31.626237886
  0
LINE
  8
0
 62
7
  6
CONTINUOUS
 10
156.5690540869
 20
31.626237886
 11
156.279992028
 21
31.626237886
  0
LINE
  8
0
 62
7
  6
CONTINUOUS
 10
155.0081169177
 20
31.626237886
 11
154.6612419177
 21
31.626237886
  0
LINE
  8
0
 62
7
  6
CONTINUOUS
 10
152.9268669177
 20
31.626237886
 11
152.6956168074
 21
31.626237886
  0
LINE
  8
0
 62
7
  6
CONTINUOUS
 10
156.279992028
 20
31.9488748406
 11
156.5690540869
 21
31.9488748406
  0
LINE
  8
0
 62
7
  6
CONTINUOUS
 10
156.5690540869
 20
32.1101932727
 11
156.279992028
 21
32.1101932727
  0
LINE
  8
0
 62
7
  6
CONTINUOUS
 10
152.1753043074
 20
32.1101932727
 11
151.8862417523
 21
32.1101932727
  0
LINE
  8
0
 62
7
  6
CONTINUOUS
 10
151.2130860697
 20
32.3970785186
 11
151.6256574183
 21
32.3970785186
  0
LINE
  8
0
 62
7
  6
CONTINUOUS
 10
152.852430332
 20
32.3970785186
 11
154.245872955
 21
32.3970785186
  0
LINE
  8
0
 62
7
  6
CONTINUOUS
 10
154.5737418074
 20
32.3970785186
 11
155.9671844304
 21
32.3970785186
  0
LINE
  8
0
 62
7
  6
CONTINUOUS
 10
157.852430332
 20
32.3970785186
 11
159.245872955
 21
32.3970785186
  0
LINE
  8
0
 62
7
  6
CONTINUOUS
 10
159.5737418074
 20
32.3970785186
 11
160.9671844304
 21
32.3970785186
  0
LINE
  8
0
 62
7
  6
CONTINUOUS
 10
157.6096790869
 20
31.5939741996
 11
157.4362415869
 21
31.5294468267
  0
LINE
  8
0
 62
7
  6
CONTINUOUS
 10
155.1815540869
 20
30.6260635193
 11
155.3549915869
 21
30.6905909007
  0
LINE
  8
0
 62
7
  6
CONTINUOUS
 10
160.615929528
 20
30.6260635193
 11
160.8471793074
 21
30.6905909007
  0
LINE
  8
0
 62
7
  6
CONTINUOUS
 10
160.615929528
 20
30.7873819712
 11
160.5003043074
 21
30.7551182848
  0
LINE
  8
0
 62
7
  6
CONTINUOUS
 10
159.575304528
 20
31.4649194539
 11
159.8065543074
 21
31.4971831403
  0
LINE
  8
0
 62
7
  6
CONTINUOUS
 10
157.6096790869
 20
31.4649194539
 11
157.840929528
 21
31.4971831403
  0
LINE
  8
0
 62
7
  6
CONTINUOUS
 10
154.5456166972
 20
31.1100188581
 11
154.7768668074
 21
31.1422825445
  0
LINE
  8
0
 62
7
  6
CONTINUOUS
 10
157.840929528
 20
31.626237886
 11
157.6096790869
 21
31.5939741996
  0
LINE
  8
0
 62
7
  6
CONTINUOUS
 10
154.4299918074
 20
31.4649194539
 11
154.6612419177
 21
31.4971831403
  0
LINE
  8
0
 62
7
  6
CONTINUOUS
 10
159.8065543074
 20
31.626237886
 11
159.4596793074
 21
31.5939741996
  0
LINE
  8
0
 62
7
  6
CONTINUOUS
 10
154.7768668074
 20
31.2713373354
 11
154.4299918074
 21
31.2390736489
  0
LINE
  8
0
 62
7
  6
CONTINUOUS
 10
150.5565542799
 20
31.626237886
 11
150.2096793212
 21
31.5939741996
  0
LINE
  8
0
 62
7
  6
CONTINUOUS
 10
154.6612419177
 20
31.626237886
 11
154.2565543074
 21
31.5939741996
  0
LINE
  8
0
 62
7
  6
CONTINUOUS
 10
152.0327582009
 20
33.5446195022
 11
151.3770204959
 21
33.5446195022
  0
LINE
  8
0
 62
7
  6
CONTINUOUS
 10
157.4362415869
 20
31.400392081
 11
157.6096790869
 21
31.4649194539
  0
LINE
  8
0
 62
7
  6
CONTINUOUS
 10
159.4596793074
 20
31.4326557675
 11
159.575304528
 21
31.4649194539
  0
LINE
  8
0
 62
7
  6
CONTINUOUS
 10
159.4596793074
 20
31.5939741996
 11
159.228429528
 21
31.5294468267
  0
LINE
  8
0
 62
7
  6
CONTINUOUS
 10
155.1815540869
 20
30.7873819712
 11
154.8924916972
 21
30.7228545871
  0
LINE
  8
0
 62
7
  6
CONTINUOUS
 10
152.4643666972
 20
31.4649194539
 11
152.6956168074
 21
31.4971831403
  0
LINE
  8
0
 62
7
  6
CONTINUOUS
 10
152.6956168074
 20
31.626237886
 11
152.4643666972
 21
31.5939741996
  0
LINE
  8
0
 62
7
  6
CONTINUOUS
 10
150.2674918074
 20
31.4649194539
 11
150.498741835
 21
31.4971831403
  0
LINE
  8
0
 62
7
  6
CONTINUOUS
 10
156.7868565615
 20
35.0200293383
 11
157.4425942664
 21
35.0200293383
  0
LINE
  8
0
 62
7
  6
CONTINUOUS
 10
154.4299918074
 20
31.0777551716
 11
154.5456166972
 21
31.1100188581
  0
LINE
  8
0
 62
7
  6
CONTINUOUS
 10
154.4299918074
 20
31.2390736489
 11
154.1987416972
 21
31.1745462761
  0
LINE
  8
0
 62
7
  6
CONTINUOUS
 10
154.3143669177
 20
31.4326557675
 11
154.4299918074
 21
31.4649194539
  0
LINE
  8
0
 62
7
  6
CONTINUOUS
 10
150.9612418074
 20
30.6260635193
 11
151.1924917523
 21
30.6905909007
  0
LINE
  8
0
 62
7
  6
CONTINUOUS
 10
154.2565543074
 20
31.5939741996
 11
154.1409294177
 21
31.5617105132
  0
LINE
  8
0
 62
7
  6
CONTINUOUS
 10
150.2096793212
 20
31.5939741996
 11
150.0362418212
 21
31.5617105132
  0
LINE
  8
0
 62
7
  6
CONTINUOUS
 10
160.9671844304
 20
36.1675703219
 11
159.5737418074
 21
36.1675703219
  0
LINE
  8
0
 62
7
  6
CONTINUOUS
 10
157.6065286927
 20
36.1675703219
 11
157.1939573441
 21
36.1675703219
  0
LINE
  8
0
 62
7
  6
CONTINUOUS
 10
155.9671844304
 20
36.1675703219
 11
154.5737418074
 21
36.1675703219
  0
LINE
  8
0
 62
7
  6
CONTINUOUS
 10
154.245872955
 20
36.1675703219
 11
152.852430332
 21
36.1675703219
  0
LINE
  8
0
 62
7
  6
CONTINUOUS
 10
150.9671844304
 20
36.1675703219
 11
149.5737418074
 21
36.1675703219
  0
LINE
  8
0
 62
7
  6
CONTINUOUS
 10
150.1518667936
 20
31.4326557675
 11
150.2674918074
 21
31.4649194539
  0
CIRCLE
  8
0
 62
7
  6
CONTINUOUS
 10
160.2704631189
 20
38.5036358957
 40
2.0901639344
  0
ARC
  8
0
 62
7
  6
CONTINUOUS
 10
151.2130860697
 20
34.0364227809
 40
1.6393442623
 50
180.0
 51
270.0
  0
ARC
  8
0
 62
7
  6
CONTINUOUS
 10
157.6065286927
 20
34.5282260596
 40
1.6393442623
 50
0.0
 51
90.0
  0
ARC
  8
0
 62
7
  6
CONTINUOUS
 10
151.6256574183
 20
33.8724883547
 40
1.4754098361
 50
270.0
 51
326.2510114041
  0
ARC
  8
0
 62
7
  6
CONTINUOUS
 10
157.1939573441
 20
34.6921604858
 40
1.4754098361
 50
90.0
 51
146.2510114041
  0
ARC
  8
0
 62
7
  6
CONTINUOUS
 10
152.0327582009
 20
34.3642916334
 40
0.8196721311
 50
270.0
 51
360.0
  0
ARC
  8
0
 62
7
  6
CONTINUOUS
 10
156.7868565615
 20
34.2003572071
 40
0.8196721311
 50
90.0
 51
180.0
  0
ARC
  8
0
 62
7
  6
CONTINUOUS
 10
151.3770204959
 20
33.9544555678
 40
0.4098360656
 50
180.0
 51
270.0
  0
ARC
  8
0
 62
7
  6
CONTINUOUS
 10
157.4425942664
 20
34.6101932727
 40
0.4098360656
 50
0.0
 51
90.0
  0
SOLID
  8
0
 62
7
  6
CONTINUOUS
 10
156.279992028
 20
31.9488752009
 11
156.279992028
 21
32.1101936845
 12
156.5690540869
 22
31.9488752009
 13
156.5690540869
 23
32.1101936845
  0
SOLID
  8
0
 62
7
  6
CONTINUOUS
 10
150.5565542799
 20
31.6262382337
 11
150.9612418074
 21
31.5939740028
 12
150.2096793212
 22
31.5939740028
 13
150.2096793212
 23
31.5939740028
  0
SOLID
  8
0
 62
7
  6
CONTINUOUS
 10
150.0362418212
 20
31.5617111435
 11
150.2096793212
 21
31.5939740028
 12
150.9612418074
 22
31.5939740028
 13
150.9612418074
 23
31.5939740028
  0
SOLID
  8
0
 62
7
  6
CONTINUOUS
 10
150.9612418074
 20
31.5939740028
 11
151.1924917523
 21
31.5294468402
 12
150.0362418212
 22
31.5617111435
 13
150.0362418212
 23
31.5617111435
  0
SOLID
  8
0
 62
7
  6
CONTINUOUS
 10
149.8628043005
 20
31.49718259
 11
150.0362418212
 21
31.5617111435
 12
151.1924917523
 22
31.5294468402
 13
151.1924917523
 23
31.5294468402
  0
SOLID
  8
0
 62
7
  6
CONTINUOUS
 10
149.8628043005
 20
31.49718259
 11
151.1924917523
 21
31.5294468402
 12
150.498741835
 22
31.49718259
 13
150.498741835
 23
31.49718259
  0
SOLID
  8
0
 62
7
  6
CONTINUOUS
 10
150.498741835
 20
31.49718259
 11
151.1924917523
 21
31.5294468402
 12
150.9034292799
 22
31.4649197501
 13
150.9034292799
 23
31.4649197501
  0
SOLID
  8
0
 62
7
  6
CONTINUOUS
 10
151.1924917523
 20
31.5294468402
 11
151.3659292523
 21
31.4326554468
 12
150.9034292799
 22
31.4649197501
 13
150.9034292799
 23
31.4649197501
  0
SOLID
  8
0
 62
7
  6
CONTINUOUS
 10
151.0768668626
 20
31.4003926599
 11
150.9034292799
 21
31.4649197501
 12
151.3659292523
 22
31.4326554468
 13
151.3659292523
 23
31.4326554468
  0
SOLID
  8
0
 62
7
  6
CONTINUOUS
 10
151.0768668626
 20
31.4003926599
 11
151.3659292523
 21
31.4326554468
 12
151.1346793074
 22
31.3036013776
 13
151.1346793074
 23
31.3036013776
  0
SOLID
  8
0
 62
7
  6
CONTINUOUS
 10
151.3659292523
 20
31.4326554468
 11
151.4237418626
 21
31.3036013776
 12
151.1346793074
 22
31.3036013776
 13
151.1346793074
 23
31.3036013776
  0
SOLID
  8
0
 62
7
  6
CONTINUOUS
 10
152.4643666972
 20
31.5939739754
 11
152.6956168074
 21
31.6262382787
 12
152.9268669177
 22
31.6262382787
 13
152.9268669177
 23
31.6262382787
  0
SOLID
  8
0
 62
7
  6
CONTINUOUS
 10
152.9268669177
 20
31.6262382787
 11
153.1003044177
 21
31.5939739754
 12
152.4643666972
 22
31.5939739754
 13
152.4643666972
 23
31.5939739754
  0
SOLID
  8
0
 62
7
  6
CONTINUOUS
 10
152.2909293626
 20
31.5294468852
 11
152.4643666972
 21
31.5939739754
 12
153.1003044177
 22
31.5939739754
 13
153.1003044177
 23
31.5939739754
  0
SOLID
  8
0
 62
7
  6
CONTINUOUS
 10
153.1003044177
 20
31.5939739754
 11
153.2737419177
 21
31.5294468852
 12
152.2909293626
 22
31.5294468852
 13
152.2909293626
 23
31.5294468852
  0
SOLID
  8
0
 62
7
  6
CONTINUOUS
 10
153.2737419177
 20
31.5294468852
 11
152.6956168074
 21
31.4971825369
 12
152.2909293626
 22
31.5294468852
 13
152.2909293626
 23
31.5294468852
  0
SOLID
  8
0
 62
7
  6
CONTINUOUS
 10
152.1753043074
 20
31.4649197951
 11
152.2909293626
 21
31.5294468852
 12
152.6956168074
 22
31.4971825369
 13
152.6956168074
 23
31.4971825369
  0
SOLID
  8
0
 62
7
  6
CONTINUOUS
 10
152.6956168074
 20
31.4971825369
 11
152.4643666972
 21
31.4649197951
 12
152.1753043074
 22
31.4649197951
 13
152.1753043074
 23
31.4649197951
  0
SOLID
  8
0
 62
7
  6
CONTINUOUS
 10
152.6956168074
 20
31.4971825369
 11
153.2737419177
 21
31.5294468852
 12
152.9268669177
 22
31.4649197951
 13
152.9268669177
 23
31.4649197951
  0
SOLID
  8
0
 62
7
  6
CONTINUOUS
 10
153.2737419177
 20
31.5294468852
 11
153.3893668074
 21
31.4649197951
 12
152.9268669177
 22
31.4649197951
 13
152.9268669177
 23
31.4649197951
  0
SOLID
  8
0
 62
7
  6
CONTINUOUS
 10
153.0424918074
 20
31.4326554468
 11
152.9268669177
 21
31.4649197951
 12
153.3893668074
 22
31.4649197951
 13
153.3893668074
 23
31.4649197951
  0
SOLID
  8
0
 62
7
  6
CONTINUOUS
 10
153.3893668074
 20
31.4649197951
 11
153.4471794177
 21
31.4003927049
 12
153.0424918074
 22
31.4326554468
 13
153.0424918074
 23
31.4326554468
  0
SOLID
  8
0
 62
7
  6
CONTINUOUS
 10
153.1581166972
 20
31.3681283566
 11
153.0424918074
 21
31.4326554468
 12
153.4471794177
 22
31.4003927049
 13
153.4471794177
 23
31.4003927049
  0
SOLID
  8
0
 62
7
  6
CONTINUOUS
 10
153.1581166972
 20
31.3681283566
 11
153.4471794177
 21
31.4003927049
 12
153.2159293074
 22
31.2390742213
 13
153.2159293074
 23
31.2390742213
  0
SOLID
  8
0
 62
7
  6
CONTINUOUS
 10
153.4471794177
 20
31.4003927049
 11
153.5049916972
 21
31.2390742213
 12
153.2159293074
 22
31.2390742213
 13
153.2159293074
 23
31.2390742213
  0
SOLID
  8
0
 62
7
  6
CONTINUOUS
 10
152.4643666972
 20
31.4649197951
 11
152.2909293626
 21
31.4003927049
 12
152.1753043074
 22
31.4649197951
 13
152.1753043074
 23
31.4649197951
  0
SOLID
  8
0
 62
7
  6
CONTINUOUS
 10
152.2909293626
 20
31.4003927049
 11
152.1753043074
 21
31.3358640533
 12
152.1753043074
 22
31.4649197951
 13
152.1753043074
 23
31.4649197951
  0
SOLID
  8
0
 62
7
  6
CONTINUOUS
 10
152.1753043074
 20
31.3358640533
 11
151.8862417523
 21
30.5938002869
 12
152.1753043074
 22
31.4649197951
 13
152.1753043074
 23
31.4649197951
  0
SOLID
  8
0
 62
7
  6
CONTINUOUS
 10
152.1753043074
 20
31.4649197951
 11
151.8862417523
 21
30.5938002869
 12
152.1753043074
 22
32.1101937295
 13
152.1753043074
 23
32.1101937295
  0
SOLID
  8
0
 62
7
  6
CONTINUOUS
 10
151.8862417523
 20
30.5938002869
 11
151.8862417523
 21
32.1101937295
 12
152.1753043074
 22
32.1101937295
 13
152.1753043074
 23
32.1101937295
  0
SOLID
  8
0
 62
7
  6
CONTINUOUS
 10
152.1753043074
 20
31.3358640533
 11
152.1753043074
 21
30.5938002869
 12
151.8862417523
 22
30.5938002869
 13
151.8862417523
 23
30.5938002869
  0
SOLID
  8
0
 62
7
  6
CONTINUOUS
 10
153.2159293074
 20
30.5938002869
 11
153.2159293074
 21
31.2390742213
 12
153.5049916972
 22
31.2390742213
 13
153.5049916972
 23
31.2390742213
  0
SOLID
  8
0
 62
7
  6
CONTINUOUS
 10
153.5049916972
 20
31.2390742213
 11
153.5049916972
 21
30.5938002869
 12
153.2159293074
 22
30.5938002869
 13
153.2159293074
 23
30.5938002869
  0
SOLID
  8
0
 62
7
  6
CONTINUOUS
 10
154.2565543074
 20
31.5939738288
 11
154.6612419177
 21
31.6262385959
 12
155.0081169177
 22
31.6262385959
 13
155.0081169177
 23
31.6262385959
  0
SOLID
  8
0
 62
7
  6
CONTINUOUS
 10
155.0081169177
 20
31.6262385959
 11
155.3549915869
 21
31.5939738288
 12
154.2565543074
 22
31.5939738288
 13
154.2565543074
 23
31.5939738288
  0
SOLID
  8
0
 62
7
  6
CONTINUOUS
 10
154.1409294177
 20
31.5617111435
 11
154.2565543074
 21
31.5939738288
 12
155.3549915869
 22
31.5939738288
 13
155.3549915869
 23
31.5939738288
  0
SOLID
  8
0
 62
7
  6
CONTINUOUS
 10
155.3549915869
 20
31.5939738288
 11
155.5284290869
 21
31.5294468402
 12
154.1409294177
 22
31.5617111435
 13
154.1409294177
 23
31.5617111435
  0
SOLID
  8
0
 62
7
  6
CONTINUOUS
 10
154.0253041972
 20
31.4971826249
 11
154.1409294177
 21
31.5617111435
 12
155.5284290869
 22
31.5294468402
 13
155.5284290869
 23
31.5294468402
  0
SOLID
  8
0
 62
7
  6
CONTINUOUS
 10
154.0253041972
 20
31.4971826249
 11
155.5284290869
 21
31.5294468402
 12
154.6612419177
 22
31.4971826249
 13
154.6612419177
 23
31.4971826249
  0
SOLID
  8
0
 62
7
  6
CONTINUOUS
 10
154.6612419177
 20
31.4971826249
 11
155.5284290869
 21
31.5294468402
 12
155.0081169177
 22
31.4971826249
 13
155.0081169177
 23
31.4971826249
  0
SOLID
  8
0
 62
7
  6
CONTINUOUS
 10
155.0081169177
 20
31.4971826249
 11
155.5284290869
 21
31.5294468402
 12
155.239367028
 22
31.4649194065
 13
155.239367028
 23
31.4649194065
  0
SOLID
  8
0
 62
7
  6
CONTINUOUS
 10
155.5284290869
 20
31.5294468402
 11
155.6440543074
 21
31.4649194065
 12
155.239367028
 22
31.4649194065
 13
155.239367028
 23
31.4649194065
  0
SOLID
  8
0
 62
7
  6
CONTINUOUS
 10
153.9674919177
 20
31.4326554138
 11
154.0253041972
 21
31.4971826249
 12
154.6612419177
 22
31.4971826249
 13
154.6612419177
 23
31.4971826249
  0
SOLID
  8
0
 62
7
  6
CONTINUOUS
 10
155.3549915869
 20
31.4326554138
 11
155.239367028
 21
31.4649194065
 12
155.6440543074
 22
31.4649194065
 13
155.6440543074
 23
31.4649194065
  0
SOLID
  8
0
 62
7
  6
CONTINUOUS
 10
155.3549915869
 20
31.4326554138
 11
155.6440543074
 21
31.4649194065
 12
155.412804528
 22
31.3681282026
 13
155.412804528
 23
31.3681282026
  0
SOLID
  8
0
 62
7
  6
CONTINUOUS
 10
155.6440543074
 20
31.4649194065
 11
155.7018665869
 21
31.3681282026
 12
155.412804528
 22
31.3681282026
 13
155.412804528
 23
31.3681282026
  0
SOLID
  8
0
 62
7
  6
CONTINUOUS
 10
155.412804528
 20
31.2713369632
 11
155.412804528
 21
31.3681282026
 12
155.7018665869
 22
31.3681282026
 13
155.7018665869
 23
31.3681282026
  0
SOLID
  8
0
 62
7
  6
CONTINUOUS
 10
155.412804528
 20
31.2713369632
 11
155.7018665869
 21
31.3681282026
 12
155.412804528
 22
31.1422827828
 13
155.412804528
 23
31.1422827828
  0
SOLID
  8
0
 62
7
  6
CONTINUOUS
 10
155.412804528
 20
31.1422827828
 11
155.7018665869
 21
31.3681282026
 12
155.412804528
 22
30.9487004259
 13
155.412804528
 23
30.9487004259
  0
SOLID
  8
0
 62
7
  6
CONTINUOUS
 10
155.7018665869
 20
31.3681282026
 11
155.7018665869
 21
30.8519086025
 12
155.412804528
 22
30.9487004259
 13
155.412804528
 23
30.9487004259
  0
SOLID
  8
0
 62
7
  6
CONTINUOUS
 10
157.6096790869
 20
31.5939736268
 11
157.840929528
 21
31.6262383465
 12
158.0721793074
 22
31.6262383465
 13
158.0721793074
 23
31.6262383465
  0
SOLID
  8
0
 62
7
  6
CONTINUOUS
 10
158.0721793074
 20
31.6262383465
 11
158.2456168074
 21
31.5939736268
 12
157.6096790869
 22
31.5939736268
 13
157.6096790869
 23
31.5939736268
  0
SOLID
  8
0
 62
7
  6
CONTINUOUS
 10
157.4362415869
 20
31.5294472848
 11
157.6096790869
 21
31.5939736268
 12
158.2456168074
 22
31.5939736268
 13
158.2456168074
 23
31.5939736268
  0
SOLID
  8
0
 62
7
  6
CONTINUOUS
 10
158.2456168074
 20
31.5939736268
 11
158.4190543074
 21
31.5294472848
 12
157.4362415869
 22
31.5294472848
 13
157.4362415869
 23
31.5294472848
  0
SOLID
  8
0
 62
7
  6
CONTINUOUS
 10
158.4190543074
 20
31.5294472848
 11
157.840929528
 21
31.4971825369
 12
157.4362415869
 22
31.5294472848
 13
157.4362415869
 23
31.5294472848
  0
SOLID
  8
0
 62
7
  6
CONTINUOUS
 10
157.320617028
 20
31.4649199103
 11
157.4362415869
 21
31.5294472848
 12
157.840929528
 22
31.4971825369
 13
157.840929528
 23
31.4971825369
  0
SOLID
  8
0
 62
7
  6
CONTINUOUS
 10
157.840929528
 20
31.4971825369
 11
157.6096790869
 21
31.4649199103
 12
157.320617028
 22
31.4649199103
 13
157.320617028
 23
31.4649199103
  0
SOLID
  8
0
 62
7
  6
CONTINUOUS
 10
157.840929528
 20
31.4971825369
 11
158.4190543074
 21
31.5294472848
 12
158.0721793074
 22
31.4649199103
 13
158.0721793074
 23
31.4649199103
  0
SOLID
  8
0
 62
7
  6
CONTINUOUS
 10
158.4190543074
 20
31.5294472848
 11
158.534679528
 21
31.4649199103
 12
158.0721793074
 22
31.4649199103
 13
158.0721793074
 23
31.4649199103
  0
SOLID
  8
0
 62
7
  6
CONTINUOUS
 10
158.187804528
 20
31.4326554468
 11
158.0721793074
 21
31.4649199103
 12
158.534679528
 22
31.4649199103
 13
158.534679528
 23
31.4649199103
  0
SOLID
  8
0
 62
7
  6
CONTINUOUS
 10
158.187804528
 20
31.4326554468
 11
158.534679528
 21
31.4649199103
 12
158.3034290869
 22
31.3681288486
 13
158.3034290869
 23
31.3681288486
  0
SOLID
  8
0
 62
7
  6
CONTINUOUS
 10
158.534679528
 20
31.4649199103
 11
158.5924918074
 21
31.3681288486
 12
158.3034290869
 22
31.3681288486
 13
158.3034290869
 23
31.3681288486
  0
SOLID
  8
0
 62
7
  6
CONTINUOUS
 10
158.361242028
 20
31.2068093799
 11
158.3034290869
 21
31.3681288486
 12
158.5924918074
 22
31.3681288486
 13
158.5924918074
 23
31.3681288486
  0
SOLID
  8
0
 62
7
  6
CONTINUOUS
 10
158.5924918074
 20
31.3681288486
 11
158.6503040869
 21
31.2068093799
 12
158.361242028
 22
31.2068093799
 13
158.361242028
 23
31.2068093799
  0
SOLID
  8
0
 62
7
  6
CONTINUOUS
 10
157.6096790869
 20
31.4649199103
 11
157.4362415869
 21
31.4003926599
 12
157.320617028
 22
31.4649199103
 13
157.320617028
 23
31.4649199103
  0
SOLID
  8
0
 62
7
  6
CONTINUOUS
 10
157.4362415869
 20
31.4003926599
 11
157.320617028
 21
31.3358640533
 12
157.320617028
 22
31.4649199103
 13
157.320617028
 23
31.4649199103
  0
SOLID
  8
0
 62
7
  6
CONTINUOUS
 10
157.320617028
 20
31.3358640533
 11
157.0315543074
 21
30.5938003547
 12
157.320617028
 22
31.4649199103
 13
157.320617028
 23
31.4649199103
  0
SOLID
  8
0
 62
7
  6
CONTINUOUS
 10
157.320617028
 20
31.4649199103
 11
157.0315543074
 21
30.5938003547
 12
157.320617028
 22
31.6262383465
 13
157.320617028
 23
31.6262383465
  0
SOLID
  8
0
 62
7
  6
CONTINUOUS
 10
157.0315543074
 20
30.5938003547
 11
157.0315543074
 21
31.6262383465
 12
157.320617028
 22
31.6262383465
 13
157.320617028
 23
31.6262383465
  0
SOLID
  8
0
 62
7
  6
CONTINUOUS
 10
157.320617028
 20
31.3358640533
 11
157.320617028
 21
30.5938003547
 12
157.0315543074
 22
30.5938003547
 13
157.0315543074
 23
30.5938003547
  0
SOLID
  8
0
 62
7
  6
CONTINUOUS
 10
158.361242028
 20
30.5938003547
 11
158.361242028
 21
31.2068093799
 12
158.6503040869
 22
31.2068093799
 13
158.6503040869
 23
31.2068093799
  0
SOLID
  8
0
 62
7
  6
CONTINUOUS
 10
158.6503040869
 20
31.2068093799
 11
158.6503040869
 21
30.5938003547
 12
158.361242028
 22
30.5938003547
 13
158.361242028
 23
30.5938003547
  0
SOLID
  8
0
 62
7
  6
CONTINUOUS
 10
159.4596793074
 20
31.5939739474
 11
159.8065543074
 21
31.6262381969
 12
160.1534293074
 22
31.6262381969
 13
160.1534293074
 23
31.6262381969
  0
SOLID
  8
0
 62
7
  6
CONTINUOUS
 10
160.1534293074
 20
31.6262381969
 11
160.5003043074
 21
31.5939739474
 12
159.4596793074
 22
31.5939739474
 13
159.4596793074
 23
31.5939739474
  0
SOLID
  8
0
 62
7
  6
CONTINUOUS
 10
159.228429528
 20
31.5294468402
 11
159.4596793074
 21
31.5939739474
 12
160.5003043074
 22
31.5939739474
 13
160.5003043074
 23
31.5939739474
  0
SOLID
  8
0
 62
7
  6
CONTINUOUS
 10
159.228429528
 20
31.5294468402
 11
160.5003043074
 21
31.5939739304
 12
160.6737418074
 22
31.5617111435
 13
160.6737418074
 23
31.5617111435
  0
SOLID
  8
0
 62
7
  6
CONTINUOUS
 10
159.228429528
 20
31.5294468402
 11
160.6737418074
 21
31.5617111435
 12
159.8065543074
 22
31.4971825592
 13
159.8065543074
 23
31.4971825592
  0
SOLID
  8
0
 62
7
  6
CONTINUOUS
 10
159.8065543074
 20
31.4971825592
 11
160.6737418074
 21
31.5617111435
 12
160.1534293074
 22
31.4971825592
 13
160.1534293074
 23
31.4971825592
  0
SOLID
  8
0
 62
7
  6
CONTINUOUS
 10
160.6737418074
 20
31.5617111435
 11
160.8471793074
 21
31.4971825592
 12
160.1534293074
 22
31.4971825592
 13
160.1534293074
 23
31.4971825592
  0
SOLID
  8
0
 62
7
  6
CONTINUOUS
 10
160.5003043074
 20
31.4649197501
 11
160.1534293074
 21
31.4971825592
 12
160.8471793074
 22
31.4971825592
 13
160.8471793074
 23
31.4971825592
  0
SOLID
  8
0
 62
7
  6
CONTINUOUS
 10
159.1128043074
 20
31.4326555427
 11
159.228429528
 21
31.5294468402
 12
159.8065543074
 22
31.4971825592
 13
159.8065543074
 23
31.4971825592
  0
SOLID
  8
0
 62
7
  6
CONTINUOUS
 10
160.5003043074
 20
31.4649197501
 11
160.8471793074
 21
31.4971825592
 12
160.615929528
 22
31.4326555427
 13
160.615929528
 23
31.4326555427
  0
SOLID
  8
0
 62
7
  6
CONTINUOUS
 10
160.615929528
 20
31.4326555427
 11
160.8471793074
 21
31.4971825592
 12
160.6737418074
 22
31.3681283005
 13
160.6737418074
 23
31.3681283005
  0
SOLID
  8
0
 62
7
  6
CONTINUOUS
 10
160.8471793074
 20
31.4971825592
 11
160.9628038663
 21
31.3681283005
 12
160.6737418074
 22
31.3681283005
 13
160.6737418074
 23
31.3681283005
  0
SOLID
  8
0
 62
7
  6
CONTINUOUS
 10
150.2674918074
 20
31.4649197501
 11
149.7471793074
 21
31.4326554237
 12
150.498741835
 22
31.4971824493
 13
150.498741835
 23
31.4971824493
  0
SOLID
  8
0
 62
7
  6
CONTINUOUS
 10
149.7471793074
 20
31.4326554237
 11
149.8628043005
 21
31.4971824493
 12
150.498741835
 22
31.4971824493
 13
150.498741835
 23
31.4971824493
  0
SOLID
  8
0
 62
7
  6
CONTINUOUS
 10
150.2674918074
 20
31.4649197501
 11
150.1518667936
 21
31.4326554237
 12
149.7471793074
 22
31.4326554237
 13
149.7471793074
 23
31.4326554237
  0
SOLID
  8
0
 62
7
  6
CONTINUOUS
 10
149.6315543091
 20
31.3036012664
 11
149.7471793074
 21
31.4326554237
 12
150.1518667936
 22
31.4326554237
 13
150.1518667936
 23
31.4326554237
  0
SOLID
  8
0
 62
7
  6
CONTINUOUS
 10
153.9674919177
 20
31.4326554237
 11
154.6612419177
 21
31.4971825369
 12
154.4299918074
 22
31.4649197501
 13
154.4299918074
 23
31.4649197501
  0
SOLID
  8
0
 62
7
  6
CONTINUOUS
 10
154.4299918074
 20
31.4649197501
 11
154.3143669177
 21
31.4326554237
 12
153.9674919177
 22
31.4326554237
 13
153.9674919177
 23
31.4326554237
  0
SOLID
  8
0
 62
7
  6
CONTINUOUS
 10
153.9674919177
 20
31.3681283335
 11
153.9674919177
 21
31.4326554237
 12
154.3143669177
 22
31.4326554237
 13
154.3143669177
 23
31.4326554237
  0
SOLID
  8
0
 62
7
  6
CONTINUOUS
 10
154.3143669177
 20
31.4326554237
 11
154.2565543074
 21
31.3681283335
 12
153.9674919177
 22
31.3681283335
 13
153.9674919177
 23
31.3681283335
  0
SOLID
  8
0
 62
7
  6
CONTINUOUS
 10
159.1128043074
 20
31.4326555528
 11
159.8065543074
 21
31.4971825369
 12
159.575304528
 22
31.4649197501
 13
159.575304528
 23
31.4649197501
  0
SOLID
  8
0
 62
7
  6
CONTINUOUS
 10
159.575304528
 20
31.4649197501
 11
159.4596793074
 21
31.4326555528
 12
159.1128043074
 22
31.4326555528
 13
159.1128043074
 23
31.4326555528
  0
SOLID
  8
0
 62
7
  6
CONTINUOUS
 10
159.1128043074
 20
31.3681284626
 11
159.1128043074
 21
31.4326555528
 12
159.4596793074
 22
31.4326555528
 13
159.4596793074
 23
31.4326555528
  0
SOLID
  8
0
 62
7
  6
CONTINUOUS
 10
159.4596793074
 20
31.4326555528
 11
159.401867028
 21
31.3681284626
 12
159.1128043074
 22
31.3681284626
 13
159.1128043074
 23
31.3681284626
  0
SOLID
  8
0
 62
7
  6
CONTINUOUS
 10
159.228429528
 20
31.2390741763
 11
159.1128043074
 21
31.3681284626
 12
159.401867028
 22
31.3681284626
 13
159.401867028
 23
31.3681284626
  0
SOLID
  8
0
 62
7
  6
CONTINUOUS
 10
149.6315543091
 20
31.3036012664
 11
150.1518667936
 21
31.4326554468
 12
149.9784292936
 22
31.3358640533
 13
149.9784292936
 23
31.3358640533
  0
SOLID
  8
0
 62
7
  6
CONTINUOUS
 10
149.9784292936
 20
31.3358640533
 11
149.9206168074
 21
31.2713369632
 12
149.6315543091
 22
31.3036012664
 13
149.6315543091
 23
31.3036012664
  0
SOLID
  8
0
 62
7
  6
CONTINUOUS
 10
149.5737418074
 20
31.1100184796
 11
149.6315543091
 21
31.3036012664
 12
149.9206168074
 22
31.2713369632
 13
149.9206168074
 23
31.2713369632
  0
SOLID
  8
0
 62
7
  6
CONTINUOUS
 10
154.4299918074
 20
31.2390741763
 11
154.7768668074
 21
31.271336924
 12
155.412804528
 22
31.271336924
 13
155.412804528
 23
31.271336924
  0
SOLID
  8
0
 62
7
  6
CONTINUOUS
 10
154.4299918074
 20
31.2390741763
 11
155.412804528
 21
31.271336924
 12
154.1987416972
 22
31.1745462761
 13
154.1987416972
 23
31.1745462761
  0
SOLID
  8
0
 62
7
  6
CONTINUOUS
 10
154.1987416972
 20
31.1745462761
 11
155.412804528
 21
31.271336924
 12
154.7768668074
 22
31.1422827436
 13
154.7768668074
 23
31.1422827436
  0
SOLID
  8
0
 62
7
  6
CONTINUOUS
 10
155.412804528
 20
31.271336924
 11
155.412804528
 21
31.1422827436
 12
154.7768668074
 22
31.1422827436
 13
154.7768668074
 23
31.1422827436
  0
SOLID
  8
0
 62
7
  6
CONTINUOUS
 10
159.228429528
 20
31.2390745501
 11
159.401867028
 21
31.3681283566
 12
159.4596793074
 22
31.3036012664
 13
159.4596793074
 23
31.3036012664
  0
SOLID
  8
0
 62
7
  6
CONTINUOUS
 10
159.4596793074
 20
31.3036012664
 11
159.6331168074
 21
31.2390745501
 12
159.228429528
 22
31.2390745501
 13
159.228429528
 23
31.2390745501
  0
SOLID
  8
0
 62
7
  6
CONTINUOUS
 10
159.4596793074
 20
31.1422827828
 11
159.228429528
 21
31.2390745501
 12
159.6331168074
 22
31.2390745501
 13
159.6331168074
 23
31.2390745501
  0
SOLID
  8
0
 62
7
  6
CONTINUOUS
 10
159.6331168074
 20
31.2390745501
 11
160.615929528
 21
31.0777556927
 12
159.4596793074
 22
31.1422827828
 13
159.4596793074
 23
31.1422827828
  0
SOLID
  8
0
 62
7
  6
CONTINUOUS
 10
160.442492028
 20
30.9809646623
 11
159.4596793074
 21
31.1422827828
 12
160.615929528
 22
31.0777556927
 13
160.615929528
 23
31.0777556927
  0
SOLID
  8
0
 62
7
  6
CONTINUOUS
 10
160.615929528
 20
31.0777556927
 11
160.8471793074
 21
30.9809646623
 12
160.442492028
 22
30.9809646623
 13
160.442492028
 23
30.9809646623
  0
SOLID
  8
0
 62
7
  6
CONTINUOUS
 10
160.615929528
 20
30.9164372091
 11
160.442492028
 21
30.9809646623
 12
160.8471793074
 22
30.9809646623
 13
160.8471793074
 23
30.9809646623
  0
SOLID
  8
0
 62
7
  6
CONTINUOUS
 10
160.615929528
 20
30.9164372091
 11
160.8471793074
 21
30.9809646623
 12
160.6737418074
 22
30.8519089441
 13
160.6737418074
 23
30.8519089441
  0
SOLID
  8
0
 62
7
  6
CONTINUOUS
 10
160.8471793074
 20
30.9809646623
 11
160.9628038663
 21
30.8519089441
 12
160.6737418074
 22
30.8519089441
 13
160.6737418074
 23
30.8519089441
  0
SOLID
  8
0
 62
7
  6
CONTINUOUS
 10
160.615929528
 20
30.7873818593
 11
160.6737418074
 21
30.8519089441
 12
160.9628038663
 22
30.8519089441
 13
160.9628038663
 23
30.8519089441
  0
SOLID
  8
0
 62
7
  6
CONTINUOUS
 10
160.9628038663
 20
30.8519089441
 11
160.9628038663
 21
30.7873818593
 12
160.615929528
 22
30.7873818593
 13
160.615929528
 23
30.7873818593
  0
SOLID
  8
0
 62
7
  6
CONTINUOUS
 10
160.5003043074
 20
30.7551187255
 11
160.615929528
 21
30.7873818593
 12
160.9628038663
 22
30.7873818593
 13
160.9628038663
 23
30.7873818593
  0
SOLID
  8
0
 62
7
  6
CONTINUOUS
 10
160.5003043074
 20
30.7551187255
 11
160.9628038663
 21
30.7873818593
 12
160.269054528
 22
30.7228547745
 13
160.269054528
 23
30.7228547745
  0
SOLID
  8
0
 62
7
  6
CONTINUOUS
 10
160.9628038663
 20
30.7873818593
 11
160.8471793074
 21
30.6905916353
 12
160.269054528
 22
30.7228547745
 13
160.269054528
 23
30.7228547745
  0
SOLID
  8
0
 62
7
  6
CONTINUOUS
 10
160.8471793074
 20
30.6905916353
 11
159.401867028
 21
30.658327332
 12
160.269054528
 22
30.7228547745
 13
160.269054528
 23
30.7228547745
  0
SOLID
  8
0
 62
7
  6
CONTINUOUS
 10
160.269054528
 20
30.7228547745
 11
159.401867028
 21
30.658327332
 12
159.922179528
 22
30.7228547745
 13
159.922179528
 23
30.7228547745
  0
SOLID
  8
0
 62
7
  6
CONTINUOUS
 10
159.401867028
 20
30.658327332
 11
159.228429528
 21
30.7228547745
 12
159.922179528
 22
30.7228547745
 13
159.922179528
 23
30.7228547745
  0
SOLID
  8
0
 62
7
  6
CONTINUOUS
 10
159.401867028
 20
30.658327332
 11
160.8471793074
 21
30.6905916353
 12
159.575304528
 22
30.6260629858
 13
159.575304528
 23
30.6260629858
  0
SOLID
  8
0
 62
7
  6
CONTINUOUS
 10
160.8471793074
 20
30.6905916353
 11
160.615929528
 21
30.6260629858
 12
159.575304528
 22
30.6260629858
 13
159.575304528
 23
30.6260629858
  0
SOLID
  8
0
 62
7
  6
CONTINUOUS
 10
159.922179528
 20
30.5938006049
 11
159.575304528
 21
30.6260629858
 12
160.615929528
 22
30.6260629858
 13
160.615929528
 23
30.6260629858
  0
SOLID
  8
0
 62
7
  6
CONTINUOUS
 10
160.615929528
 20
30.6260629858
 11
160.269054528
 21
30.5938006049
 12
159.922179528
 22
30.5938006049
 13
159.922179528
 23
30.5938006049
  0
SOLID
  8
0
 62
7
  6
CONTINUOUS
 10
149.5737418074
 20
31.1100184796
 11
149.9206168074
 21
31.2713369632
 12
149.8628043005
 22
31.1422827828
 13
149.8628043005
 23
31.1422827828
  0
SOLID
  8
0
 62
7
  6
CONTINUOUS
 10
149.8628043005
 20
31.1422827828
 11
149.8628043005
 21
31.0454914852
 12
149.5737418074
 22
31.1100184796
 13
149.5737418074
 23
31.1100184796
  0
SOLID
  8
0
 62
7
  6
CONTINUOUS
 10
149.6315543091
 20
30.9164372091
 11
149.5737418074
 21
31.1100184796
 12
149.8628043005
 22
31.0454914852
 13
149.8628043005
 23
31.0454914852
  0
SOLID
  8
0
 62
7
  6
CONTINUOUS
 10
149.8628043005
 20
31.0454914852
 11
149.9784292936
 21
30.8841729058
 12
149.6315543091
 22
30.9164372091
 13
149.6315543091
 23
30.9164372091
  0
SOLID
  8
0
 62
7
  6
CONTINUOUS
 10
149.7471793074
 20
30.7873813202
 11
149.6315543091
 21
30.9164372091
 12
149.9784292936
 22
30.8841729058
 13
149.9784292936
 23
30.8841729058
  0
SOLID
  8
0
 62
7
  6
CONTINUOUS
 10
149.9784292936
 20
30.8841729058
 11
150.1518667936
 21
30.7873813202
 12
149.7471793074
 22
30.7873813202
 13
149.7471793074
 23
30.7873813202
  0
SOLID
  8
0
 62
7
  6
CONTINUOUS
 10
149.8628043005
 20
30.7228547004
 11
149.7471793074
 21
30.7873813202
 12
150.1518667936
 22
30.7873813202
 13
150.1518667936
 23
30.7873813202
  0
SOLID
  8
0
 62
7
  6
CONTINUOUS
 10
150.1518667936
 20
30.7873813202
 11
150.498741835
 21
30.7228547004
 12
149.8628043005
 22
30.7228547004
 13
149.8628043005
 23
30.7228547004
  0
SOLID
  8
0
 62
7
  6
CONTINUOUS
 10
150.0362418212
 20
30.658327332
 11
149.8628043005
 21
30.7228547004
 12
150.498741835
 22
30.7228547004
 13
150.498741835
 23
30.7228547004
  0
SOLID
  8
0
 62
7
  6
CONTINUOUS
 10
154.0831168074
 20
31.1100184386
 11
154.1987416972
 21
31.1745462761
 12
154.7768668074
 22
31.1422827828
 13
154.7768668074
 23
31.1422827828
  0
SOLID
  8
0
 62
7
  6
CONTINUOUS
 10
154.7768668074
 20
31.1422827828
 11
154.5456166972
 21
31.1100184386
 12
154.0831168074
 22
31.1100184386
 13
154.0831168074
 23
31.1100184386
  0
SOLID
  8
0
 62
7
  6
CONTINUOUS
 10
153.9674919177
 20
30.9809642992
 11
154.0831168074
 21
31.1100184386
 12
154.5456166972
 22
31.1100184386
 13
154.5456166972
 23
31.1100184386
  0
SOLID
  8
0
 62
7
  6
CONTINUOUS
 10
154.3143669177
 20
31.0132277988
 11
153.9674919177
 21
30.9809642992
 12
154.4299918074
 22
31.0777556927
 13
154.4299918074
 23
31.0777556927
  0
SOLID
  8
0
 62
7
  6
CONTINUOUS
 10
153.9674919177
 20
30.9809642992
 11
154.5456166972
 21
31.1100184796
 12
154.4299918074
 22
31.0777556927
 13
154.4299918074
 23
31.0777556927
  0
SOLID
  8
0
 62
7
  6
CONTINUOUS
 10
154.3143669177
 20
31.0132277988
 11
154.2565543074
 21
30.9164372091
 12
153.9674919177
 22
30.9809642992
 13
153.9674919177
 23
30.9809642992
  0
SOLID
  8
0
 62
7
  6
CONTINUOUS
 10
153.9674919177
 20
30.8841729058
 11
153.9674919177
 21
30.9809642992
 12
154.2565543074
 22
30.9164372091
 13
154.2565543074
 23
30.9164372091
  0
SOLID
  8
0
 62
7
  6
CONTINUOUS
 10
154.2565543074
 20
30.9164372091
 11
154.2565543074
 21
30.8519086025
 12
153.9674919177
 22
30.8841729058
 13
153.9674919177
 23
30.8841729058
  0
SOLID
  8
0
 62
7
  6
CONTINUOUS
 10
154.0253041972
 20
30.7551187255
 11
153.9674919177
 21
30.8841729058
 12
154.2565543074
 22
30.8519086025
 13
154.2565543074
 23
30.8519086025
  0
SOLID
  8
0
 62
7
  6
CONTINUOUS
 10
155.412804528
 20
30.9487004259
 11
155.7018665869
 21
30.8519086025
 12
155.3549915869
 22
30.8841729058
 13
155.3549915869
 23
30.8841729058
  0
SOLID
  8
0
 62
7
  6
CONTINUOUS
 10
155.1815540869
 20
30.7873815123
 11
155.3549915869
 21
30.8841729058
 12
155.7018665869
 22
30.8519086025
 13
155.7018665869
 23
30.8519086025
  0
SOLID
  8
0
 62
7
  6
CONTINUOUS
 10
155.1815540869
 20
30.7873815123
 11
155.7018665869
 21
30.8519086025
 12
155.412804528
 22
30.7551187255
 13
155.412804528
 23
30.7551187255
  0
SOLID
  8
0
 62
7
  6
CONTINUOUS
 10
155.7018665869
 20
30.8519086025
 11
155.759679528
 21
30.6905916353
 12
155.412804528
 22
30.7551187255
 13
155.412804528
 23
30.7551187255
  0
SOLID
  8
0
 62
7
  6
CONTINUOUS
 10
155.4706168074
 20
30.658327332
 11
155.412804528
 21
30.7551187255
 12
155.759679528
 22
30.6905916353
 13
155.759679528
 23
30.6905916353
  0
SOLID
  8
0
 62
7
  6
CONTINUOUS
 10
155.4706168074
 20
30.658327332
 11
155.759679528
 21
30.6905916353
 12
155.5284290869
 22
30.5938002079
 13
155.5284290869
 23
30.5938002079
  0
SOLID
  8
0
 62
7
  6
CONTINUOUS
 10
155.759679528
 20
30.6905916353
 11
155.8174918074
 21
30.5938002079
 12
155.5284290869
 22
30.5938002079
 13
155.5284290869
 23
30.5938002079
  0
SOLID
  8
0
 62
7
  6
CONTINUOUS
 10
151.0768668626
 20
30.8196456577
 11
151.1346793074
 21
30.9164373395
 12
151.4237418626
 22
30.9164373395
 13
151.4237418626
 23
30.9164373395
  0
SOLID
  8
0
 62
7
  6
CONTINUOUS
 10
151.4237418626
 20
30.9164373395
 11
151.3659292523
 21
30.7873815123
 12
151.0768668626
 22
30.8196456577
 13
151.0768668626
 23
30.8196456577
  0
SOLID
  8
0
 62
7
  6
CONTINUOUS
 10
150.9034292799
 20
30.7551187255
 11
151.0768668626
 21
30.8196456577
 12
151.3659292523
 22
30.7873815123
 13
151.3659292523
 23
30.7873815123
  0
SOLID
  8
0
 62
7
  6
CONTINUOUS
 10
150.9034292799
 20
30.7551187255
 11
151.3659292523
 21
30.7873815123
 12
150.498741835
 22
30.7228544222
 13
150.498741835
 23
30.7228544222
  0
SOLID
  8
0
 62
7
  6
CONTINUOUS
 10
151.3659292523
 20
30.7873815123
 11
151.1924917523
 21
30.6905916353
 12
150.498741835
 22
30.7228544222
 13
150.498741835
 23
30.7228544222
  0
SOLID
  8
0
 62
7
  6
CONTINUOUS
 10
150.0362418212
 20
30.658327332
 11
150.498741835
 21
30.7228544222
 12
151.1924917523
 22
30.6905916353
 13
151.1924917523
 23
30.6905916353
  0
SOLID
  8
0
 62
7
  6
CONTINUOUS
 10
150.0362418212
 20
30.658327332
 11
151.1924917523
 21
30.6905916353
 12
150.2096793212
 22
30.6260631011
 13
150.2096793212
 23
30.6260631011
  0
SOLID
  8
0
 62
7
  6
CONTINUOUS
 10
151.1924917523
 20
30.6905916353
 11
150.9612418074
 21
30.6260631011
 12
150.2096793212
 22
30.6260631011
 13
150.2096793212
 23
30.6260631011
  0
SOLID
  8
0
 62
7
  6
CONTINUOUS
 10
150.5565542799
 20
30.5938002419
 11
150.2096793212
 21
30.6260631011
 12
150.9612418074
 22
30.6260631011
 13
150.9612418074
 23
30.6260631011
  0
SOLID
  8
0
 62
7
  6
CONTINUOUS
 10
154.0253041972
 20
30.7551187255
 11
154.2565543074
 21
30.8519086025
 12
154.3143669177
 22
30.7873815123
 13
154.3143669177
 23
30.7873815123
  0
SOLID
  8
0
 62
7
  6
CONTINUOUS
 10
154.3143669177
 20
30.7873815123
 11
154.5456166972
 21
30.7228544222
 12
154.0253041972
 22
30.7551187255
 13
154.0253041972
 23
30.7551187255
  0
SOLID
  8
0
 62
7
  6
CONTINUOUS
 10
154.1987416972
 20
30.658327332
 11
154.0253041972
 21
30.7551187255
 12
154.5456166972
 22
30.7228544222
 13
154.5456166972
 23
30.7228544222
  0
SOLID
  8
0
 62
7
  6
CONTINUOUS
 10
154.8924916972
 20
30.7228544637
 11
155.1815540869
 21
30.7873815123
 12
155.412804528
 22
30.7551187255
 13
155.412804528
 23
30.7551187255
  0
SOLID
  8
0
 62
7
  6
CONTINUOUS
 10
155.412804528
 20
30.7551187255
 11
155.3549915869
 21
30.6905916353
 12
154.8924916972
 22
30.7228544637
 13
154.8924916972
 23
30.7228544637
  0
SOLID
  8
0
 62
7
  6
CONTINUOUS
 10
155.3549915869
 20
30.6905916353
 11
154.1987416972
 21
30.658327332
 12
154.8924916972
 22
30.7228544637
 13
154.8924916972
 23
30.7228544637
  0
SOLID
  8
0
 62
7
  6
CONTINUOUS
 10
154.1987416972
 20
30.658327332
 11
154.5456166972
 21
30.7228544637
 12
154.8924916972
 22
30.7228544637
 13
154.8924916972
 23
30.7228544637
  0
SOLID
  8
0
 62
7
  6
CONTINUOUS
 10
154.1987416972
 20
30.658327332
 11
155.3549915869
 21
30.6905916353
 12
154.3143669177
 22
30.6260630541
 13
154.3143669177
 23
30.6260630541
  0
SOLID
  8
0
 62
7
  6
CONTINUOUS
 10
155.3549915869
 20
30.6905916353
 11
155.1815540869
 21
30.6260630541
 12
154.3143669177
 22
30.6260630541
 13
154.3143669177
 23
30.6260630541
  0
SOLID
  8
0
 62
7
  6
CONTINUOUS
 10
154.5456166972
 20
30.5938002188
 11
154.3143669177
 21
30.6260630541
 12
155.1815540869
 22
30.6260630541
 13
155.1815540869
 23
30.6260630541
  0
SOLID
  8
0
 62
7
  6
CONTINUOUS
 10
155.1815540869
 20
30.6260630541
 11
154.8924916972
 21
30.5938002188
 12
154.5456166972
 22
30.5938002188
 13
154.5456166972
 23
30.5938002188
  0
SOLID
  8
0
 62
7
  6
CONTINUOUS
 10
159.575304528
 20
30.7551187255
 11
159.228429528
 21
30.7228544637
 12
159.4596793074
 22
30.7873815123
 13
159.4596793074
 23
30.7873815123
  0
SOLID
  8
0
 62
7
  6
CONTINUOUS
 10
159.4596793074
 20
30.7873815123
 11
159.228429528
 21
30.7228544637
 12
159.401867028
 22
30.851908644
 13
159.401867028
 23
30.851908644
  0
SOLID
  8
0
 62
7
  6
CONTINUOUS
 10
159.228429528
 20
30.7228544637
 11
159.1128043074
 21
30.851908644
 12
159.401867028
 22
30.851908644
 13
159.401867028
 23
30.851908644
  0
SOLID
  8
0
 62
7
  6
CONTINUOUS
 10
159.575304528
 20
30.7551187255
 11
159.922179528
 21
30.7228544637
 12
159.228429528
 22
30.7228544637
 13
159.228429528
 23
30.7228544637
  0
SOLID
  8
0
 62
7
  6
CONTINUOUS
 10
156.279992028
 20
30.5938002419
 11
156.279992028
 21
31.6262382337
 12
156.5690540869
 22
30.5938002419
 13
156.5690540869
 23
31.6262382337
  0
ENDBLK
  8
0
  6
BYBLOCK
 62
0
  0
BLOCK
  8
0
 62
2
  6
CONTINUOUS
  2
AMMEAAL_LOGO_BL0
 70
64
 10
32.1213064866
 20
19.8534310916
  0
TEXT
  8
0
 62
7
  6
CONTINUOUS
 10
18.3860103289
 20
19.2268451992
  7
TEXTSTYLE_3
 40
2.7338706658
  1
Ammeraal Beltech
 41
1.0
 51
15.0
 72
0
  0
TEXT
  8
0
 62
7
  6
CONTINUOUS
 10
29.1868111546
 20
16.9533085264
  7
TEXTSTYLE_4
 40
1.0935482663
  1
Innovation & Service in Belting
 41
1.0
 72
0
  0
LINE
  8
0
 62
7
  6
CONTINUOUS
 10
12.3614696776
 20
19.9934385078
 11
13.1396216709
 21
23.6543558055
  0
LINE
  8
0
 62
7
  6
CONTINUOUS
 10
23.2347899607
 20
27.3177497171
 11
13.6274394139
 21
24.1961322958
  0
LINE
  8
0
 62
7
  6
CONTINUOUS
 10
12.5867530099
 20
19.3000877048
 11
20.093828271
 21
12.5406867788
  0
LINE
  8
0
 62
7
  6
CONTINUOUS
 10
12.8492874206
 20
20.5352149982
 11
23.6575567857
 21
24.0470345971
  0
LINE
  8
0
 62
7
  6
CONTINUOUS
 10
23.6533516486
 20
13.6972460334
 11
15.2078919798
 21
21.3015720751
  0
LINE
  8
0
 62
7
  6
CONTINUOUS
 10
24.1731743684
 20
26.4728246013
 11
23.1966148312
 21
21.8784731989
  0
LINE
  8
0
 62
7
  6
CONTINUOUS
 10
22.4968128835
 20
18.5861638851
 11
21.810364672
 21
15.3566789607
  0
LINE
  8
0
 62
7
  6
CONTINUOUS
 10
24.8542704669
 20
14.087448211
 11
25.8105020025
 21
18.5861638851
  0
LINE
  8
0
 62
7
  6
CONTINUOUS
 10
26.5103039502
 20
21.8784731989
 11
26.9545457526
 21
23.9684665583
  0
LINE
  8
0
 62
7
  6
CONTINUOUS
 10
20.8069293463
 20
12.3891124661
 11
24.3664527239
 21
13.5456717207
  0
LINE
  8
0
 62
7
  6
CONTINUOUS
 10
23.9478910361
 20
27.1661754044
 11
26.7292624203
 21
24.6618173613
  0
ARC
  8
0
 62
7
  6
CONTINUOUS
 10
13.8527227462
 20
23.5027814928
 40
0.7290321776
 50
108.0
 51
168.0
  0
ARC
  8
0
 62
7
  6
CONTINUOUS
 10
23.4600732931
 20
26.624398914
 40
0.7290321776
 50
348.0
 51
108.0
  0
ARC
  8
0
 62
7
  6
CONTINUOUS
 10
26.2414446773
 20
24.120040871
 40
0.7290321776
 50
348.0
 51
48.0
  0
ARC
  8
0
 62
7
  6
CONTINUOUS
 10
20.581646014
 20
13.0824632691
 40
0.7290321776
 50
228.0
 51
288.0
  0
ARC
  8
0
 62
7
  6
CONTINUOUS
 10
13.0745707529
 20
19.8418641951
 40
0.7290321776
 50
108.0
 51
228.0
  0
ARC
  8
0
 62
7
  6
CONTINUOUS
 10
24.1411693916
 20
14.2390225237
 40
0.7290321776
 50
228.0
 51
348.0
  0
ENDBLK
  8
0
  6
BYBLOCK
 62
0
  0
ENDSEC
  0
SECTION
  2
ENTITIES
  0
TEXT
  8
0
 62
5
  6
CONTINUOUS
 10
96.0
 20
25.636
  7
TEXTSTYLE_2
 40
2.8
  1
Scale :
 41
0.6
 51
0.000019
 72
0
  0
TEXT
  8
0
 62
5
  6
CONTINUOUS
 10
116.0
 20
25.636
  7
TEXTSTYLE_2
 40
2.8
  1
Belt type:
 41
0.6
 51
0.000019
 72
0
  0
INSERT
  8
0
 62
2
  6
CONTINUOUS
  2
AMMEAAL_LOGO_BL0
 10
32.1213064866
 20
19.8534310916
  0
INSERT
  8
0
 62
2
  6
CONTINUOUS
  2
UNI_LOGO2_BL1
 10
173.5956734183
 20
35.5937998301
  0
LINE
  8
0
 62
2
  6
CONTINUOUS
 10
10.0
 20
30.0
 11
200.0
 21
30.0
  0
LINE
  8
0
 62
2
  6
CONTINUOUS
 10
10.0
 20
30.0
 11
10.0
 21
10.0
  0
LINE
  8
0
 62
2
  6
CONTINUOUS
 10
10.0
 20
10.0
 11
200.0
 21
10.0
  0
LINE
  8
0
 62
2
  6
CONTINUOUS
 10
95.0
 20
30.0
 11
95.0
 21
10.0
  0
LINE
  8
0
 62
2
  6
CONTINUOUS
 10
115.0
 20
30.0
 11
115.0
 21
10.0
  0
LINE
  8
0
 62
2
  6
CONTINUOUS
 10
200.0
 20
30.0
 11
200.0
 21
10.0
  0
TEXT
  8
0
 62
5
  6
CONTINUOUS
 10
13.0
 20
23.303
  7
TEXTSTYLE_5
 40
1.52
  1
                                                                     Ammeraal Beltech Modular A/S
 41
1.0
 72
0
  0
TEXT
  8
0
 62
5
  6
CONTINUOUS
 10
13.0
 20
20.595
  7
TEXTSTYLE_5
 40
1.5
  1
                                                                      Hjulmagervej 21,  7100 Vejle,  DK
 41
1.0
 72
0
  0
TEXT
  8
0
 62
5
  6
CONTINUOUS
 10
13.0
 20
17.881
  7
TEXTSTYLE_5
 40
1.495
  1
                                                                      tel: 
 41
1.0
 72
0
  0
TEXT
  8
0
 62
5
  6
CONTINUOUS
 10
57.9869465649
 20
17.881
  7
TEXTSTYLE_5
 40
1.51
  1
+45 75723100     fax: +45 75723348
 41
1.0
 72
0
  0
TEXT
  8
0
 62
5
  6
CONTINUOUS
 10
13.0
 20
15.177
  7
TEXTSTYLE_5
 40
1.5
  1
                                                                      admin@unichains.dk  www.unichains.com
 41
1.0
 72
0
  0
TEXT
  8
0
 62
5
  6
CONTINUOUS
 10
99.75
 20
13.75
  7
TEXTSTYLE_6
 40
5.0
  1
1:1
 41
0.7
 72
1
 11
105.0
 21
13.75
  0
TEXT
  8
0
 62
5
  6
CONTINUOUS
 10
118.0
 20
13.75
  7
TEXTSTYLE_7
 40
7.5
  1
Sprocket Z18 2,5" SQ
 41
0.48875
 72
0
  0
LINE
  8
0
 62
7
  6
CONTINUOUS
 10
210.0
 20
0.0
 11
0.0
 21
0.0
  0
LINE
  8
0
 62
7
  6
CONTINUOUS
 10
10.0
 20
10.0
 11
200.0
 21
10.0
  0
LINE
  8
0
 62
7
  6
CONTINUOUS
 10
10.0
 20
30.0
 11
200.0
 21
30.0
  0
LINE
  8
0
 62
7
  6
CONTINUOUS
 10
0.0
 20
0.0
 11
0.0
 21
297.0
  0
LINE
  8
0
 62
7
  6
CONTINUOUS
 10
10.0
 20
10.0
 11
10.0
 21
287.0
  0
LINE
  8
0
 62
7
  6
CONTINUOUS
 10
200.0
 20
287.0
 11
200.0
 21
10.0
  0
LINE
  8
0
 62
7
  6
CONTINUOUS
 10
210.0
 20
0.0
 11
210.0
 21
297.0
  0
LINE
  8
0
 62
7
  6
CONTINUOUS
 10
10.0
 20
287.0
 11
200.0
 21
287.0
  0
LINE
  8
0
 62
7
  6
CONTINUOUS
 10
0.0
 20
297.0
 11
210.0
 21
297.0
  0
LINE
  8
0
 62
7
  6
CONTINUOUS
 10
28.4135263421
 20
218.1827012361
 11
27.2995800013
 21
211.8651976057
  0
LINE
  8
0
 62
7
  6
CONTINUOUS
 10
38.1260033443
 20
241.610551274
 11
34.9185226908
 21
236.0550318178
  0
LINE
  8
0
 62
7
  6
CONTINUOUS
 10
55.2655429406
 20
260.3036662991
 11
50.3513974785
 21
256.1802086543
  0
LINE
  8
0
 62
7
  6
CONTINUOUS
 10
77.764863703
 20
272.0073807585
 11
71.7367719002
 21
269.8133347728
  0
LINE
  8
0
 62
7
  6
CONTINUOUS
 10
102.910215493
 20
129.4010043041
 11
96.4952541859
 21
129.4010043041
  0
LINE
  8
0
 62
7
  6
CONTINUOUS
 10
77.764863703
 20
132.7036775055
 11
71.7367719002
 21
134.8977234911
  0
LINE
  8
0
 62
7
  6
CONTINUOUS
 10
50.3513974785
 20
148.5308496096
 11
55.2655429406
 21
144.4073919648
  0
LINE
  8
0
 62
7
  6
CONTINUOUS
 10
34.9185226908
 20
168.6560264462
 11
38.1260033443
 21
163.10050699
  0
LINE
  8
0
 62
7
  6
CONTINUOUS
 10
27.2995800013
 20
192.8458606583
 11
28.4135263421
 21
186.5283570278
  0
LINE
  8
QUILTS
 62
7
  6
CONTINUOUS
 10
44.3736686154
 20
205.588586859
 11
44.3569780937
 21
205.0680209255
  0
LINE
  8
QUILTS
 62
7
  6
CONTINUOUS
 10
44.2902160222
 20
202.9857576757
 11
44.273525504
 21
202.465191854
  0
LINE
  8
QUILTS
 62
7
  6
CONTINUOUS
 10
45.9489424535
 20
218.9653211469
 11
45.9766707995
 21
219.3944589502
  0
LINE
  8
QUILTS
 62
7
  6
CONTINUOUS
 10
44.6673020273
 20
208.7513279174
 11
44.6223177415
 21
208.3370964716
  0
LINE
  8
QUILTS
 62
7
  6
CONTINUOUS
 10
44.5211031467
 20
207.4050761629
 11
44.4648728055
 21
206.8872870038
  0
LINE
  8
QUILTS
 62
7
  6
CONTINUOUS
 10
45.369681398
 20
219.5919125985
 11
45.309729464
 21
219.0637167295
  0
LINE
  8
QUILTS
 62
7
  6
CONTINUOUS
 10
43.4468160488
 20
211.5391786136
 11
43.3652513313
 21
211.0247718183
  0
LINE
  8
QUILTS
 62
7
  6
CONTINUOUS
 10
43.8906030898
 20
210.9414716595
 11
43.9721678072
 21
211.4558784548
  0
LINE
  8
QUILTS
 62
7
  6
CONTINUOUS
 10
45.0228716185
 20
211.2892780905
 11
44.9413069011
 21
210.7748712952
  0
LINE
  8
QUILTS
 62
7
  6
CONTINUOUS
 10
45.6274682592
 20
220.3843714561
 11
45.369681398
 21
219.5919125985
  0
LINE
  8
QUILTS
 62
7
  6
CONTINUOUS
 10
45.9766707995
 20
219.3944589502
 11
46.2344576606
 21
220.1869178078
  0
LINE
  8
QUILTS
 62
7
  6
CONTINUOUS
 10
48.2734792506
 20
227.0207262024
 11
48.0239718501
 21
226.4476895045
  0
LINE
  8
QUILTS
 62
7
  6
CONTINUOUS
 10
46.984357364
 20
224.0600358681
 11
46.6100967392
 21
223.2004819143
  0
LINE
  8
QUILTS
 62
7
  6
CONTINUOUS
 10
50.0614829803
 20
230.3747073302
 11
48.854577457
 21
228.1853286379
  0
LINE
  8
QUILTS
 62
7
  6
CONTINUOUS
 10
49.7152940756
 20
228.4245272567
 11
50.6707613318
 21
230.157786084
  0
LINE
  8
QUILTS
 62
7
  6
CONTINUOUS
 10
51.9750721476
 20
229.4387784801
 11
51.0196048914
 21
227.7055196528
  0
LINE
  8
QUILTS
 62
7
  6
CONTINUOUS
 10
45.889749625
 20
220.8467483088
 11
45.6274682592
 21
220.3843714561
  0
LINE
  8
QUILTS
 62
7
  6
CONTINUOUS
 10
46.2344576606
 20
220.1869178078
 11
46.4645158071
 21
220.5502377284
  0
LINE
  8
QUILTS
 62
7
  6
CONTINUOUS
 10
59.8384692169
 20
240.8346849527
 11
59.4041198281
 21
240.2394205965
  0
LINE
  8
QUILTS
 62
7
  6
CONTINUOUS
 10
56.1102199147
 20
239.0845486613
 11
54.5186761372
 21
237.156599387
  0
LINE
  8
QUILTS
 62
7
  6
CONTINUOUS
 10
55.4088043908
 20
237.2322351513
 11
56.668777054
 21
238.7585289397
  0
LINE
  8
QUILTS
 62
7
  6
CONTINUOUS
 10
57.817342672
 20
237.8103751232
 11
56.5573700089
 21
236.2840813348
  0
LINE
  8
QUILTS
 62
7
  6
CONTINUOUS
 10
50.4060874379
 20
230.7794716073
 11
50.0614829803
 21
230.3747073302
  0
LINE
  8
QUILTS
 62
7
  6
CONTINUOUS
 10
60.2759007447
 20
241.2810946734
 11
59.8384692169
 21
240.8346849527
  0
LINE
  8
QUILTS
 62
7
  6
CONTINUOUS
 10
60.1424065545
 20
240.5368604033
 11
60.5798380823
 21
240.983270124
  0
LINE
  8
QUILTS
 62
7
  6
CONTINUOUS
 10
59.5714841739
 20
239.3462198183
 11
59.9360101689
 21
239.7182276351
  0
LINE
  8
QUILTS
 62
7
  6
CONTINUOUS
 10
61.3563062403
 20
244.5292084942
 11
60.9725549929
 21
244.1770664818
  0
LINE
  8
QUILTS
 62
7
  6
CONTINUOUS
 10
62.467455623
 20
245.5133997807
 11
62.0746651742
 21
245.1713695479
  0
LINE
  8
QUILTS
 62
7
  6
CONTINUOUS
 10
56.5238329318
 20
239.4184807269
 11
56.1102199147
 21
239.0845486613
  0
LINE
  8
QUILTS
 62
7
  6
CONTINUOUS
 10
75.7938259712
 20
253.3986107105
 11
76.1290354166
 21
253.6679909684
  0
LINE
  8
QUILTS
 62
7
  6
CONTINUOUS
 10
75.9087634778
 20
254.1521538125
 11
75.4787402441
 21
253.8396376196
  0
LINE
  8
QUILTS
 62
7
  6
CONTINUOUS
 10
60.7893149382
 20
241.6530465539
 11
60.2759007447
 21
241.2810946734
  0
LINE
  8
QUILTS
 62
7
  6
CONTINUOUS
 10
71.2308660256
 20
251.7791364539
 11
67.6988190089
 21
249.5687650513
  0
LINE
  8
QUILTS
 62
7
  6
CONTINUOUS
 10
67.9809941556
 20
249.1178653139
 11
71.0715337794
 21
251.0519393426
  0
LINE
  8
QUILTS
 62
7
  6
CONTINUOUS
 10
73.3744681917
 20
252.9145342678
 11
72.8233248281
 21
252.6198038949
  0
LINE
  8
QUILTS
 62
7
  6
CONTINUOUS
 10
76.2880229707
 20
254.324699527
 11
75.9087634778
 21
254.1521538125
  0
LINE
  8
QUILTS
 62
7
  6
CONTINUOUS
 10
76.1290354166
 20
253.6679909684
 11
76.5082949096
 21
253.8405366829
  0
LINE
  8
QUILTS
 62
7
  6
CONTINUOUS
 10
77.2131652374
 20
252.2912153108
 11
76.8339057445
 21
252.1186695963
  0
LINE
  8
QUILTS
 62
7
  6
CONTINUOUS
 10
77.0101232956
 20
251.7313393211
 11
77.3893827886
 21
251.9038850356
  0
LINE
  8
QUILTS
 62
7
  6
CONTINUOUS
 10
49.7707347916
 20
219.3651855693
 11
49.775229665
 21
219.035104698
  0
LINE
  8
QUILTS
 62
7
  6
CONTINUOUS
 10
50.4421706938
 20
219.365845765
 11
50.4376758115
 21
219.6959266392
  0
LINE
  8
QUILTS
 62
7
  6
CONTINUOUS
 10
52.5562936473
 20
229.832050126
 11
52.5637036843
 21
230.0658553301
  0
LINE
  8
QUILTS
 62
7
  6
CONTINUOUS
 10
47.3041286074
 20
204.0355470145
 11
47.290776191
 21
203.6190942975
  0
LINE
  8
QUILTS
 62
7
  6
CONTINUOUS
 10
47.7160895399
 20
203.6054577891
 11
47.7294419563
 21
204.0219105061
  0
LINE
  8
QUILTS
 62
7
  6
CONTINUOUS
 10
47.7661610956
 20
205.1671552916
 11
47.7828516174
 21
205.6877212251
  0
LINE
  8
QUILTS
 62
7
  6
CONTINUOUS
 10
47.8492301313
 20
206.5197560045
 11
47.9054604725
 21
207.0375451636
  0
LINE
  8
QUILTS
 62
7
  6
CONTINUOUS
 10
48.1078896621
 20
208.901585781
 11
48.1641199711
 21
209.4193746438
  0
LINE
  8
QUILTS
 62
7
  6
CONTINUOUS
 10
50.3822191373
 20
218.8376510267
 11
50.4421706938
 21
219.365845765
  0
LINE
  8
QUILTS
 62
7
  6
CONTINUOUS
 10
48.3035584497
 20
210.241750232
 11
48.3851231671
 21
210.7561570273
  0
LINE
  8
QUILTS
 62
7
  6
CONTINUOUS
 10
52.0327702984
 20
229.7638084924
 11
51.9750721476
 21
229.4387784801
  0
LINE
  8
QUILTS
 62
7
  6
CONTINUOUS
 10
53.9892363263
 20
228.6852971944
 11
53.9315381755
 21
228.3602671822
  0
LINE
  8
QUILTS
 62
7
  6
CONTINUOUS
 10
58.461349771
 20
238.0891866646
 11
58.5119375283
 21
238.3175737503
  0
LINE
  8
QUILTS
 62
7
  6
CONTINUOUS
 10
47.5964087886
 20
203.1924142737
 11
47.7160895399
 21
203.6054577891
  0
LINE
  8
QUILTS
 62
7
  6
CONTINUOUS
 10
54.4402403647
 20
227.9608962837
 11
54.598514735
 21
228.4683759168
  0
LINE
  8
QUILTS
 62
7
  6
CONTINUOUS
 10
59.4041198281
 20
240.2394205965
 11
59.334293097
 21
240.0161606513
  0
LINE
  8
QUILTS
 62
7
  6
CONTINUOUS
 10
59.8569453642
 20
239.9415401108
 11
59.9267720953
 21
240.164800056
  0
LINE
  8
QUILTS
 62
7
  6
CONTINUOUS
 10
60.458662436
 20
239.6436070945
 11
60.3190106425
 21
239.197088907
  0
LINE
  8
QUILTS
 62
7
  6
CONTINUOUS
 10
60.8385842145
 20
239.2713263035
 11
60.9084092769
 21
239.4945845458
  0
LINE
  8
QUILTS
 62
7
  6
CONTINUOUS
 10
49.2971334389
 20
219.6287872314
 11
49.1037933853
 21
219.0344433716
  0
LINE
  8
QUILTS
 62
7
  6
CONTINUOUS
 10
49.775229665
 20
219.035104698
 11
49.5174428039
 21
218.2426458405
  0
LINE
  8
QUILTS
 62
7
  6
CONTINUOUS
 10
50.1244322762
 20
218.0451921691
 11
50.3822191373
 21
218.8376510267
  0
LINE
  8
QUILTS
 62
7
  6
CONTINUOUS
 10
50.7044524372
 20
219.8282237484
 11
50.8977924909
 21
220.4225676082
  0
LINE
  8
QUILTS
 62
7
  6
CONTINUOUS
 10
45.0453623702
 20
208.2911551007
 11
45.1961078132
 21
208.6939012038
  0
LINE
  8
QUILTS
 62
7
  6
CONTINUOUS
 10
57.9342452593
 20
238.1190940415
 11
57.817342672
 21
237.8103751232
  0
LINE
  8
QUILTS
 62
7
  6
CONTINUOUS
 10
59.657093514
 20
236.6968634591
 11
59.5401909267
 21
236.3881445407
  0
LINE
  8
QUILTS
 62
7
  6
CONTINUOUS
 10
62.4702085282
 20
239.5684389546
 11
62.2576512286
 21
239.0475188371
  0
LINE
  8
QUILTS
 62
7
  6
CONTINUOUS
 10
51.194390322
 20
221.2044227103
 11
51.4438977225
 21
221.7774594081
  0
LINE
  8
QUILTS
 62
7
  6
CONTINUOUS
 10
52.4835117327
 20
224.1651119515
 11
52.8577728334
 21
225.0246669983
  0
LINE
  8
QUILTS
 62
7
  6
CONTINUOUS
 10
44.8068013828
 20
209.0505160109
 11
44.6673020273
 21
208.7513279174
  0
LINE
  8
QUILTS
 62
7
  6
CONTINUOUS
 10
59.9661184633
 20
235.9014611063
 11
60.2156507035
 21
236.3708436959
  0
LINE
  8
QUILTS
 62
7
  6
CONTINUOUS
 10
51.5785951292
 20
227.3973735985
 11
52.5340623854
 21
229.1306324258
  0
LINE
  8
QUILTS
 62
7
  6
CONTINUOUS
 10
53.9315381755
 20
228.3602671822
 11
52.9760709193
 21
226.6270083548
  0
LINE
  8
QUILTS
 62
7
  6
CONTINUOUS
 10
53.2333348415
 20
225.7715175915
 11
54.4402403647
 21
227.9608962837
  0
LINE
  8
QUILTS
 62
7
  6
CONTINUOUS
 10
49.8621505328
 20
217.5828141857
 11
50.1244322762
 21
218.0451921691
  0
LINE
  8
QUILTS
 62
7
  6
CONTINUOUS
 10
59.9267720953
 20
240.164800056
 11
60.1424065545
 21
240.5368604033
  0
LINE
  8
QUILTS
 62
7
  6
CONTINUOUS
 10
60.9084092769
 20
239.4945845458
 11
61.1240437361
 21
239.8666448931
  0
LINE
  8
QUILTS
 62
7
  6
CONTINUOUS
 10
49.5174428039
 20
218.2426458405
 11
49.2873846574
 21
217.8793259199
  0
LINE
  8
QUILTS
 62
7
  6
CONTINUOUS
 10
62.5615885928
 20
238.7496942616
 11
62.8501302468
 21
239.1961582222
  0
LINE
  8
QUILTS
 62
7
  6
CONTINUOUS
 10
45.1961078132
 20
208.6939012038
 11
45.3243610811
 21
208.8895312877
  0
LINE
  8
QUILTS
 62
7
  6
CONTINUOUS
 10
75.4787402441
 20
253.8396376196
 11
75.1368257861
 21
253.3334562891
  0
LINE
  8
QUILTS
 62
7
  6
CONTINUOUS
 10
60.8201062921
 20
240.1644695468
 11
60.458662436
 21
239.6436070945
  0
LINE
  8
QUILTS
 62
7
  6
CONTINUOUS
 10
76.1634911939
 20
251.5799110551
 11
76.0179136651
 21
251.3968046417
  0
LINE
  8
QUILTS
 62
7
  6
CONTINUOUS
 10
76.3837631328
 20
251.0957482111
 11
76.6749138502
 21
251.4619590632
  0
LINE
  8
QUILTS
 62
7
  6
CONTINUOUS
 10
78.0597973392
 20
252.4426435768
 11
78.2053705277
 21
252.6257480155
  0
LINE
  8
QUILTS
 62
7
  6
CONTINUOUS
 10
57.0496123181
 20
235.8777297805
 11
58.3095849812
 21
237.4040235688
  0
LINE
  8
QUILTS
 62
7
  6
CONTINUOUS
 10
59.5401909267
 20
236.3881445407
 11
58.2802182635
 21
234.8618507524
  0
LINE
  8
QUILTS
 62
7
  6
CONTINUOUS
 10
58.3745746858
 20
233.973511832
 11
59.9661184633
 21
235.9014611063
  0
LINE
  8
QUILTS
 62
7
  6
CONTINUOUS
 10
61.6220621462
 20
240.9828853814
 11
60.8201062921
 21
240.1644695468
  0
LINE
  8
QUILTS
 62
7
  6
CONTINUOUS
 10
61.1240437361
 20
239.8666448931
 11
61.9259995903
 21
240.6850607276
  0
LINE
  8
QUILTS
 62
7
  6
CONTINUOUS
 10
62.2576512286
 20
239.0475188371
 11
61.8202213695
 21
238.6011108193
  0
LINE
  8
QUILTS
 62
7
  6
CONTINUOUS
 10
62.1241587337
 20
238.3032862438
 11
62.5615885928
 21
238.7496942616
  0
LINE
  8
QUILTS
 62
7
  6
CONTINUOUS
 10
63.3635444469
 20
239.5681100962
 11
63.7280671046
 21
239.9401145071
  0
LINE
  8
QUILTS
 62
7
  6
CONTINUOUS
 10
46.2209730404
 20
221.1771604216
 11
45.889749625
 21
220.8467483088
  0
LINE
  8
QUILTS
 62
7
  6
CONTINUOUS
 10
64.3531079949
 20
240.4930657488
 11
64.7368592423
 21
240.8452077612
  0
LINE
  8
QUILTS
 62
7
  6
CONTINUOUS
 10
50.6707613318
 20
230.157786084
 11
50.9147895618
 21
230.3801007448
  0
LINE
  8
QUILTS
 62
7
  6
CONTINUOUS
 10
52.5340623854
 20
229.1306324258
 11
52.7780906154
 21
229.3529470866
  0
LINE
  8
QUILTS
 62
7
  6
CONTINUOUS
 10
65.3581453883
 20
241.4005927468
 11
65.7509358372
 21
241.7426229796
  0
LINE
  8
QUILTS
 62
7
  6
CONTINUOUS
 10
77.5483703426
 20
252.5605935941
 11
77.2131652374
 21
252.2912153108
  0
LINE
  8
QUILTS
 62
7
  6
CONTINUOUS
 10
76.6749138502
 20
251.4619590632
 11
77.0101232956
 21
251.7313393211
  0
LINE
  8
QUILTS
 62
7
  6
CONTINUOUS
 10
78.4735125785
 20
250.5271094457
 11
78.1383074733
 21
250.2577311624
  0
LINE
  8
QUILTS
 62
7
  6
CONTINUOUS
 10
78.4533932312
 20
249.8167041856
 11
78.883416461
 21
250.1292203869
  0
LINE
  8
QUILTS
 62
7
  6
CONTINUOUS
 10
52.7500337635
 20
229.9631399787
 11
52.5562936473
 21
229.832050126
  0
LINE
  8
QUILTS
 62
7
  6
CONTINUOUS
 10
73.544702505
 20
248.0817581651
 11
70.5424627429
 21
246.2029425994
  0
LINE
  8
QUILTS
 62
7
  6
CONTINUOUS
 10
70.3512657038
 20
245.3303070144
 11
73.8833127206
 21
247.540678417
  0
LINE
  8
QUILTS
 62
7
  6
CONTINUOUS
 10
56.668777054
 20
238.7585289397
 11
56.949760411
 21
238.9317973399
  0
LINE
  8
QUILTS
 62
7
  6
CONTINUOUS
 10
58.3095849812
 20
237.4040235688
 11
58.5905683383
 21
237.5772919691
  0
LINE
  8
QUILTS
 62
7
  6
CONTINUOUS
 10
60.5798380823
 20
240.983270124
 11
60.9474412103
 21
241.2064181966
  0
LINE
  8
QUILTS
 62
7
  6
CONTINUOUS
 10
61.7565539303
 20
238.0801364748
 11
62.1241587337
 21
238.3032862438
  0
LINE
  8
QUILTS
 62
7
  6
CONTINUOUS
 10
75.1811678115
 20
248.2106569858
 11
75.7323111751
 21
248.5053873588
  0
LINE
  8
QUILTS
 62
7
  6
CONTINUOUS
 10
78.1383074733
 20
250.2577311624
 11
77.7590479804
 21
250.085185448
  0
LINE
  8
QUILTS
 62
7
  6
CONTINUOUS
 10
77.8845018217
 20
249.5578846265
 11
78.4533932312
 21
249.8167041856
  0
LINE
  8
QUILTS
 62
7
  6
CONTINUOUS
 10
58.676018298
 20
238.1821232322
 11
58.461349771
 21
238.0891866646
  0
LINE
  8
QUILTS
 62
7
  6
CONTINUOUS
 10
60.9474412103
 20
241.2064181966
 11
61.1692366102
 21
241.2807658671
  0
LINE
  8
QUILTS
 62
7
  6
CONTINUOUS
 10
47.2111526539
 20
204.4554087105
 11
47.3041286074
 21
204.0355470145
  0
LINE
  8
QUILTS
 62
7
  6
CONTINUOUS
 10
47.7294419563
 20
204.0219105061
 11
47.6364660308
 21
204.4417722012
  0
LINE
  8
QUILTS
 62
7
  6
CONTINUOUS
 10
45.309729464
 20
219.0637167295
 11
45.3831660182
 21
218.6016699847
  0
LINE
  8
QUILTS
 62
7
  6
CONTINUOUS
 10
44.6223177415
 20
208.3370964716
 11
44.6830946129
 21
207.9113796831
  0
LINE
  8
QUILTS
 62
7
  6
CONTINUOUS
 10
45.1061392416
 20
207.8654383122
 11
45.0453623702
 21
208.2911551007
  0
LINE
  8
QUILTS
 62
7
  6
CONTINUOUS
 10
60.2156507035
 20
236.3708436959
 11
60.2347858117
 21
236.8953431441
  0
LINE
  8
QUILTS
 62
7
  6
CONTINUOUS
 10
62.8501302468
 20
239.1961582222
 11
62.9168764876
 21
239.5682745254
  0
LINE
  8
QUILTS
 62
7
  6
CONTINUOUS
 10
75.1368257861
 20
253.3334562891
 11
74.9845432447
 21
252.9135488031
  0
LINE
  8
QUILTS
 62
7
  6
CONTINUOUS
 10
75.5467296416
 20
252.9355672896
 11
75.7938259712
 21
253.3986107105
  0
LINE
  8
QUILTS
 62
7
  6
CONTINUOUS
 10
76.0179136651
 20
251.3968046417
 11
75.7708173355
 21
250.9337612208
  0
LINE
  8
QUILTS
 62
7
  6
CONTINUOUS
 10
77.7954710125
 20
253.0236389896
 11
77.5483703426
 21
252.5605935941
  0
LINE
  8
QUILTS
 62
7
  6
CONTINUOUS
 10
47.290776191
 20
203.6190942975
 11
47.0647670838
 21
203.2094599097
  0
LINE
  8
QUILTS
 62
7
  6
CONTINUOUS
 10
78.883416461
 20
250.1292203869
 11
79.2253309075
 21
250.6354017429
  0
LINE
  8
QUILTS
 62
7
  6
CONTINUOUS
 10
47.3737377925
 20
202.8868929904
 11
47.5964087886
 21
203.1924142737
  0
LINE
  8
QUILTS
 62
7
  6
CONTINUOUS
 10
78.7646676362
 20
250.8933222725
 11
78.4735125785
 21
250.5271094457
  0
LINE
  8
QUILTS
 62
7
  6
CONTINUOUS
 10
45.0520618954
 20
209.3382187617
 11
44.8068013828
 21
209.0505160109
  0
LINE
  8
QUILTS
 62
7
  6
CONTINUOUS
 10
49.5309274595
 20
217.2524032151
 11
49.8621505328
 21
217.5828141857
  0
LINE
  8
QUILTS
 62
7
  6
CONTINUOUS
 10
46.4645158071
 20
220.5502377284
 11
46.7635156344
 21
220.7815917755
  0
LINE
  8
QUILTS
 62
7
  6
CONTINUOUS
 10
49.2873846574
 20
217.8793259199
 11
48.9883847593
 21
217.6479718958
  0
LINE
  8
QUILTS
 62
7
  6
CONTINUOUS
 10
46.7545258876
 20
221.441753518
 11
46.2209730404
 21
221.1771604216
  0
LINE
  8
QUILTS
 62
7
  6
CONTINUOUS
 10
50.88673271
 20
230.9902936369
 11
50.4060874379
 21
230.7794716073
  0
LINE
  8
QUILTS
 62
7
  6
CONTINUOUS
 10
61.8202213695
 20
238.6011108193
 11
61.3766322118
 21
238.4524172072
  0
LINE
  8
QUILTS
 62
7
  6
CONTINUOUS
 10
61.5347601925
 20
238.0057905137
 11
61.7565539303
 21
238.0801364748
  0
LINE
  8
QUILTS
 62
7
  6
CONTINUOUS
 10
47.0085103092
 20
204.7745664646
 11
47.2111526539
 21
204.4554087105
  0
LINE
  8
QUILTS
 62
7
  6
CONTINUOUS
 10
44.6830946129
 20
207.9113796831
 11
44.8608787611
 21
207.5777358577
  0
LINE
  8
QUILTS
 62
7
  6
CONTINUOUS
 10
45.2839233898
 20
207.5317944868
 11
45.1061392416
 21
207.8654383122
  0
LINE
  8
QUILTS
 62
7
  6
CONTINUOUS
 10
45.3831660182
 20
218.6016699847
 11
45.658932373
 21
218.0738053572
  0
LINE
  8
QUILTS
 62
7
  6
CONTINUOUS
 10
47.6364660308
 20
204.4417722012
 11
47.5368139042
 21
204.6534077613
  0
LINE
  8
QUILTS
 62
7
  6
CONTINUOUS
 10
46.0546022272
 20
218.6023313342
 11
45.9489424535
 21
218.9653211469
  0
LINE
  8
QUILTS
 62
7
  6
CONTINUOUS
 10
54.598514735
 20
228.4683759168
 11
54.5201697448
 21
228.9873440142
  0
LINE
  8
QUILTS
 62
7
  6
CONTINUOUS
 10
57.9027926318
 20
238.4152063863
 11
57.9342452593
 21
238.1190940415
  0
LINE
  8
QUILTS
 62
7
  6
CONTINUOUS
 10
59.625640829
 20
236.9929758513
 11
59.657093514
 21
236.6968634591
  0
LINE
  8
QUILTS
 62
7
  6
CONTINUOUS
 10
59.334293097
 20
240.0161606513
 11
59.340452369
 21
239.7184462716
  0
LINE
  8
QUILTS
 62
7
  6
CONTINUOUS
 10
60.3190106425
 20
239.197088907
 11
60.3251700209
 21
238.899374423
  0
LINE
  8
QUILTS
 62
7
  6
CONTINUOUS
 10
60.8447418178
 20
238.9736102209
 11
60.8385842145
 21
239.2713263035
  0
LINE
  8
QUILTS
 62
7
  6
CONTINUOUS
 10
62.4609704014
 20
240.0150114278
 11
62.4702085282
 21
239.5684389546
  0
LINE
  8
QUILTS
 62
7
  6
CONTINUOUS
 10
72.8233248281
 20
252.6198038949
 11
72.6233495265
 21
251.6683921457
  0
LINE
  8
QUILTS
 62
7
  6
CONTINUOUS
 10
73.0246845951
 20
250.9178988814
 11
73.2246597561
 21
251.8693108934
  0
LINE
  8
QUILTS
 62
7
  6
CONTINUOUS
 10
70.5424627429
 20
246.2029425994
 11
71.625911231
 21
251.1478768216
  0
LINE
  8
QUILTS
 62
7
  6
CONTINUOUS
 10
71.0715337794
 20
251.0519393426
 11
69.8997854296
 21
246.0517466574
  0
LINE
  8
QUILTS
 62
7
  6
CONTINUOUS
 10
78.2053705277
 20
252.6257480155
 11
78.3576530691
 21
253.0456555015
  0
LINE
  8
QUILTS
 62
7
  6
CONTINUOUS
 10
79.2253309075
 20
250.6354017429
 11
79.3776134335
 21
251.0553092627
  0
LINE
  8
QUILTS
 62
7
  6
CONTINUOUS
 10
47.044738461
 20
202.5847808901
 11
47.3737377925
 21
202.8868929904
  0
LINE
  8
QUILTS
 62
7
  6
CONTINUOUS
 10
45.2860763204
 20
209.5223635029
 11
45.0520618954
 21
209.3382187617
  0
LINE
  8
QUILTS
 62
7
  6
CONTINUOUS
 10
45.3243610811
 20
208.8895312877
 11
45.5583755062
 21
209.0736760289
  0
LINE
  8
QUILTS
 62
7
  6
CONTINUOUS
 10
50.8977924909
 20
220.4225676082
 11
50.2308510845
 21
220.0918254105
  0
LINE
  8
QUILTS
 62
7
  6
CONTINUOUS
 10
49.6972981665
 20
219.8272323371
 11
49.2971334389
 21
219.6287872314
  0
LINE
  8
QUILTS
 62
7
  6
CONTINUOUS
 10
50.4376758115
 20
219.6959266392
 11
50.7044524372
 21
219.8282237484
  0
LINE
  8
QUILTS
 62
7
  6
CONTINUOUS
 10
49.1037933853
 20
219.0344433716
 11
49.7707347916
 21
219.3651855693
  0
LINE
  8
QUILTS
 62
7
  6
CONTINUOUS
 10
48.9973745769
 20
216.9878101302
 11
49.5309274595
 21
217.2524032151
  0
LINE
  8
QUILTS
 62
7
  6
CONTINUOUS
 10
47.5368139042
 20
204.6534077613
 11
47.2278431709
 21
204.975974495
  0
LINE
  8
QUILTS
 62
7
  6
CONTINUOUS
 10
44.8608787611
 20
207.5777358577
 11
45.0499089326
 21
207.3476494493
  0
LINE
  8
QUILTS
 62
7
  6
CONTINUOUS
 10
45.4729535612
 20
207.3017080784
 11
45.2839233898
 21
207.5317944868
  0
LINE
  8
QUILTS
 62
7
  6
CONTINUOUS
 10
50.2308510845
 20
220.0918254105
 11
50.0929680915
 21
220.355758291
  0
LINE
  8
QUILTS
 62
7
  6
CONTINUOUS
 10
51.9470152957
 20
230.0489713722
 11
52.0327702984
 21
229.7638084924
  0
LINE
  8
QUILTS
 62
7
  6
CONTINUOUS
 10
53.9034812584
 20
228.9704601102
 11
53.9892363263
 21
228.6852971944
  0
LINE
  8
QUILTS
 62
7
  6
CONTINUOUS
 10
75.4892610117
 20
252.5587954674
 11
75.5467296416
 21
252.9355672896
  0
LINE
  8
QUILTS
 62
7
  6
CONTINUOUS
 10
77.8529354255
 20
253.400408566
 11
77.7954710125
 21
253.0236389896
  0
LINE
  8
QUILTS
 62
7
  6
CONTINUOUS
 10
76.2755350408
 20
250.5790080207
 11
76.3837631328
 21
251.0957482111
  0
LINE
  8
QUILTS
 62
7
  6
CONTINUOUS
 10
78.872895759
 20
251.410062395
 11
78.7646676362
 21
250.8933222725
  0
LINE
  8
0
 62
7
  6
CONTINUOUS
 10
95.8390315343
 20
243.3931064322
 11
58.6651575393
 21
206.2192324371
  0
LINE
  8
QUILTS
 62
7
  6
CONTINUOUS
 10
47.0647670838
 20
203.2094599097
 11
46.7391058174
 21
203.011460934
  0
LINE
  8
QUILTS
 62
7
  6
CONTINUOUS
 10
128.5249239747
 20
248.8230645316
 11
129.0091601316
 21
249.0334189034
  0
LINE
  8
QUILTS
 62
7
  6
CONTINUOUS
 10
135.3484958643
 20
245.3399193903
 11
135.714819611
 21
245.4451067709
  0
LINE
  8
QUILTS
 62
7
  6
CONTINUOUS
 10
135.4215753217
 20
241.7610929675
 11
135.0552515263
 21
241.6559055305
  0
LINE
  8
QUILTS
 62
7
  6
CONTINUOUS
 10
46.6962014569
 20
204.9930201313
 11
47.0085103092
 21
204.7745664646
  0
LINE
  8
0
 62
7
  6
CONTINUOUS
 10
58.6651575393
 20
198.4918258268
 11
95.8390315343
 21
161.3179518318
  0
LINE
  8
QUILTS
 62
7
  6
CONTINUOUS
 10
46.2936504038
 20
218.3054894201
 11
46.0546022272
 21
218.6023313342
  0
LINE
  8
QUILTS
 62
7
  6
CONTINUOUS
 10
49.4582502733
 20
220.124074159
 11
49.6972981665
 21
219.8272323371
  0
LINE
  8
QUILTS
 62
7
  6
CONTINUOUS
 10
52.5637036843
 20
230.0658553301
 11
52.3419067162
 21
230.5449583695
  0
LINE
  8
QUILTS
 62
7
  6
CONTINUOUS
 10
54.5201697448
 20
228.9873440142
 11
54.2983727441
 21
229.4664470716
  0
LINE
  8
QUILTS
 62
7
  6
CONTINUOUS
 10
58.5119375283
 20
238.3175737503
 11
58.382718961
 21
238.8294684458
  0
LINE
  8
QUILTS
 62
7
  6
CONTINUOUS
 10
60.2347858117
 20
236.8953431441
 11
60.1055672157
 21
237.4072378634
  0
LINE
  8
0
 62
7
  6
CONTINUOUS
 10
71.6289587807
 20
266.9181751503
 11
71.6428973382
 21
266.7048540254
  0
LINE
  8
QUILTS
 62
7
  6
CONTINUOUS
 10
74.9845432447
 20
252.9135488031
 11
75.0151877306
 21
252.3431138179
  0
LINE
  8
QUILTS
 62
7
  6
CONTINUOUS
 10
75.7708173355
 20
250.9337612208
 11
75.8014574195
 21
250.3633243966
  0
LINE
  8
QUILTS
 62
7
  6
CONTINUOUS
 10
78.3576530691
 20
253.0456555015
 11
78.3710674346
 21
253.5192596212
  0
LINE
  8
0
 62
7
  6
CONTINUOUS
 10
71.6428973382
 20
138.0062042386
 11
71.6289587807
 21
137.7928831137
  0
LINE
  8
0
 62
7
  6
CONTINUOUS
 10
95.4037400841
 20
272.6263680851
 11
95.3438779221
 21
272.4211445308
  0
LINE
  8
0
 62
7
  6
CONTINUOUS
 10
51.3263472762
 20
151.4839730209
 11
51.2402891948
 21
151.2882840015
  0
LINE
  8
0
 62
7
  6
CONTINUOUS
 10
119.6970436014
 20
269.8588607551
 11
119.57060098
 21
269.6864877607
  0
LINE
  8
0
 62
7
  6
CONTINUOUS
 10
36.8447035136
 20
171.0976022545
 11
36.6969057831
 21
170.9431483243
  0
LINE
  8
0
 62
7
  6
CONTINUOUS
 10
141.5787383975
 20
258.9494553882
 11
141.400966163
 21
258.8307236808
  0
LINE
  8
QUILTS
 62
7
  6
CONTINUOUS
 10
135.2420095143
 20
245.8538556087
 11
134.7365370487
 21
245.5877113932
  0
LINE
  8
0
 62
7
  6
CONTINUOUS
 10
29.9446660148
 20
194.4813987874
 11
29.7529552227
 21
194.3868093699
  0
LINE
  8
QUILTS
 62
7
  6
CONTINUOUS
 10
47.7828516174
 20
205.6877212251
 11
47.5668568328
 21
205.5904261138
  0
LINE
  8
QUILTS
 62
7
  6
CONTINUOUS
 10
46.8287437013
 20
202.4874859738
 11
47.044738461
 21
202.5847808901
  0
LINE
  8
QUILTS
 62
7
  6
CONTINUOUS
 10
47.2278431709
 20
204.975974495
 11
47.7661610956
 21
205.1671552916
  0
LINE
  8
0
 62
7
  6
CONTINUOUS
 10
40.9959005385
 20
163.4970709865
 11
41.203560431
 21
163.5478406107
  0
LINE
  8
0
 62
7
  6
CONTINUOUS
 10
167.9469885433
 20
185.8961266144
 11
168.1594892461
 21
185.9194426394
  0
LINE
  8
0
 62
7
  6
CONTINUOUS
 10
31.2459804328
 20
185.9194426394
 11
31.4584811356
 21
185.8961266144
  0
LINE
  8
0
 62
7
  6
CONTINUOUS
 10
158.2019092479
 20
163.5478406107
 11
158.4095691404
 21
163.4970709865
  0
LINE
  8
0
 62
7
  6
CONTINUOUS
 10
29.7529552227
 20
210.3242488941
 11
29.9446660148
 21
210.2296594766
  0
LINE
  8
0
 62
7
  6
CONTINUOUS
 10
141.400966163
 20
145.8803345831
 11
141.5787383975
 21
145.7616028758
  0
LINE
  8
QUILTS
 62
7
  6
CONTINUOUS
 10
45.658932373
 20
218.0738053572
 11
45.9991451665
 21
217.7440545939
  0
LINE
  8
QUILTS
 62
7
  6
CONTINUOUS
 10
50.0929680915
 20
220.355758291
 11
49.7527552272
 21
220.6855090774
  0
LINE
  8
0
 62
7
  6
CONTINUOUS
 10
36.6969057831
 20
233.7679099396
 11
36.8447035136
 21
233.6134560095
  0
LINE
  8
0
 62
7
  6
CONTINUOUS
 10
119.57060098
 20
135.0245705033
 11
119.6970436014
 21
134.8521975089
  0
LINE
  8
0
 62
7
  6
CONTINUOUS
 10
51.2402891948
 20
253.4227742625
 11
51.3263472762
 21
253.227085243
  0
LINE
  8
QUILTS
 62
7
  6
CONTINUOUS
 10
59.340452369
 20
239.7184462716
 11
59.4195155051
 21
239.495132093
  0
LINE
  8
QUILTS
 62
7
  6
CONTINUOUS
 10
59.9360101689
 20
239.7182276351
 11
59.8569453642
 21
239.9415401108
  0
LINE
  8
QUILTS
 62
7
  6
CONTINUOUS
 10
60.3251700209
 20
238.899374423
 11
60.4832962931
 21
238.4527460657
  0
LINE
  8
QUILTS
 62
7
  6
CONTINUOUS
 10
62.3819055966
 20
240.2383239035
 11
62.4609704014
 21
240.0150114278
  0
LINE
  8
QUILTS
 62
7
  6
CONTINUOUS
 10
62.9168764876
 20
239.5682745254
 11
62.8378116562
 21
239.7915870272
  0
LINE
  8
0
 62
7
  6
CONTINUOUS
 10
95.3438779221
 20
132.2899137332
 11
95.4037400841
 21
132.0846901789
  0
LINE
  8
QUILTS
 62
7
  6
CONTINUOUS
 10
79.3776134335
 20
251.0553092627
 11
79.3469690401
 21
251.6257440445
  0
LINE
  8
0
 62
7
  6
CONTINUOUS
 10
95.7384961385
 20
274.6244039924
 11
95.559932611
 21
273.3794104902
  0
LINE
  8
0
 62
7
  6
CONTINUOUS
 10
71.5181760743
 20
137.0318337321
 11
71.2601580474
 21
135.8008502018
  0
LINE
  8
0
 62
7
  6
CONTINUOUS
 10
120.6949799229
 20
271.6219070395
 11
120.1013722377
 21
270.5130681558
  0
LINE
  8
0
 62
7
  6
CONTINUOUS
 10
50.8758932845
 20
150.6110214306
 11
50.2124144851
 21
149.5425226535
  0
LINE
  8
0
 62
7
  6
CONTINUOUS
 10
143.1194891377
 20
260.2648626481
 11
142.1824351423
 21
259.4259207171
  0
LINE
  8
QUILTS
 62
7
  6
CONTINUOUS
 10
128.7733678179
 20
249.663294607
 11
128.5226928312
 21
249.4399799703
  0
LINE
  8
QUILTS
 62
7
  6
CONTINUOUS
 10
129.0091601316
 20
249.0334189034
 11
129.2598351183
 21
249.2567335401
  0
LINE
  8
0
 62
7
  6
CONTINUOUS
 10
36.1228481936
 20
170.4313604256
 11
35.1339339569
 21
169.6542231235
  0
LINE
  8
QUILTS
 62
7
  6
CONTINUOUS
 10
130.1739603354
 20
246.5856302097
 11
132.6071748618
 21
248.3769184164
  0
LINE
  8
QUILTS
 62
7
  6
CONTINUOUS
 10
128.7603034192
 20
245.5039294381
 11
129.8417346547
 21
246.3000556407
  0
LINE
  8
QUILTS
 62
7
  6
CONTINUOUS
 10
132.5157308601
 20
248.9654090068
 11
128.2518873878
 21
245.8674375384
  0
LINE
  8
QUILTS
 62
7
  6
CONTINUOUS
 10
135.0609687959
 20
245.1666111359
 11
135.3484958643
 21
245.3399193903
  0
LINE
  8
QUILTS
 62
7
  6
CONTINUOUS
 10
133.9477805067
 20
243.8789581474
 11
134.2353074777
 21
244.052266289
  0
LINE
  8
QUILTS
 62
7
  6
CONTINUOUS
 10
135.7091021953
 20
241.9344009964
 11
135.4215753217
 21
241.7610929675
  0
LINE
  8
QUILTS
 62
7
  6
CONTINUOUS
 10
135.528061623
 20
241.2471566927
 11
136.0335339424
 21
241.5133007391
  0
LINE
  8
0
 62
7
  6
CONTINUOUS
 10
160.3072970211
 20
241.9230979839
 11
159.1398192568
 21
241.4552417838
  0
LINE
  8
0
 62
7
  6
CONTINUOUS
 10
29.0384757715
 20
194.1022253171
 11
27.8434037492
 21
193.7101837179
  0
LINE
  8
QUILTS
 62
7
  6
CONTINUOUS
 10
46.7391058174
 20
203.011460934
 11
46.4167827295
 21
202.9175751351
  0
LINE
  8
0
 62
7
  6
CONTINUOUS
 10
30.4772558863
 20
185.9424978095
 11
29.2201694017
 21
185.9021577029
  0
LINE
  8
0
 62
7
  6
CONTINUOUS
 10
170.1853002772
 20
185.9021577029
 11
168.9282137927
 21
185.9424978095
  0
LINE
  8
0
 62
7
  6
CONTINUOUS
 10
29.0384757715
 20
210.6088329469
 11
27.8434037492
 21
211.000874546
  0
LINE
  8
0
 62
7
  6
CONTINUOUS
 10
160.3072970211
 20
162.7879602801
 11
159.1398192568
 21
163.2558164801
  0
LINE
  8
QUILTS
 62
7
  6
CONTINUOUS
 10
46.6660867854
 20
218.0747967225
 11
46.2936504038
 21
218.3054894201
  0
LINE
  8
0
 62
7
  6
CONTINUOUS
 10
35.1339339569
 20
235.0568351405
 11
36.1228481936
 21
234.2796978384
  0
LINE
  8
0
 62
7
  6
CONTINUOUS
 10
143.1194891377
 20
144.4461956159
 11
142.1824351423
 21
145.2851375469
  0
LINE
  8
QUILTS
 62
7
  6
CONTINUOUS
 10
51.7178082906
 20
230.2942692075
 11
51.9470152957
 21
230.0489713722
  0
LINE
  8
QUILTS
 62
7
  6
CONTINUOUS
 10
52.3419067162
 20
230.5449583695
 11
52.1126997111
 21
230.7902562048
  0
LINE
  8
QUILTS
 62
7
  6
CONTINUOUS
 10
53.6742742533
 20
229.2157579455
 11
53.9034812584
 21
228.9704601102
  0
LINE
  8
QUILTS
 62
7
  6
CONTINUOUS
 10
54.2983727441
 20
229.4664470716
 11
54.0691656737
 21
229.7117449428
  0
LINE
  8
QUILTS
 62
7
  6
CONTINUOUS
 10
57.7229863071
 20
238.6987139961
 11
57.9027926318
 21
238.4152063863
  0
LINE
  8
QUILTS
 62
7
  6
CONTINUOUS
 10
58.382718961
 20
238.8294684458
 11
58.2029126364
 21
239.1129760556
  0
LINE
  8
QUILTS
 62
7
  6
CONTINUOUS
 10
59.4458345044
 20
237.2764834611
 11
59.625640829
 21
236.9929758513
  0
LINE
  8
QUILTS
 62
7
  6
CONTINUOUS
 10
60.1055672157
 20
237.4072378634
 11
59.9257608336
 21
237.6907455206
  0
LINE
  8
0
 62
7
  6
CONTINUOUS
 10
50.2124144851
 20
255.1685356105
 11
50.8758932845
 21
254.1000368333
  0
LINE
  8
0
 62
7
  6
CONTINUOUS
 10
120.1013722377
 20
134.1979901081
 11
120.6949799229
 21
133.0891512244
  0
LINE
  8
QUILTS
 62
7
  6
CONTINUOUS
 10
60.9997909569
 20
238.6758416078
 11
60.8447418178
 21
238.9736102209
  0
LINE
  8
0
 62
7
  6
CONTINUOUS
 10
71.2601580474
 20
268.9102080622
 11
71.5181760743
 21
267.6792245319
  0
LINE
  8
0
 62
7
  6
CONTINUOUS
 10
95.559932611
 20
131.3316477738
 11
95.7384961385
 21
130.0866542715
  0
LINE
  8
QUILTS
 62
7
  6
CONTINUOUS
 10
134.7365370487
 20
245.5877113932
 11
134.1707131273
 21
245.0924901453
  0
LINE
  8
QUILTS
 62
7
  6
CONTINUOUS
 10
134.5647191364
 20
244.7518681928
 11
135.0609687959
 21
245.1666111359
  0
LINE
  8
QUILTS
 62
7
  6
CONTINUOUS
 10
45.9991451665
 20
217.7440545939
 11
46.4727467317
 21
217.4804528627
  0
LINE
  8
QUILTS
 62
7
  6
CONTINUOUS
 10
49.7527552272
 20
220.6855090774
 11
49.2791539453
 21
220.9491107164
  0
LINE
  8
QUILTS
 62
7
  6
CONTINUOUS
 10
49.0858138917
 20
220.3547668567
 11
49.4582502733
 21
220.124074159
  0
LINE
  8
1_AXIS
 62
2
  6
CONTINUOUS
 10
99.7027348395
 20
203.235529132
 11
99.7027348395
 21
201.475529132
  0
LINE
  8
1_AXIS
 62
2
  6
CENTER
 10
99.7027348395
 20
197.955529132
 11
99.7027348395
 21
127.330529132
  0
LINE
  8
1_AXIS
 62
2
  6
CENTER
 10
99.7027348395
 20
206.755529132
 11
99.7027348395
 21
277.380529132
  0
LINE
  8
QUILTS
 62
7
  6
CONTINUOUS
 10
126.7330298306
 20
252.5758119766
 11
124.2158922381
 21
248.2556246727
  0
LINE
  8
QUILTS
 62
7
  6
CONTINUOUS
 10
124.7559156511
 20
247.9409824736
 11
125.8805941659
 21
249.871278956
  0
LINE
  8
QUILTS
 62
7
  6
CONTINUOUS
 10
126.2019308415
 20
250.422792163
 11
127.0052726806
 21
251.8015754383
  0
LINE
  8
QUILTS
 62
7
  6
CONTINUOUS
 10
134.1707131273
 20
245.0924901453
 11
133.6836932934
 21
244.5291420122
  0
LINE
  8
QUILTS
 62
7
  6
CONTINUOUS
 10
134.4255706124
 20
244.5909115833
 11
134.5647191364
 21
244.7518681928
  0
LINE
  8
QUILTS
 62
7
  6
CONTINUOUS
 10
133.7390577208
 20
243.6375232331
 11
133.9477805067
 21
243.8789581474
  0
LINE
  8
1_AXIS
 62
2
  6
CONTINUOUS
 10
100.5827348395
 20
202.355529132
 11
98.8227348395
 21
202.355529132
  0
LINE
  8
1_AXIS
 62
2
  6
CENTER
 10
95.3027348395
 20
202.355529132
 11
24.6777348395
 21
202.355529132
  0
LINE
  8
1_AXIS
 62
2
  6
CENTER
 10
104.1027348395
 20
202.355529132
 11
174.7277348395
 21
202.355529132
  0
LINE
  8
QUILTS
 62
7
  6
CONTINUOUS
 10
44.273525504
 20
202.465191854
 11
46.4000922113
 21
202.3970093134
  0
LINE
  8
QUILTS
 62
7
  6
CONTINUOUS
 10
46.4167827295
 20
202.9175751351
 11
44.2902160222
 21
202.9857576757
  0
LINE
  8
QUILTS
 62
7
  6
CONTINUOUS
 10
44.4648728055
 20
206.8872870038
 11
47.8492301313
 21
206.5197560045
  0
LINE
  8
QUILTS
 62
7
  6
CONTINUOUS
 10
47.9054604725
 20
207.0375451636
 11
45.4729535612
 21
207.3017080784
  0
LINE
  8
QUILTS
 62
7
  6
CONTINUOUS
 10
45.0499089326
 20
207.3476494493
 11
44.5211031467
 21
207.4050761629
  0
LINE
  8
QUILTS
 62
7
  6
CONTINUOUS
 10
43.3652513313
 20
211.0247718183
 11
43.8906030898
 21
210.9414716595
  0
LINE
  8
QUILTS
 62
7
  6
CONTINUOUS
 10
44.9413069011
 20
210.7748712952
 11
48.3035584497
 21
210.241750232
  0
LINE
  8
QUILTS
 62
7
  6
CONTINUOUS
 10
48.3851231671
 20
210.7561570273
 11
45.0228716185
 21
211.2892780905
  0
LINE
  8
QUILTS
 62
7
  6
CONTINUOUS
 10
43.9721678072
 20
211.4558784548
 11
43.4468160488
 21
211.5391786136
  0
LINE
  8
QUILTS
 62
7
  6
CONTINUOUS
 10
46.4727467317
 20
217.4804528627
 11
47.9902203771
 21
216.9868186959
  0
LINE
  8
QUILTS
 62
7
  6
CONTINUOUS
 10
48.1835604307
 20
217.5811625556
 11
46.6660867854
 21
218.0747967225
  0
LINE
  8
QUILTS
 62
7
  6
CONTINUOUS
 10
46.6100967392
 20
223.2004819143
 11
51.194390322
 21
221.2044227103
  0
LINE
  8
QUILTS
 62
7
  6
CONTINUOUS
 10
51.4438977225
 20
221.7774594081
 11
47.4448330379
 21
223.518702574
  0
LINE
  8
QUILTS
 62
7
  6
CONTINUOUS
 10
48.854577457
 20
228.1853286379
 11
53.2333348415
 21
225.7715175915
  0
LINE
  8
QUILTS
 62
7
  6
CONTINUOUS
 10
52.9760709193
 20
226.6270083548
 11
51.5785951292
 21
227.3973735985
  0
LINE
  8
QUILTS
 62
7
  6
CONTINUOUS
 10
51.0196048914
 20
227.7055196528
 11
49.7152940756
 21
228.4245272567
  0
LINE
  8
QUILTS
 62
7
  6
CONTINUOUS
 10
54.5186761372
 20
237.156599387
 11
58.3745746858
 21
233.973511832
  0
LINE
  8
QUILTS
 62
7
  6
CONTINUOUS
 10
58.2802182635
 20
234.8618507524
 11
57.0496123181
 21
235.8777297805
  0
LINE
  8
QUILTS
 62
7
  6
CONTINUOUS
 10
56.5573700089
 20
236.2840813348
 11
55.4088043908
 21
237.2322351513
  0
LINE
  8
QUILTS
 62
7
  6
CONTINUOUS
 10
59.4195155051
 20
239.495132093
 11
59.5714841739
 21
239.3462198183
  0
LINE
  8
QUILTS
 62
7
  6
CONTINUOUS
 10
60.4832962931
 20
238.4527460657
 11
60.7112492962
 21
238.2293776536
  0
LINE
  8
QUILTS
 62
7
  6
CONTINUOUS
 10
61.1517596789
 20
238.5269292809
 11
60.9997909569
 21
238.6758416078
  0
LINE
  8
QUILTS
 62
7
  6
CONTINUOUS
 10
60.9725549929
 20
244.1770664818
 11
64.3531079949
 21
240.4930657488
  0
LINE
  8
QUILTS
 62
7
  6
CONTINUOUS
 10
64.7368592423
 20
240.8452077612
 11
61.3563062403
 21
244.5292084942
  0
LINE
  8
QUILTS
 62
7
  6
CONTINUOUS
 10
62.0746651742
 20
245.1713695479
 11
65.3581453883
 21
241.4005927468
  0
LINE
  8
QUILTS
 62
7
  6
CONTINUOUS
 10
65.7509358372
 20
241.7426229796
 11
62.467455623
 21
245.5133997807
  0
LINE
  8
QUILTS
 62
7
  6
CONTINUOUS
 10
67.6988190089
 20
249.5687650513
 11
67.9809941556
 21
249.1178653139
  0
LINE
  8
QUILTS
 62
7
  6
CONTINUOUS
 10
69.8997854296
 20
246.0517466574
 11
70.3512657038
 21
245.3303070144
  0
LINE
  8
QUILTS
 62
7
  6
CONTINUOUS
 10
72.6233495265
 20
251.6683921457
 11
73.0246845951
 21
250.9178988814
  0
LINE
  8
QUILTS
 62
7
  6
CONTINUOUS
 10
73.2246597561
 20
251.8693108934
 11
75.1811678115
 21
248.2106569858
  0
LINE
  8
QUILTS
 62
7
  6
CONTINUOUS
 10
75.7323111751
 20
248.5053873588
 11
73.3744681917
 21
252.9145342678
  0
LINE
  8
QUILTS
 62
7
  6
CONTINUOUS
 10
75.8014574195
 20
250.3633243966
 11
75.9336205828
 21
250.0728266902
  0
LINE
  8
QUILTS
 62
7
  6
CONTINUOUS
 10
75.0151877306
 20
252.3431138179
 11
75.147350894
 21
252.0526161115
  0
LINE
  8
QUILTS
 62
7
  6
CONTINUOUS
 10
76.4076982042
 20
250.2885103143
 11
76.2755350408
 21
250.5790080207
  0
LINE
  8
QUILTS
 62
7
  6
CONTINUOUS
 10
75.5773697873
 20
252.3651303298
 11
75.4892610117
 21
252.5587954674
  0
LINE
  8
QUILTS
 62
7
  6
CONTINUOUS
 10
128.9340363058
 20
249.9390514681
 11
128.7733678179
 21
249.663294607
  0
LINE
  8
QUILTS
 62
7
  6
CONTINUOUS
 10
129.2598351183
 20
249.2567335401
 11
129.4740597187
 21
249.624409269
  0
LINE
  8
QUILTS
 62
7
  6
CONTINUOUS
 10
133.6836932934
 20
244.5291420122
 11
133.2754774497
 21
243.8976668809
  0
LINE
  8
QUILTS
 62
7
  6
CONTINUOUS
 10
135.9178249812
 20
242.1758359106
 11
135.7091021953
 21
241.9344009964
  0
LINE
  8
QUILTS
 62
7
  6
CONTINUOUS
 10
136.0335339424
 20
241.5133007391
 11
136.3814053497
 21
241.9156923755
  0
LINE
  8
QUILTS
 62
7
  6
CONTINUOUS
 10
44.3569780937
 20
205.0680209255
 11
46.6962014569
 21
204.9930201313
  0
LINE
  8
QUILTS
 62
7
  6
CONTINUOUS
 10
47.1382053648
 20
205.4999495553
 11
44.3736686154
 21
205.588586859
  0
LINE
  8
QUILTS
 62
7
  6
CONTINUOUS
 10
46.0984273796
 20
209.1198073249
 11
48.1078896621
 21
208.901585781
  0
LINE
  8
QUILTS
 62
7
  6
CONTINUOUS
 10
48.1641199711
 20
209.4193746438
 11
46.1546576886
 21
209.6375961878
  0
LINE
  8
QUILTS
 62
7
  6
CONTINUOUS
 10
47.5683402463
 20
220.8484010235
 11
49.0858138917
 21
220.3547668567
  0
LINE
  8
QUILTS
 62
7
  6
CONTINUOUS
 10
49.2791539453
 20
220.9491107164
 11
47.7616803
 21
221.4427448833
  0
LINE
  8
QUILTS
 62
7
  6
CONTINUOUS
 10
48.0239718501
 20
226.4476895045
 11
51.9254983166
 21
224.7489157081
  0
LINE
  8
QUILTS
 62
7
  6
CONTINUOUS
 10
52.8577728334
 20
225.0246669983
 11
48.2734792506
 21
227.0207262024
  0
LINE
  8
QUILTS
 62
7
  6
CONTINUOUS
 10
51.5314782114
 20
230.3969845589
 11
51.7178082906
 21
230.2942692075
  0
LINE
  8
QUILTS
 62
7
  6
CONTINUOUS
 10
53.3947791344
 20
229.3698309726
 11
53.6742742533
 21
229.2157579455
  0
LINE
  8
QUILTS
 62
7
  6
CONTINUOUS
 10
54.0691656737
 20
229.7117449428
 11
53.6033404756
 21
229.9685333214
  0
LINE
  8
QUILTS
 62
7
  6
CONTINUOUS
 10
52.1126997111
 20
230.7902562048
 11
51.7400392916
 21
230.9956870516
  0
LINE
  8
QUILTS
 62
7
  6
CONTINUOUS
 10
57.5589055374
 20
238.8341645142
 11
57.7229863071
 21
238.6987139961
  0
LINE
  8
QUILTS
 62
7
  6
CONTINUOUS
 10
59.1997133497
 20
237.4796592382
 11
59.4458345044
 21
237.2764834611
  0
LINE
  8
QUILTS
 62
7
  6
CONTINUOUS
 10
59.9257608336
 20
237.6907455206
 11
59.5155589092
 21
238.0293718159
  0
LINE
  8
QUILTS
 62
7
  6
CONTINUOUS
 10
58.2029126364
 20
239.1129760556
 11
57.8747508671
 21
239.3838772815
  0
LINE
  8
QUILTS
 62
7
  6
CONTINUOUS
 10
61.394109143
 20
241.2062537934
 11
61.6220621462
 21
240.9828853814
  0
LINE
  8
QUILTS
 62
7
  6
CONTINUOUS
 10
61.9259995903
 20
240.6850607276
 11
62.3819055966
 21
240.2383239035
  0
LINE
  8
QUILTS
 62
7
  6
CONTINUOUS
 10
62.9743846481
 20
240.3869632561
 11
61.7586351381
 21
241.5782616102
  0
LINE
  8
QUILTS
 62
7
  6
CONTINUOUS
 10
73.8833127206
 20
247.540678417
 11
73.544702505
 21
248.0817581651
  0
LINE
  8
QUILTS
 62
7
  6
CONTINUOUS
 10
71.625911231
 20
251.1478768216
 11
71.2308660256
 21
251.7791364539
  0
LINE
  8
QUILTS
 62
7
  6
CONTINUOUS
 10
77.7648266499
 20
253.5940737036
 11
77.8529354255
 21
253.400408566
  0
LINE
  8
QUILTS
 62
7
  6
CONTINUOUS
 10
78.7407325956
 20
251.7005601014
 11
78.872895759
 21
251.410062395
  0
LINE
  8
QUILTS
 62
7
  6
CONTINUOUS
 10
78.3710674346
 20
253.5192596212
 11
78.2389042713
 21
253.8097573277
  0
LINE
  8
QUILTS
 62
7
  6
CONTINUOUS
 10
79.3469690401
 20
251.6257440445
 11
79.2148058767
 21
251.9162417509
  0
LINE
  8
0
 62
7
  6
CONTINUOUS
 10
103.845537068
 20
131.3316477738
 11
103.6669735404
 21
130.0866542715
  0
LINE
  8
0
 62
7
  6
CONTINUOUS
 10
128.1453116316
 20
268.9102080622
 11
127.8872936047
 21
267.6792245319
  0
LINE
  8
0
 62
7
  6
CONTINUOUS
 10
79.3040974413
 20
134.1979901081
 11
78.7104897561
 21
133.0891512244
  0
LINE
  8
0
 62
7
  6
CONTINUOUS
 10
149.1930551938
 20
255.1685356105
 11
148.5295763945
 21
254.1000368333
  0
LINE
  8
0
 62
7
  6
CONTINUOUS
 10
57.2230345366
 20
145.2851375469
 11
56.2859805413
 21
144.4461956159
  0
LINE
  8
0
 62
7
  6
CONTINUOUS
 10
164.271535722
 20
235.0568351405
 11
163.2826214853
 21
234.2796978384
  0
LINE
  8
0
 62
7
  6
CONTINUOUS
 10
40.2656504221
 20
163.2558164801
 11
39.0981726579
 21
162.7879602801
  0
LINE
  8
0
 62
7
  6
CONTINUOUS
 10
171.5620659298
 20
211.000874546
 11
170.3669939075
 21
210.6088329469
  0
LINE
  8
QUILTS
 62
7
  6
CONTINUOUS
 10
46.4000922113
 20
202.3970093134
 11
46.8287437013
 21
202.4874859738
  0
LINE
  8
QUILTS
 62
7
  6
CONTINUOUS
 10
47.5668568328
 20
205.5904261138
 11
47.1382053648
 21
205.4999495553
  0
LINE
  8
QUILTS
 62
7
  6
CONTINUOUS
 10
45.5583755062
 20
209.0736760289
 11
46.0984273796
 21
209.1198073249
  0
LINE
  8
QUILTS
 62
7
  6
CONTINUOUS
 10
46.1546576886
 20
209.6375961878
 11
45.6146058795
 21
209.5914654843
  0
LINE
  8
0
 62
7
  6
CONTINUOUS
 10
170.1853002772
 20
218.808900561
 11
168.9282137927
 21
218.7685604545
  0
LINE
  8
0
 62
7
  6
CONTINUOUS
 10
30.4772558863
 20
218.7685604545
 11
29.2201694017
 21
218.808900561
  0
LINE
  8
QUILTS
 62
7
  6
CONTINUOUS
 10
48.6204432511
 20
217.5485837222
 11
48.1835604307
 21
217.5811625556
  0
LINE
  8
QUILTS
 62
7
  6
CONTINUOUS
 10
47.131457426
 20
220.880979857
 11
47.5683402463
 21
220.8484010235
  0
LINE
  8
QUILTS
 62
7
  6
CONTINUOUS
 10
47.9902203771
 20
216.9868186959
 11
48.5282680976
 21
216.921330921
  0
LINE
  8
QUILTS
 62
7
  6
CONTINUOUS
 10
47.7616803
 20
221.4427448833
 11
47.223632296
 21
221.5082327503
  0
LINE
  8
0
 62
7
  6
CONTINUOUS
 10
171.5620659298
 20
193.7101837179
 11
170.3669939075
 21
194.1022253171
  0
LINE
  8
0
 62
7
  6
CONTINUOUS
 10
40.2656504221
 20
241.4552417838
 11
39.0981726579
 21
241.9230979839
  0
LINE
  8
QUILTS
 62
7
  6
CONTINUOUS
 10
60.7112492962
 20
238.2293776536
 11
61.0880922198
 21
238.005954956
  0
LINE
  8
QUILTS
 62
7
  6
CONTINUOUS
 10
63.4272102108
 20
240.0890827442
 11
62.9743846481
 21
240.3869632561
  0
LINE
  8
0
 62
7
  6
CONTINUOUS
 10
164.271535722
 20
169.6542231235
 11
163.2826214853
 21
170.4313604256
  0
LINE
  8
0
 62
7
  6
CONTINUOUS
 10
56.2859805413
 20
260.2648626481
 11
57.2230345366
 21
259.4259207171
  0
LINE
  8
0
 62
7
  6
CONTINUOUS
 10
148.5295763945
 20
150.6110214306
 11
149.1930551938
 21
149.5425226535
  0
LINE
  8
0
 62
7
  6
CONTINUOUS
 10
78.7104897561
 20
271.6219070395
 11
79.3040974413
 21
270.5130681558
  0
LINE
  8
0
 62
7
  6
CONTINUOUS
 10
127.8872936047
 20
137.0318337321
 11
128.1453116316
 21
135.8008502018
  0
LINE
  8
0
 62
7
  6
CONTINUOUS
 10
103.6669735404
 20
274.6244039924
 11
103.845537068
 21
273.3794104902
  0
LINE
  8
QUILTS
 62
7
  6
CONTINUOUS
 10
129.0046979947
 20
250.2672500385
 11
128.9340363058
 21
249.9390514681
  0
LINE
  8
QUILTS
 62
7
  6
CONTINUOUS
 10
129.4740597187
 20
249.624409269
 11
129.5447214077
 21
249.9526078394
  0
LINE
  8
QUILTS
 62
7
  6
CONTINUOUS
 10
131.6413301832
 20
243.4440483541
 11
133.193616316
 21
248.4807333886
  0
LINE
  8
QUILTS
 62
7
  6
CONTINUOUS
 10
131.5364521735
 20
245.0883638219
 11
131.1329141518
 21
243.8075564544
  0
LINE
  8
QUILTS
 62
7
  6
CONTINUOUS
 10
132.6071748618
 20
248.3769184164
 11
131.6992084296
 21
245.4951059088
  0
LINE
  8
QUILTS
 62
7
  6
CONTINUOUS
 10
133.2754774497
 20
243.8976668809
 11
133.0852070518
 21
243.3590277673
  0
LINE
  8
QUILTS
 62
7
  6
CONTINUOUS
 10
136.3814053497
 20
241.9156923755
 11
136.5716756989
 21
242.4543314329
  0
LINE
  8
QUILTS
 62
7
  6
CONTINUOUS
 10
133.6091390225
 20
243.3279614336
 11
133.7390577208
 21
243.6375232331
  0
LINE
  8
QUILTS
 62
7
  6
CONTINUOUS
 10
136.047743777
 20
242.4853978229
 11
135.9178249812
 21
242.1758359106
  0
LINE
  8
QUILTS
 62
7
  6
CONTINUOUS
 10
137.4761412995
 20
243.5005496199
 11
137.6060599978
 21
243.8101114195
  0
LINE
  8
QUILTS
 62
7
  6
CONTINUOUS
 10
45.6146058795
 20
209.5914654843
 11
45.2860763204
 21
209.5223635029
  0
LINE
  8
QUILTS
 62
7
  6
CONTINUOUS
 10
48.5282680976
 20
216.921330921
 11
48.9973745769
 21
216.9878101302
  0
LINE
  8
QUILTS
 62
7
  6
CONTINUOUS
 10
53.0649957713
 20
229.4326792636
 11
53.3947791344
 21
229.3698309726
  0
LINE
  8
QUILTS
 62
7
  6
CONTINUOUS
 10
53.6033404756
 20
229.9685333214
 11
53.2735571124
 21
230.0313816123
  0
LINE
  8
QUILTS
 62
7
  6
CONTINUOUS
 10
51.2016947177
 20
230.4598329218
 11
51.5314782114
 21
230.3969845589
  0
LINE
  8
QUILTS
 62
7
  6
CONTINUOUS
 10
51.7400392916
 20
230.9956870516
 11
51.4102560589
 21
231.0585352705
  0
LINE
  8
QUILTS
 62
7
  6
CONTINUOUS
 10
58.8872772502
 20
237.6025032776
 11
59.1997133497
 21
237.4796592382
  0
LINE
  8
QUILTS
 62
7
  6
CONTINUOUS
 10
59.5155589092
 20
238.0293718159
 11
59.2031228097
 21
238.1522158553
  0
LINE
  8
QUILTS
 62
7
  6
CONTINUOUS
 10
57.246469323
 20
238.9570086484
 11
57.5589055374
 21
238.8341645142
  0
LINE
  8
QUILTS
 62
7
  6
CONTINUOUS
 10
57.8747508671
 20
239.3838772815
 11
57.5623148825
 21
239.5067212261
  0
LINE
  8
QUILTS
 62
7
  6
CONTINUOUS
 10
62.8378116562
 20
239.7915870272
 11
63.1386685634
 21
239.6426187771
  0
LINE
  8
QUILTS
 62
7
  6
CONTINUOUS
 10
63.7280671046
 20
239.9401145071
 11
63.4272102108
 21
240.0890827442
  0
LINE
  8
QUILTS
 62
7
  6
CONTINUOUS
 10
61.7586351381
 20
241.5782616102
 11
61.4577749335
 21
241.7272264154
  0
LINE
  8
QUILTS
 62
7
  6
CONTINUOUS
 10
75.9336205828
 20
250.0728266902
 11
76.3435244692
 21
249.6749376229
  0
LINE
  8
QUILTS
 62
7
  6
CONTINUOUS
 10
79.2148058767
 20
251.9162417509
 11
78.8049062998
 21
252.3141328606
  0
LINE
  8
0
 62
7
  6
CONTINUOUS
 10
127.7765108983
 20
137.7928831137
 11
127.7625723407
 21
138.0062042386
  0
LINE
  8
0
 62
7
  6
CONTINUOUS
 10
127.7625723407
 20
266.7048540254
 11
127.7765108983
 21
266.9181751503
  0
LINE
  8
QUILTS
 62
7
  6
CONTINUOUS
 10
133.5580171485
 20
242.9502789294
 11
133.6091390225
 21
243.3279614336
  0
LINE
  8
0
 62
7
  6
CONTINUOUS
 10
104.0017295949
 20
132.0846901789
 11
104.0615917569
 21
132.2899137332
  0
LINE
  8
0
 62
7
  6
CONTINUOUS
 10
148.0791224028
 20
253.227085243
 11
148.1651804842
 21
253.4227742625
  0
LINE
  8
0
 62
7
  6
CONTINUOUS
 10
79.7084260776
 20
134.8521975089
 11
79.8348686989
 21
135.0245705033
  0
LINE
  8
0
 62
7
  6
CONTINUOUS
 10
162.5607661653
 20
233.6134560095
 11
162.7085638958
 21
233.7679099396
  0
LINE
  8
0
 62
7
  6
CONTINUOUS
 10
57.8267312815
 20
145.7616028758
 11
58.004503516
 21
145.8803345831
  0
LINE
  8
0
 62
7
  6
CONTINUOUS
 10
169.4608036642
 20
210.2296594766
 11
169.6525144563
 21
210.3242488941
  0
LINE
  8
QUILTS
 62
7
  6
CONTINUOUS
 10
48.9883847593
 20
217.6479718958
 11
48.6204432511
 21
217.5485837222
  0
LINE
  8
0
 62
7
  6
CONTINUOUS
 10
158.4095691404
 20
241.2139872774
 11
158.2019092479
 21
241.1632176533
  0
LINE
  8
QUILTS
 62
7
  6
CONTINUOUS
 10
47.223632296
 20
221.5082327503
 11
46.7545258876
 21
221.441753518
  0
LINE
  8
QUILTS
 62
7
  6
CONTINUOUS
 10
47.4448330379
 20
223.518702574
 11
52.4835117327
 21
224.1651119515
  0
LINE
  8
0
 62
7
  6
CONTINUOUS
 10
31.4584811356
 20
218.8149316496
 11
31.2459804328
 21
218.7916156246
  0
LINE
  8
0
 62
7
  6
CONTINUOUS
 10
168.1594892461
 20
218.7916156246
 11
167.9469885433
 21
218.8149316496
  0
LINE
  8
0
 62
7
  6
CONTINUOUS
 10
41.203560431
 20
241.1632176533
 11
40.9959005385
 21
241.2139872774
  0
LINE
  8
QUILTS
 62
7
  6
CONTINUOUS
 10
63.1386685634
 20
239.6426187771
 11
63.3635444469
 21
239.5681100962
  0
LINE
  8
QUILTS
 62
7
  6
CONTINUOUS
 10
61.3766322118
 20
238.4524172072
 11
61.1517596789
 21
238.5269292809
  0
LINE
  8
QUILTS
 62
7
  6
CONTINUOUS
 10
61.1692366102
 20
241.2807658671
 11
61.394109143
 21
241.2062537934
  0
LINE
  8
0
 62
7
  6
CONTINUOUS
 10
169.6525144563
 20
194.3868093699
 11
169.4608036642
 21
194.4813987874
  0
LINE
  8
0
 62
7
  6
CONTINUOUS
 10
58.004503516
 20
258.8307236808
 11
57.8267312815
 21
258.9494553882
  0
LINE
  8
QUILTS
 62
7
  6
CONTINUOUS
 10
75.147350894
 20
252.0526161115
 11
75.5131960214
 21
251.7515577062
  0
LINE
  8
QUILTS
 62
7
  6
CONTINUOUS
 10
78.2389042713
 20
253.8097573277
 11
77.8290002924
 21
254.2076465984
  0
LINE
  8
0
 62
7
  6
CONTINUOUS
 10
162.7085638958
 20
170.9431483243
 11
162.5607661653
 21
171.0976022545
  0
LINE
  8
0
 62
7
  6
CONTINUOUS
 10
79.8348686989
 20
269.6864877607
 11
79.7084260776
 21
269.8588607551
  0
LINE
  8
0
 62
7
  6
CONTINUOUS
 10
148.1651804842
 20
151.2882840015
 11
148.0791224028
 21
151.4839730209
  0
LINE
  8
0
 62
7
  6
CONTINUOUS
 10
104.0615917569
 20
272.4211445308
 11
104.0017295949
 21
272.6263680851
  0
LINE
  8
QUILTS
 62
7
  6
CONTINUOUS
 10
129.5447214077
 20
249.9526078394
 11
129.4889341516
 21
250.4776044103
  0
LINE
  8
QUILTS
 62
7
  6
CONTINUOUS
 10
133.0852070518
 20
243.3590277673
 11
133.0433150279
 21
242.8327401012
  0
LINE
  8
QUILTS
 62
7
  6
CONTINUOUS
 10
137.6060599978
 20
243.8101114195
 11
137.6479519974
 21
244.3363990574
  0
LINE
  8
QUILTS
 62
7
  6
CONTINUOUS
 10
137.1332499011
 20
244.2188602573
 11
137.0821280759
 21
243.8411778095
  0
LINE
  8
0
 62
7
  6
CONTINUOUS
 10
103.5664381446
 20
161.3179518318
 11
140.7403121397
 21
198.4918258268
  0
LINE
  8
QUILTS
 62
7
  6
CONTINUOUS
 10
46.7635156344
 20
220.7815917755
 11
47.131457426
 21
220.880979857
  0
LINE
  8
QUILTS
 62
7
  6
CONTINUOUS
 10
135.0133595024
 20
241.1296178645
 11
135.528061623
 21
241.2471566927
  0
LINE
  8
QUILTS
 62
7
  6
CONTINUOUS
 10
135.7567116106
 20
245.9713944088
 11
135.2420095143
 21
245.8538556087
  0
LINE
  8
QUILTS
 62
7
  6
CONTINUOUS
 10
51.9254983166
 20
224.7489157081
 11
46.984357364
 21
224.0600358681
  0
LINE
  8
QUILTS
 62
7
  6
CONTINUOUS
 10
53.2735571124
 20
230.0313816123
 11
52.7500337635
 21
229.9631399787
  0
LINE
  8
QUILTS
 62
7
  6
CONTINUOUS
 10
51.4102560589
 20
231.0585352705
 11
50.88673271
 21
230.9902936369
  0
LINE
  8
QUILTS
 62
7
  6
CONTINUOUS
 10
59.2031228097
 20
238.1522158553
 11
58.676018298
 21
238.1821232322
  0
LINE
  8
QUILTS
 62
7
  6
CONTINUOUS
 10
57.5623148825
 20
239.5067212261
 11
57.0352103708
 21
239.536628603
  0
LINE
  8
QUILTS
 62
7
  6
CONTINUOUS
 10
76.8683614909
 20
250.0305897508
 11
76.4076982042
 21
250.2885103143
  0
LINE
  8
QUILTS
 62
7
  6
CONTINUOUS
 10
78.280069278
 20
251.9584807328
 11
78.7407325956
 21
251.7005601014
  0
LINE
  8
QUILTS
 62
7
  6
CONTINUOUS
 10
75.8991648672
 20
252.1609064679
 11
75.5773697873
 21
252.3651303298
  0
LINE
  8
QUILTS
 62
7
  6
CONTINUOUS
 10
77.4430357868
 20
253.7982998113
 11
77.7648266499
 21
253.5940737036
  0
LINE
  8
0
 62
7
  6
CONTINUOUS
 10
140.7403121397
 20
206.2192324371
 11
103.5664381446
 21
243.3931064322
  0
LINE
  8
QUILTS
 62
7
  6
CONTINUOUS
 10
136.0292913402
 20
242.782601966
 11
136.047743777
 21
242.4853978229
  0
LINE
  8
QUILTS
 62
7
  6
CONTINUOUS
 10
136.5716756989
 20
242.4543314329
 11
136.5439934365
 21
242.900140766
  0
LINE
  8
QUILTS
 62
7
  6
CONTINUOUS
 10
52.7780906154
 20
229.3529470866
 11
53.0649957713
 21
229.4326792636
  0
LINE
  8
QUILTS
 62
7
  6
CONTINUOUS
 10
50.9147895618
 20
230.3801007448
 11
51.2016947177
 21
230.4598329218
  0
LINE
  8
QUILTS
 62
7
  6
CONTINUOUS
 10
128.5226928312
 20
249.4399799703
 11
128.2355755484
 21
249.3610213673
  0
LINE
  8
QUILTS
 62
7
  6
CONTINUOUS
 10
58.5905683383
 20
237.5772919691
 11
58.8872772502
 21
237.6025032776
  0
LINE
  8
QUILTS
 62
7
  6
CONTINUOUS
 10
56.949760411
 20
238.9317973399
 11
57.246469323
 21
238.9570086484
  0
LINE
  8
QUILTS
 62
7
  6
CONTINUOUS
 10
134.2353074777
 20
244.052266289
 11
134.5320569624
 21
244.0769753649
  0
LINE
  8
QUILTS
 62
7
  6
CONTINUOUS
 10
61.0880922198
 20
238.005954956
 11
61.5347601925
 21
238.0057905137
  0
LINE
  8
QUILTS
 62
7
  6
CONTINUOUS
 10
61.4577749335
 20
241.7272264154
 11
61.1599985365
 21
241.7273382881
  0
LINE
  8
QUILTS
 62
7
  6
CONTINUOUS
 10
76.3435244692
 20
249.6749376229
 11
76.7601333527
 21
249.5138496621
  0
LINE
  8
QUILTS
 62
7
  6
CONTINUOUS
 10
75.5131960214
 20
251.7515577062
 11
75.9298048895
 21
251.5904697793
  0
LINE
  8
QUILTS
 62
7
  6
CONTINUOUS
 10
77.8290002924
 20
254.2076465984
 11
77.4123914243
 21
254.3687345253
  0
LINE
  8
QUILTS
 62
7
  6
CONTINUOUS
 10
128.9318051623
 20
250.5559669068
 11
129.0046979947
 21
250.2672500385
  0
LINE
  8
QUILTS
 62
7
  6
CONTINUOUS
 10
57.0352103708
 20
239.536628603
 11
56.5238329318
 21
239.4184807269
  0
LINE
  8
QUILTS
 62
7
  6
CONTINUOUS
 10
61.1599985365
 20
241.7273382881
 11
60.7893149382
 21
241.6530465539
  0
LINE
  8
QUILTS
 62
7
  6
CONTINUOUS
 10
128.0042372815
 20
248.7570709944
 11
128.5249239747
 21
248.8230645316
  0
LINE
  8
QUILTS
 62
7
  6
CONTINUOUS
 10
77.3357297594
 20
250.0094703276
 11
76.8683614909
 21
250.0305897508
  0
LINE
  8
QUILTS
 62
7
  6
CONTINUOUS
 10
75.9298048895
 20
251.5904697793
 11
76.1634911939
 21
251.5799110551
  0
LINE
  8
QUILTS
 62
7
  6
CONTINUOUS
 10
77.8126966693
 20
251.9795981813
 11
78.280069278
 21
251.9584807328
  0
LINE
  8
QUILTS
 62
7
  6
CONTINUOUS
 10
78.2934793032
 20
252.4320828779
 11
78.0597973392
 21
252.4426435768
  0
LINE
  8
QUILTS
 62
7
  6
CONTINUOUS
 10
135.0552515263
 20
241.6559055305
 11
134.679697954
 21
241.69932334
  0
LINE
  8
QUILTS
 62
7
  6
CONTINUOUS
 10
134.5320569624
 20
244.0769753649
 11
134.9076105348
 21
244.0335575554
  0
LINE
  8
QUILTS
 62
7
  6
CONTINUOUS
 10
135.176677757
 20
244.5040759644
 11
134.4255706124
 21
244.5909115833
  0
LINE
  8
QUILTS
 62
7
  6
CONTINUOUS
 10
135.714819611
 20
245.4451067709
 11
136.0903731833
 21
245.4016889614
  0
LINE
  8
QUILTS
 62
7
  6
CONTINUOUS
 10
76.7601333527
 20
249.5138496621
 11
77.366374149
 21
249.4390355543
  0
LINE
  8
QUILTS
 62
7
  6
CONTINUOUS
 10
77.4123914243
 20
254.3687345253
 11
76.8061549798
 21
254.4435505822
  0
LINE
  8
QUILTS
 62
7
  6
CONTINUOUS
 10
134.4106234746
 20
241.2288111187
 11
135.0133595024
 21
241.1296178645
  0
LINE
  8
QUILTS
 62
7
  6
CONTINUOUS
 10
136.3594404056
 20
245.8722073705
 11
135.7567116106
 21
245.9713944088
  0
LINE
  8
QUILTS
 62
7
  6
CONTINUOUS
 10
76.4105875235
 20
252.042954476
 11
75.8991648672
 21
252.1609064679
  0
LINE
  8
QUILTS
 62
7
  6
CONTINUOUS
 10
78.8049062998
 20
252.3141328606
 11
78.2934793032
 21
252.4320828779
  0
LINE
  8
QUILTS
 62
7
  6
CONTINUOUS
 10
76.9316087903
 20
253.9162498286
 11
77.4430357868
 21
253.7982998113
  0
LINE
  8
QUILTS
 62
7
  6
CONTINUOUS
 10
129.4889341516
 20
250.4776044103
 11
129.2895841341
 21
250.9631240803
  0
LINE
  8
QUILTS
 62
7
  6
CONTINUOUS
 10
133.0433150279
 20
242.8327401012
 11
133.2285982328
 21
242.2506832133
  0
LINE
  8
QUILTS
 62
7
  6
CONTINUOUS
 10
136.5439934365
 20
242.900140766
 11
136.3587029988
 21
243.4822038698
  0
LINE
  8
QUILTS
 62
7
  6
CONTINUOUS
 10
137.6479519974
 20
244.3363990574
 11
137.4626687742
 21
244.9184559241
  0
LINE
  8
QUILTS
 62
7
  6
CONTINUOUS
 10
133.6552736729
 20
242.584947901
 11
133.5580171485
 21
242.9502789294
  0
LINE
  8
QUILTS
 62
7
  6
CONTINUOUS
 10
135.9320348158
 20
243.1479329944
 11
136.0292913402
 21
242.782601966
  0
LINE
  8
QUILTS
 62
7
  6
CONTINUOUS
 10
137.0359933767
 20
244.5841912857
 11
137.1332499011
 21
244.2188602573
  0
LINE
  8
QUILTS
 62
7
  6
CONTINUOUS
 10
77.366374149
 20
249.4390355543
 11
77.8845018217
 21
249.5578846265
  0
LINE
  8
QUILTS
 62
7
  6
CONTINUOUS
 10
76.8061549798
 20
254.4435505822
 11
76.2880229707
 21
254.324699527
  0
LINE
  8
QUILTS
 62
7
  6
CONTINUOUS
 10
77.7590479804
 20
250.085185448
 11
77.3357297594
 21
250.0094703276
  0
LINE
  8
QUILTS
 62
7
  6
CONTINUOUS
 10
77.3893827886
 20
251.9038850356
 11
77.8126966693
 21
251.9795981813
  0
LINE
  8
QUILTS
 62
7
  6
CONTINUOUS
 10
76.8339057445
 20
252.1186695963
 11
76.4105875235
 21
252.042954476
  0
LINE
  8
QUILTS
 62
7
  6
CONTINUOUS
 10
76.5082949096
 20
253.8405366829
 11
76.9316087903
 21
253.9162498286
  0
LINE
  8
QUILTS
 62
7
  6
CONTINUOUS
 10
128.2355755484
 20
249.3610213673
 11
127.9120077293
 21
249.426423599
  0
LINE
  8
QUILTS
 62
7
  6
CONTINUOUS
 10
127.5006644048
 20
248.9273523588
 11
128.0042372815
 21
248.7570709944
  0
LINE
  8
QUILTS
 62
7
  6
CONTINUOUS
 10
134.679697954
 20
241.69932334
 11
134.3737186437
 21
241.8232194542
  0
LINE
  8
QUILTS
 62
7
  6
CONTINUOUS
 10
134.9076105348
 20
244.0335575554
 11
135.2135898451
 21
243.9096614412
  0
LINE
  8
QUILTS
 62
7
  6
CONTINUOUS
 10
136.0903731833
 20
245.4016889614
 11
136.3963524936
 21
245.2777928473
  0
LINE
  8
QUILTS
 62
7
  6
CONTINUOUS
 10
133.9470431974
 20
241.4889547594
 11
134.4106234746
 21
241.2288111187
  0
LINE
  8
QUILTS
 62
7
  6
CONTINUOUS
 10
135.6402652426
 20
244.2439260796
 11
135.176677757
 21
244.5040759644
  0
LINE
  8
QUILTS
 62
7
  6
CONTINUOUS
 10
136.8230278912
 20
245.6120574856
 11
136.3594404056
 21
245.8722073705
  0
LINE
  8
QUILTS
 62
7
  6
CONTINUOUS
 10
124.2158922381
 20
248.2556246727
 11
124.7559156511
 21
247.9409824736
  0
LINE
  8
QUILTS
 62
7
  6
CONTINUOUS
 10
125.8805941659
 20
249.871278956
 11
127.5006644048
 21
248.9273523588
  0
LINE
  8
QUILTS
 62
7
  6
CONTINUOUS
 10
127.9120077293
 20
249.426423599
 11
126.2019308415
 21
250.422792163
  0
LINE
  8
QUILTS
 62
7
  6
CONTINUOUS
 10
128.2518873878
 20
245.8674375384
 11
128.7603034192
 21
245.5039294381
  0
LINE
  8
QUILTS
 62
7
  6
CONTINUOUS
 10
131.1329141518
 20
243.8075564544
 11
131.6413301832
 21
243.4440483541
  0
LINE
  8
QUILTS
 62
7
  6
CONTINUOUS
 10
129.8417346547
 20
246.3000556407
 11
131.5364521735
 21
245.0883638219
  0
LINE
  8
QUILTS
 62
7
  6
CONTINUOUS
 10
131.6992084296
 20
245.4951059088
 11
130.1739603354
 21
246.5856302097
  0
LINE
  8
QUILTS
 62
7
  6
CONTINUOUS
 10
133.5530371883
 20
241.829576712
 11
133.9470431974
 21
241.4889547594
  0
LINE
  8
QUILTS
 62
7
  6
CONTINUOUS
 10
134.3737186437
 20
241.8232194542
 11
133.8221044593
 21
242.3000951773
  0
LINE
  8
QUILTS
 62
7
  6
CONTINUOUS
 10
135.2135898451
 20
243.9096614412
 11
135.7652040294
 21
243.432785718
  0
LINE
  8
QUILTS
 62
7
  6
CONTINUOUS
 10
136.0342712517
 20
243.9033041271
 11
135.6402652426
 21
244.2439260796
  0
LINE
  8
QUILTS
 62
7
  6
CONTINUOUS
 10
137.0821280759
 20
243.8411778095
 11
137.4761412995
 21
243.5005496199
  0
LINE
  8
QUILTS
 62
7
  6
CONTINUOUS
 10
129.2895841341
 20
250.9631240803
 11
128.8931234826
 21
251.3172431803
  0
LINE
  8
QUILTS
 62
7
  6
CONTINUOUS
 10
128.7153495684
 20
250.8052068742
 11
128.9318051623
 21
250.5559669068
  0
LINE
  8
QUILTS
 62
7
  6
CONTINUOUS
 10
133.2285982328
 20
242.2506832133
 11
133.5530371883
 21
241.829576712
  0
LINE
  8
QUILTS
 62
7
  6
CONTINUOUS
 10
136.3587029988
 20
243.4822038698
 11
136.0342712517
 21
243.9033041271
  0
LINE
  8
QUILTS
 62
7
  6
CONTINUOUS
 10
137.4626687742
 20
244.9184559241
 11
137.1382298126
 21
245.3395624184
  0
LINE
  8
QUILTS
 62
7
  6
CONTINUOUS
 10
133.8221044593
 20
242.3000951773
 11
133.6552736729
 21
242.584947901
  0
LINE
  8
QUILTS
 62
7
  6
CONTINUOUS
 10
135.7652040294
 20
243.432785718
 11
135.9320348158
 21
243.1479329944
  0
LINE
  8
QUILTS
 62
7
  6
CONTINUOUS
 10
136.8691625904
 20
244.8690440094
 11
137.0359933767
 21
244.5841912857
  0
LINE
  8
QUILTS
 62
7
  6
CONTINUOUS
 10
127.0052726806
 20
251.8015754383
 11
128.7153495684
 21
250.8052068742
  0
LINE
  8
QUILTS
 62
7
  6
CONTINUOUS
 10
128.8931234826
 20
251.3172431803
 11
126.7330298306
 21
252.5758119766
  0
LINE
  8
QUILTS
 62
7
  6
CONTINUOUS
 10
133.193616316
 20
248.4807333886
 11
132.5157308601
 21
248.9654090068
  0
LINE
  8
QUILTS
 62
7
  6
CONTINUOUS
 10
136.3963524936
 20
245.2777928473
 11
136.8691625904
 21
244.8690440094
  0
LINE
  8
QUILTS
 62
7
  6
CONTINUOUS
 10
137.1382298126
 20
245.3395624184
 11
136.8230278912
 21
245.6120574856
  0
LINE
  8
0
 62
7
  6
CONTINUOUS
 10
170.9919433369
 20
186.5283570278
 11
172.1058896777
 21
192.8458606583
  0
LINE
  8
0
 62
7
  6
CONTINUOUS
 10
164.4869469882
 20
168.6560264462
 11
161.2794663347
 21
163.10050699
  0
LINE
  8
0
 62
7
  6
CONTINUOUS
 10
144.1399267383
 20
144.4073919648
 11
149.0540722004
 21
148.5308496096
  0
LINE
  8
0
 62
7
  6
CONTINUOUS
 10
121.6406059759
 20
132.7036775055
 11
127.6686977788
 21
134.8977234911
  0
LINE
  8
0
 62
7
  6
CONTINUOUS
 10
102.910215493
 20
275.3100539598
 11
96.4952541859
 21
275.3100539598
  0
LINE
  8
0
 62
7
  6
CONTINUOUS
 10
127.6686977788
 20
269.8133347728
 11
121.6406059759
 21
272.0073807585
  0
LINE
  8
0
 62
7
  6
CONTINUOUS
 10
144.1399267383
 20
260.3036662991
 11
149.0540722004
 21
256.1802086543
  0
LINE
  8
0
 62
7
  6
CONTINUOUS
 10
161.2794663347
 20
241.610551274
 11
164.4869469882
 21
236.0550318178
  0
LINE
  8
0
 62
7
  6
CONTINUOUS
 10
170.9919433369
 20
218.1827012361
 11
172.1058896777
 21
211.8651976057
  0
LINE
  8
0
 62
7
  6
CONTINUOUS
 10
27.292767054
 20
87.4687593721
 11
27.2979617023
 21
87.3968700777
  0
LINE
  8
2_FEATURE
 62
7
  6
CONTINUOUS
 10
27.2927675928
 20
94.0509741005
 11
27.2927675928
 21
87.4686454001
  0
LINE
  8
0
 62
7
  6
CONTINUOUS
 10
27.2976389613
 20
94.1204916804
 11
27.292767054
 21
94.0508601284
  0
POLYLINE
  8
0
 62
7
  6
CONTINUOUS
 66
1
 70
0
  0
VERTEX
  8
0
 62
7
  6
CONTINUOUS
 10
27.2979617023
 20
87.3968700777
  0
VERTEX
  8
0
 62
7
  6
CONTINUOUS
 10
27.3179378384
 20
87.3121092642
  0
VERTEX
  8
0
 62
7
  6
CONTINUOUS
 10
27.3511107477
 20
87.2343564937
  0
VERTEX
  8
0
 62
7
  6
CONTINUOUS
 10
27.3952017876
 20
87.1655245334
  0
VERTEX
  8
0
 62
7
  6
CONTINUOUS
 10
27.4477095346
 20
87.1068873612
  0
VERTEX
  8
0
 62
7
  6
CONTINUOUS
 10
27.5060574868
 20
87.0590969203
  0
VERTEX
  8
0
 62
7
  6
CONTINUOUS
 10
27.5677503677
 20
87.0222073756
  0
VERTEX
  8
0
 62
7
  6
CONTINUOUS
 10
27.6296359428
 20
86.9960453033
  0
VERTEX
  8
0
 62
7
  6
CONTINUOUS
 10
27.6864536799
 20
86.9800470329
  0
SEQEND
  0
LINE
  8
0
 62
7
  6
CONTINUOUS
 10
34.8282449499
 20
87.4660277039
 11
34.8300772965
 21
87.4232410772
  0
LINE
  8
2_FEATURE
 62
7
  6
CONTINUOUS
 10
34.8282436044
 20
94.0536986301
 11
34.8282436044
 21
87.4659208705
  0
LINE
  8
0
 62
7
  6
CONTINUOUS
 10
34.8300824772
 20
94.0964387588
 11
34.8282449499
 21
94.0535917968
  0
POLYLINE
  8
0
 62
7
  6
CONTINUOUS
 66
1
 70
0
  0
VERTEX
  8
0
 62
7
  6
CONTINUOUS
 10
34.8300772965
 20
87.4232410772
  0
VERTEX
  8
0
 62
7
  6
CONTINUOUS
 10
34.8618732006
 20
87.2856620216
  0
VERTEX
  8
0
 62
7
  6
CONTINUOUS
 10
34.9264457973
 20
87.1682530856
  0
VERTEX
  8
0
 62
7
  6
CONTINUOUS
 10
35.0129208481
 20
87.0776667251
  0
VERTEX
  8
0
 62
7
  6
CONTINUOUS
 10
35.1095937866
 20
87.0157847193
  0
VERTEX
  8
0
 62
7
  6
CONTINUOUS
 10
35.201374183
 20
86.9811429689
  0
VERTEX
  8
0
 62
7
  6
CONTINUOUS
 10
35.2693797387
 20
86.9663550279
  0
SEQEND
  0
LINE
  8
1_AXIS
 62
7
  6
CONTINUOUS
 10
39.7027348395
 20
101.2598097503
 11
39.7027348395
 21
95.7598097503
  0
LINE
  8
1_AXIS
 62
7
  6
CONTINUOUS
 10
39.7027348395
 20
85.7598097503
 11
39.7027348395
 21
80.2598097503
  0
LINE
  8
2_FEATURE
 62
7
  6
CONTINUOUS
 10
50.0920488977
 20
94.0591676347
 11
50.0920488977
 21
87.4604518659
  0
POLYLINE
  8
0
 62
7
  6
CONTINUOUS
 66
1
 70
0
  0
VERTEX
  8
0
 62
7
  6
CONTINUOUS
 10
50.0920519436
 20
87.4605003447
  0
VERTEX
  8
0
 62
7
  6
CONTINUOUS
 10
50.0927745483
 20
87.487405941
  0
VERTEX
  8
0
 62
7
  6
CONTINUOUS
 10
50.1043028408
 20
87.3503548514
  0
VERTEX
  8
0
 62
7
  6
CONTINUOUS
 10
50.1516339423
 20
87.2234450143
  0
VERTEX
  8
0
 62
7
  6
CONTINUOUS
 10
50.227547666
 20
87.1176324586
  0
VERTEX
  8
0
 62
7
  6
CONTINUOUS
 10
50.2728996103
 20
87.0748063541
  0
VERTEX
  8
0
 62
7
  6
CONTINUOUS
 10
50.3690762117
 20
87.0115815761
  0
VERTEX
  8
0
 62
7
  6
CONTINUOUS
 10
50.4605475364
 20
86.9754101831
  0
VERTEX
  8
0
 62
7
  6
CONTINUOUS
 10
50.5416787509
 20
86.9567222418
  0
VERTEX
  8
0
 62
7
  6
CONTINUOUS
 10
50.55691228
 20
86.9541379532
  0
SEQEND
  0
POLYLINE
  8
0
 62
7
  6
CONTINUOUS
 66
1
 70
0
  0
VERTEX
  8
0
 62
7
  6
CONTINUOUS
 10
71.2431437736
 20
87.4528353718
  0
VERTEX
  8
0
 62
7
  6
CONTINUOUS
 10
71.2514627505
 20
87.3618246982
  0
VERTEX
  8
0
 62
7
  6
CONTINUOUS
 10
71.3079156049
 20
87.2061487512
  0
VERTEX
  8
0
 62
7
  6
CONTINUOUS
 10
71.403428667
 20
87.0848738276
  0
VERTEX
  8
0
 62
7
  6
CONTINUOUS
 10
71.5173194668
 20
87.0047080057
  0
VERTEX
  8
0
 62
7
  6
CONTINUOUS
 10
71.5564581985
 20
86.9864311738
  0
SEQEND
  0
LINE
  8
2_FEATURE
 62
7
  6
CONTINUOUS
 10
71.2431432846
 20
94.0667954755
 11
71.2431432846
 21
87.452824025
  0
LINE
  8
0
 62
7
  6
CONTINUOUS
 10
71.8410900652
 20
94.6614553339
 11
71.8207168111
 21
94.64398531
  0
POLYLINE
  8
0
 62
7
  6
CONTINUOUS
 66
1
 70
0
  0
VERTEX
  8
0
 62
7
  6
CONTINUOUS
 10
171.7104556432
 20
86.9782398295
  0
VERTEX
  8
0
 62
7
  6
CONTINUOUS
 10
171.7638525542
 20
86.9920695798
  0
VERTEX
  8
0
 62
7
  6
CONTINUOUS
 10
171.8216391814
 20
87.014455317
  0
VERTEX
  8
0
 62
7
  6
CONTINUOUS
 10
171.8512468391
 20
87.0292898282
  0
VERTEX
  8
0
 62
7
  6
CONTINUOUS
 10
171.9098578436
 20
87.0666125237
  0
VERTEX
  8
0
 62
7
  6
CONTINUOUS
 10
171.9652668049
 20
87.1141991378
  0
VERTEX
  8
0
 62
7
  6
CONTINUOUS
 10
172.0151566142
 20
87.1720455929
  0
VERTEX
  8
0
 62
7
  6
CONTINUOUS
 10
172.0571212882
 20
87.2396393601
  0
VERTEX
  8
0
 62
7
  6
CONTINUOUS
 10
172.0887632963
 20
87.3158958178
  0
VERTEX
  8
0
 62
7
  6
CONTINUOUS
 10
172.1078298712
 20
87.3991286624
  0
SEQEND
  0
LINE
  8
0
 62
7
  6
CONTINUOUS
 10
71.8199212906
 20
86.8760331568
 11
71.8380382258
 21
86.8603882941
  0
LINE
  8
0
 62
7
  6
CONTINUOUS
 10
71.9920597399
 20
94.7370640736
 11
71.8410900652
 21
94.6614553339
  0
POLYLINE
  8
0
 62
7
  6
CONTINUOUS
 66
1
 70
0
  0
VERTEX
  8
0
 62
7
  6
CONTINUOUS
 10
71.5563838964
 20
94.5331572166
  0
VERTEX
  8
0
 62
7
  6
CONTINUOUS
 10
71.5213417919
 20
94.5169722141
  0
VERTEX
  8
0
 62
7
  6
CONTINUOUS
 10
71.4061216263
 20
94.4372376406
  0
VERTEX
  8
0
 62
7
  6
CONTINUOUS
 10
71.3092257699
 20
94.3157804107
  0
VERTEX
  8
0
 62
7
  6
CONTINUOUS
 10
71.2517296092
 20
94.1592306794
  0
VERTEX
  8
0
 62
7
  6
CONTINUOUS
 10
71.2431437737
 20
94.066784095
  0
SEQEND
  0
LINE
  8
0
 62
7
  6
CONTINUOUS
 10
71.8285306788
 20
94.6474813789
 11
71.8147902698
 21
94.6413336657
  0
LINE
  8
0
 62
7
  6
CONTINUOUS
 10
71.8145192284
 20
94.6412203033
 11
71.5563940848
 21
94.5331629194
  0
POLYLINE
  8
0
 62
7
  6
CONTINUOUS
 66
1
 70
0
  0
VERTEX
  8
0
 62
7
  6
CONTINUOUS
 10
164.135089221
 20
86.9661854809
  0
VERTEX
  8
0
 62
7
  6
CONTINUOUS
 10
164.2035899262
 20
86.9810037761
  0
VERTEX
  8
0
 62
7
  6
CONTINUOUS
 10
164.2958118779
 20
87.0157535603
  0
VERTEX
  8
0
 62
7
  6
CONTINUOUS
 10
164.3926432787
 20
87.0777447285
  0
VERTEX
  8
0
 62
7
  6
CONTINUOUS
 10
164.4791398578
 20
87.1684112399
  0
VERTEX
  8
0
 62
7
  6
CONTINUOUS
 10
164.5436673573
 20
87.2858457512
  0
VERTEX
  8
0
 62
7
  6
CONTINUOUS
 10
164.5754045436
 20
87.423371087
  0
VERTEX
  8
0
 62
7
  6
CONTINUOUS
 10
164.5772260498
 20
87.4660322686
  0
SEQEND
  0
POLYLINE
  8
0
 62
7
  6
CONTINUOUS
 66
1
 70
0
  0
VERTEX
  8
0
 62
7
  6
CONTINUOUS
 10
27.6864536799
 20
86.9800470329
  0
VERTEX
  8
0
 62
7
  6
CONTINUOUS
 10
27.7291109171
 20
86.972439085
  0
VERTEX
  8
0
 62
7
  6
CONTINUOUS
 10
27.7600153042
 20
86.9685819565
  0
VERTEX
  8
0
 62
7
  6
CONTINUOUS
 10
27.7989765726
 20
86.9644216022
  0
VERTEX
  8
0
 62
7
  6
CONTINUOUS
 10
27.8509808537
 20
86.9592836072
  0
SEQEND
  0
LINE
  8
0
 62
7
  6
CONTINUOUS
 10
71.5563940832
 20
86.9864565819
 11
71.8145192284
 21
86.8783991972
  0
LINE
  8
0
 62
7
  6
CONTINUOUS
 10
71.8147993044
 20
86.8782820599
 11
71.8250539274
 21
86.8737795772
  0
LINE
  8
0
 62
7
  6
CONTINUOUS
 10
71.8380382258
 20
86.8603882941
 11
71.989162064
 21
86.7834612356
  0
LINE
  8
0
 62
7
  6
CONTINUOUS
 10
147.8083014983
 20
86.7788775509
 11
147.8083829845
 21
86.7788937197
  0
POLYLINE
  8
0
 62
7
  6
CONTINUOUS
 66
1
 70
0
  0
VERTEX
  8
0
 62
7
  6
CONTINUOUS
 10
147.8083829845
 20
86.7788937197
  0
VERTEX
  8
0
 62
7
  6
CONTINUOUS
 10
147.9075934058
 20
86.7979584436
  0
VERTEX
  8
0
 62
7
  6
CONTINUOUS
 10
148.0574430974
 20
86.8247699824
  0
SEQEND
  0
LINE
  8
0
 62
7
  6
CONTINUOUS
 10
147.7563135407
 20
86.7699402909
 11
147.8083014745
 21
86.7788776704
  0
POLYLINE
  8
0
 62
7
  6
CONTINUOUS
 66
1
 70
0
  0
VERTEX
  8
0
 62
7
  6
CONTINUOUS
 10
148.8485628403
 20
86.9541389052
  0
VERTEX
  8
0
 62
7
  6
CONTINUOUS
 10
148.8613784642
 20
86.9562985838
  0
VERTEX
  8
0
 62
7
  6
CONTINUOUS
 10
148.942511171
 20
86.9747015387
  0
VERTEX
  8
0
 62
7
  6
CONTINUOUS
 10
149.0342562281
 20
87.0105050881
  0
VERTEX
  8
0
 62
7
  6
CONTINUOUS
 10
149.1309647264
 20
87.0734745681
  0
VERTEX
  8
0
 62
7
  6
CONTINUOUS
 10
149.1766373263
 20
87.1162646842
  0
VERTEX
  8
0
 62
7
  6
CONTINUOUS
 10
149.2531650526
 20
87.2221963159
  0
VERTEX
  8
0
 62
7
  6
CONTINUOUS
 10
149.3009685666
 20
87.3494701936
  0
VERTEX
  8
0
 62
7
  6
CONTINUOUS
 10
149.31271393
 20
87.487082195
  0
VERTEX
  8
0
 62
7
  6
CONTINUOUS
 10
149.3134193367
 20
87.4604979243
  0
SEQEND
  0
LINE
  8
0
 62
7
  6
CONTINUOUS
 10
148.0574430974
 20
86.8247699824
 11
148.1851102337
 21
86.8461302045
  0
LINE
  8
0
 62
7
  6
CONTINUOUS
 10
148.1851201152
 20
86.8461318133
 11
148.8486499473
 21
86.9541526638
  0
LINE
  8
0
 62
7
  6
CONTINUOUS
 10
164.071274367
 20
86.9569733334
 11
164.135089221
 21
86.9661854809
  0
POLYLINE
  8
0
 62
7
  6
CONTINUOUS
 66
1
 70
0
  0
VERTEX
  8
0
 62
7
  6
CONTINUOUS
 10
171.6468615443
 20
86.9687419614
  0
VERTEX
  8
0
 62
7
  6
CONTINUOUS
 10
171.6782780702
 20
86.9727126826
  0
VERTEX
  8
0
 62
7
  6
CONTINUOUS
 10
171.7228046496
 20
86.9808951637
  0
VERTEX
  8
0
 62
7
  6
CONTINUOUS
 10
171.7783137562
 20
86.996910226
  0
VERTEX
  8
0
 62
7
  6
CONTINUOUS
 10
171.8374093597
 20
87.0220512139
  0
VERTEX
  8
0
 62
7
  6
CONTINUOUS
 10
171.8974736328
 20
87.0577465289
  0
VERTEX
  8
0
 62
7
  6
CONTINUOUS
 10
171.9551814277
 20
87.1044453898
  0
VERTEX
  8
0
 62
7
  6
CONTINUOUS
 10
172.0077385527
 20
87.1622362795
  0
VERTEX
  8
0
 62
7
  6
CONTINUOUS
 10
172.0523757637
 20
87.2306570388
  0
VERTEX
  8
0
 62
7
  6
CONTINUOUS
 10
172.0863424013
 20
87.3085485632
  0
VERTEX
  8
0
 62
7
  6
CONTINUOUS
 10
172.1070870063
 20
87.3940297032
  0
VERTEX
  8
0
 62
7
  6
CONTINUOUS
 10
172.1127026249
 20
87.4687593719
  0
SEQEND
  0
POLYLINE
  8
0
 62
7
  6
CONTINUOUS
 66
1
 70
0
  0
VERTEX
  8
0
 62
7
  6
CONTINUOUS
 10
171.6411116085
 20
86.9680940825
  0
VERTEX
  8
0
 62
7
  6
CONTINUOUS
 10
171.6716248495
 20
86.9717860797
  0
VERTEX
  8
0
 62
7
  6
CONTINUOUS
 10
171.7104556432
 20
86.9782398295
  0
SEQEND
  0
LINE
  8
0
 62
7
  6
CONTINUOUS
 10
164.0168842016
 20
86.9506081879
 11
164.071274367
 21
86.9569733334
  0
LINE
  8
0
 62
7
  6
CONTINUOUS
 10
162.4119075788
 20
86.7727667439
 11
162.8324358077
 21
86.8210051304
  0
LINE
  8
0
 62
7
  6
CONTINUOUS
 10
162.8324358077
 20
86.8210051304
 11
164.0168983501
 21
86.9506095728
  0
LINE
  8
0
 62
7
  6
CONTINUOUS
 10
171.6017693065
 20
86.9639408432
 11
171.6468615443
 21
86.9687419614
  0
LINE
  8
0
 62
7
  6
CONTINUOUS
 10
162.3583645531
 20
86.7672137123
 11
162.4119036624
 21
86.7727664005
  0
LINE
  8
0
 62
7
  6
CONTINUOUS
 10
171.5498902444
 20
86.958842155
 11
171.6079555171
 21
86.9645711926
  0
LINE
  8
0
 62
7
  6
CONTINUOUS
 10
169.4847552124
 20
86.7714170334
 11
170.2561343186
 21
86.8416676038
  0
LINE
  8
0
 62
7
  6
CONTINUOUS
 10
170.2561341796
 20
86.8416675777
 11
171.5560867274
 21
86.9594373935
  0
LINE
  8
1_AXIS
 62
7
  6
CONTINUOUS
 10
157.7027348395
 20
78.2598097503
 11
41.7027348395
 21
78.2598097503
  0
POLYLINE
  8
0
 62
7
  6
CONTINUOUS
 66
1
 70
0
  0
VERTEX
  8
0
 62
7
  6
CONTINUOUS
 10
29.9207143182
 20
86.771417163
  0
VERTEX
  8
0
 62
7
  6
CONTINUOUS
 10
29.9743567324
 20
86.7670152882
  0
VERTEX
  8
0
 62
7
  6
CONTINUOUS
 10
30.1111367903
 20
86.7605185443
  0
VERTEX
  8
0
 62
7
  6
CONTINUOUS
 10
30.1731588365
 20
86.7598098913
  0
SEQEND
  0
LINE
  8
0
 62
7
  6
CONTINUOUS
 10
27.8509808537
 20
86.9592836072
 11
29.9207144328
 21
86.7714170441
  0
LINE
  8
0
 62
7
  6
CONTINUOUS
 10
36.9935654122
 20
86.7727664719
 11
37.0412225078
 21
86.7677489888
  0
POLYLINE
  8
0
 62
7
  6
CONTINUOUS
 66
1
 70
0
  0
VERTEX
  8
0
 62
7
  6
CONTINUOUS
 10
35.3885713296
 20
86.9506095727
  0
VERTEX
  8
0
 62
7
  6
CONTINUOUS
 10
36.8134111014
 20
86.7937566121
  0
VERTEX
  8
0
 62
7
  6
CONTINUOUS
 10
36.9935621034
 20
86.7727667478
  0
SEQEND
  0
LINE
  8
0
 62
7
  6
CONTINUOUS
 10
35.3323799903
 20
86.9572033391
 11
35.3885850351
 21
86.9506082096
  0
LINE
  8
0
 62
7
  6
CONTINUOUS
 10
35.2693797387
 20
86.9663550279
 11
35.3323799903
 21
86.9572033391
  0
LINE
  8
0
 62
7
  6
CONTINUOUS
 10
50.5568197327
 20
86.9541526636
 11
51.3446812676
 21
86.8253455671
  0
LINE
  8
0
 62
7
  6
CONTINUOUS
 10
51.5971641694
 20
86.7788784707
 11
51.6441347356
 21
86.7706828831
  0
POLYLINE
  8
0
 62
7
  6
CONTINUOUS
 66
1
 70
0
  0
VERTEX
  8
0
 62
7
  6
CONTINUOUS
 10
51.3446812676
 20
86.8253455671
  0
VERTEX
  8
0
 62
7
  6
CONTINUOUS
 10
51.4948616251
 20
86.798519655
  0
VERTEX
  8
0
 62
7
  6
CONTINUOUS
 10
51.5970876308
 20
86.7788935307
  0
SEQEND
  0
LINE
  8
0
 62
7
  6
CONTINUOUS
 10
51.5971641694
 20
86.7788784707
 11
51.5970876553
 21
86.7788936533
  0
LINE
  8
0
 62
7
  6
CONTINUOUS
 10
127.2631363031
 20
86.7598098584
 11
127.4134097594
 21
86.782555367
  0
LINE
  8
0
 62
7
  6
CONTINUOUS
 10
147.653172838
 20
86.7604733725
 11
147.7563135407
 21
86.7699402909
  0
LINE
  8
0
 62
7
  6
CONTINUOUS
 10
147.6179264159
 20
86.759809864
 11
147.653172838
 21
86.7604733725
  0
POLYLINE
  8
0
 62
7
  6
CONTINUOUS
 66
1
 70
0
  0
VERTEX
  8
0
 62
7
  6
CONTINUOUS
 10
162.1935851787
 20
86.7598098564
  0
VERTEX
  8
0
 62
7
  6
CONTINUOUS
 10
162.240323759
 20
86.7604098476
  0
VERTEX
  8
0
 62
7
  6
CONTINUOUS
 10
162.3583645531
 20
86.7672137123
  0
SEQEND
  0
POLYLINE
  8
0
 62
7
  6
CONTINUOUS
 66
1
 70
0
  0
VERTEX
  8
0
 62
7
  6
CONTINUOUS
 10
169.2323243515
 20
86.7598098933
  0
VERTEX
  8
0
 62
7
  6
CONTINUOUS
 10
169.2875576914
 20
86.7603731672
  0
VERTEX
  8
0
 62
7
  6
CONTINUOUS
 10
169.4243039238
 20
86.7665313156
  0
VERTEX
  8
0
 62
7
  6
CONTINUOUS
 10
169.4847552454
 20
86.7714171523
  0
SEQEND
  0
LINE
  8
0
 62
7
  6
CONTINUOUS
 10
51.7471389633
 20
86.7606817314
 11
51.7875533999
 21
86.7598098658
  0
POLYLINE
  8
0
 62
7
  6
CONTINUOUS
 66
1
 70
0
  0
VERTEX
  8
0
 62
7
  6
CONTINUOUS
 10
37.0412225078
 20
86.7677489888
  0
VERTEX
  8
0
 62
7
  6
CONTINUOUS
 10
37.1592939659
 20
86.760569268
  0
VERTEX
  8
0
 62
7
  6
CONTINUOUS
 10
37.2118898886
 20
86.7598098567
  0
SEQEND
  0
LINE
  8
0
 62
7
  6
CONTINUOUS
 10
51.6441347356
 20
86.7706828831
 11
51.7471389633
 21
86.7606817314
  0
LINE
  8
0
 62
7
  6
CONTINUOUS
 10
71.989162064
 20
86.7834612356
 11
72.1423340195
 21
86.7598098588
  0
LINE
  8
1_AXIS
 62
2
  6
CENTER
 10
99.7027348395
 20
76.2598097503
 11
99.7027348395
 21
105.2598097503
  0
LINE
  8
0
 62
7
  6
CONTINUOUS
 10
169.2318714036
 20
86.7598097503
 11
169.2323197693
 21
86.759809787
  0
LINE
  8
0
 62
7
  6
CONTINUOUS
 10
127.263148401
 20
86.7598097503
 11
72.142321278
 21
86.7598097503
  0
LINE
  8
0
 62
7
  6
CONTINUOUS
 10
30.1735982763
 20
86.7598097503
 11
72.1285033851
 21
86.7598097503
  0
LINE
  8
0
 62
7
  6
CONTINUOUS
 10
127.3064257277
 20
86.7598097503
 11
169.2318714027
 21
86.7598097503
  0
LINE
  8
0
 62
7
  6
CONTINUOUS
 10
51.7875438622
 20
94.7598096354
 11
51.752302019
 21
94.7591463169
  0
POLYLINE
  8
0
 62
7
  6
CONTINUOUS
 66
1
 70
0
  0
VERTEX
  8
0
 62
7
  6
CONTINUOUS
 10
37.2118913825
 20
94.7598096428
  0
VERTEX
  8
0
 62
7
  6
CONTINUOUS
 10
37.1651509496
 20
94.759209777
  0
VERTEX
  8
0
 62
7
  6
CONTINUOUS
 10
37.0471102327
 20
94.7524062487
  0
SEQEND
  0
POLYLINE
  8
0
 62
7
  6
CONTINUOUS
 66
1
 70
0
  0
VERTEX
  8
0
 62
7
  6
CONTINUOUS
 10
30.1733846225
 20
94.7598096349
  0
VERTEX
  8
0
 62
7
  6
CONTINUOUS
 10
30.1179166145
 20
94.7592464224
  0
VERTEX
  8
0
 62
7
  6
CONTINUOUS
 10
29.981170435
 20
94.7530885162
  0
VERTEX
  8
0
 62
7
  6
CONTINUOUS
 10
29.9207144727
 20
94.7482023527
  0
SEQEND
  0
LINE
  8
1_AXIS
 62
7
  6
CONTINUOUS
 10
169.2318714036
 20
94.7598097503
 11
167.8838942998
 21
94.7598097503
  0
LINE
  8
1_AXIS
 62
7
  6
CONTINUOUS
 10
162.1936084969
 20
94.7598097503
 11
158.3122631184
 21
94.7598097503
  0
LINE
  8
1_AXIS
 62
7
  6
CONTINUOUS
 10
147.6180239601
 20
94.7598097503
 11
141.6714578421
 21
94.7598097503
  0
LINE
  8
1_AXIS
 62
7
  6
CONTINUOUS
 10
127.263148401
 20
94.7598097503
 11
119.9686051792
 21
94.7598097503
  0
LINE
  8
1_AXIS
 62
7
  6
CONTINUOUS
 10
103.5840802179
 20
94.7598097503
 11
95.821389461
 21
94.7598097503
  0
LINE
  8
1_AXIS
 62
7
  6
CONTINUOUS
 10
79.4368644997
 20
94.7598097503
 11
72.142321278
 21
94.7598097503
  0
LINE
  8
1_AXIS
 62
7
  6
CONTINUOUS
 10
57.7340118369
 20
94.7598097503
 11
51.7874457189
 21
94.7598097503
  0
LINE
  8
1_AXIS
 62
7
  6
CONTINUOUS
 10
41.0932065605
 20
94.7598097503
 11
37.211861182
 21
94.7598097503
  0
LINE
  8
1_AXIS
 62
7
  6
CONTINUOUS
 10
31.5215753791
 20
94.7598097503
 11
30.1735982754
 21
94.7598097503
  0
LINE
  8
0
 62
7
  6
CONTINUOUS
 10
30.1735982763
 20
94.7598097503
 11
72.1285033854
 21
94.7598097503
  0
LINE
  8
0
 62
7
  6
CONTINUOUS
 10
72.142321278
 20
94.7598097503
 11
127.263148401
 21
94.7598097503
  0
LINE
  8
0
 62
7
  6
CONTINUOUS
 10
127.3064257269
 20
94.7598097503
 11
169.2318714027
 21
94.7598097503
  0
LINE
  8
0
 62
7
  6
CONTINUOUS
 10
147.6583254359
 20
94.7589379917
 11
147.6179157469
 21
94.7598096337
  0
LINE
  8
0
 62
7
  6
CONTINUOUS
 10
72.1423334865
 20
94.7598096409
 11
71.9920597399
 21
94.7370640736
  0
LINE
  8
0
 62
7
  6
CONTINUOUS
 10
37.0471102327
 20
94.7524062487
 11
36.9935661473
 21
94.7468531162
  0
LINE
  8
0
 62
7
  6
CONTINUOUS
 10
51.752302019
 20
94.7591463169
 11
51.6491613117
 21
94.7496799629
  0
LINE
  8
0
 62
7
  6
CONTINUOUS
 10
29.9207144506
 20
94.7482024597
 11
29.149335371
 21
94.6779518968
  0
LINE
  8
0
 62
7
  6
CONTINUOUS
 10
29.1493354994
 20
94.6779519229
 11
27.8556084867
 21
94.5607801231
  0
POLYLINE
  8
0
 62
7
  6
CONTINUOUS
 66
1
 70
0
  0
VERTEX
  8
0
 62
7
  6
CONTINUOUS
 10
162.3642419806
 20
94.7518709982
  0
VERTEX
  8
0
 62
7
  6
CONTINUOUS
 10
162.2461705684
 20
94.7590503779
  0
VERTEX
  8
0
 62
7
  6
CONTINUOUS
 10
162.1935730523
 20
94.7598096428
  0
SEQEND
  0
POLYLINE
  8
0
 62
7
  6
CONTINUOUS
 66
1
 70
0
  0
VERTEX
  8
0
 62
7
  6
CONTINUOUS
 10
169.4847553267
 20
94.7482023415
  0
VERTEX
  8
0
 62
7
  6
CONTINUOUS
 10
169.4311081985
 20
94.7526045621
  0
VERTEX
  8
0
 62
7
  6
CONTINUOUS
 10
169.2943281804
 20
94.7591010604
  0
VERTEX
  8
0
 62
7
  6
CONTINUOUS
 10
169.2320732702
 20
94.7598096358
  0
SEQEND
  0
LINE
  8
0
 62
7
  6
CONTINUOUS
 10
171.5509303312
 20
94.5606776446
 11
171.4879865472
 21
94.5665842811
  0
LINE
  8
0
 62
7
  6
CONTINUOUS
 10
147.7613296709
 20
94.7489374139
 11
147.6583254359
 21
94.7589379917
  0
LINE
  8
0
 62
7
  6
CONTINUOUS
 10
162.4119041422
 20
94.7468530441
 11
162.3642419806
 21
94.7518709982
  0
LINE
  8
0
 62
7
  6
CONTINUOUS
 10
127.4163072232
 20
94.7361583846
 11
127.2631355496
 21
94.7598096407
  0
POLYLINE
  8
0
 62
7
  6
CONTINUOUS
 66
1
 70
0
  0
VERTEX
  8
0
 62
7
  6
CONTINUOUS
 10
127.849165319
 20
86.986495862
  0
VERTEX
  8
0
 62
7
  6
CONTINUOUS
 10
127.8841229931
 20
87.0026459643
  0
VERTEX
  8
0
 62
7
  6
CONTINUOUS
 10
127.9993333841
 20
87.0823682778
  0
VERTEX
  8
0
 62
7
  6
CONTINUOUS
 10
128.0962383202
 20
87.2038279975
  0
VERTEX
  8
0
 62
7
  6
CONTINUOUS
 10
128.1537388357
 20
87.3603816546
  0
VERTEX
  8
0
 62
7
  6
CONTINUOUS
 10
128.1623256081
 20
87.4528326052
  0
SEQEND
  0
LINE
  8
0
 62
7
  6
CONTINUOUS
 10
127.5769381016
 20
86.8721376134
 11
127.5906790376
 21
86.8782856775
  0
LINE
  8
0
 62
7
  6
CONTINUOUS
 10
127.5909504505
 20
86.8783991972
 11
127.8490755968
 21
86.9864565823
  0
LINE
  8
0
 62
7
  6
CONTINUOUS
 10
51.5971684878
 20
94.7407420138
 11
51.5970867087
 21
94.7407257869
  0
POLYLINE
  8
0
 62
7
  6
CONTINUOUS
 66
1
 70
0
  0
VERTEX
  8
0
 62
7
  6
CONTINUOUS
 10
51.5970867087
 20
94.7407257869
  0
VERTEX
  8
0
 62
7
  6
CONTINUOUS
 10
51.4978866989
 20
94.7216630013
  0
VERTEX
  8
0
 62
7
  6
CONTINUOUS
 10
51.3480381017
 20
94.6948515035
  0
SEQEND
  0
LINE
  8
0
 62
7
  6
CONTINUOUS
 10
51.6491613117
 20
94.7496799629
 11
51.5971685121
 21
94.7407418919
  0
POLYLINE
  8
0
 62
7
  6
CONTINUOUS
 66
1
 70
0
  0
VERTEX
  8
0
 62
7
  6
CONTINUOUS
 10
50.5569051072
 20
94.5654803811
  0
VERTEX
  8
0
 62
7
  6
CONTINUOUS
 10
50.5441072169
 20
94.5633239637
  0
VERTEX
  8
0
 62
7
  6
CONTINUOUS
 10
50.4629591925
 20
94.5449180324
  0
VERTEX
  8
0
 62
7
  6
CONTINUOUS
 10
50.3712433284
 20
94.5091297949
  0
VERTEX
  8
0
 62
7
  6
CONTINUOUS
 10
50.2745177622
 20
94.4461565257
  0
VERTEX
  8
0
 62
7
  6
CONTINUOUS
 10
50.2288374059
 20
94.4033603659
  0
VERTEX
  8
0
 62
7
  6
CONTINUOUS
 10
50.1523070842
 20
94.2974250892
  0
VERTEX
  8
0
 62
7
  6
CONTINUOUS
 10
50.1045029491
 20
94.1701494031
  0
VERTEX
  8
0
 62
7
  6
CONTINUOUS
 10
50.0927573168
 20
94.0325360597
  0
VERTEX
  8
0
 62
7
  6
CONTINUOUS
 10
50.0920519436
 20
94.0591191598
  0
SEQEND
  0
LINE
  8
0
 62
7
  6
CONTINUOUS
 10
51.3480381017
 20
94.6948515035
 11
51.2203594942
 21
94.6734893027
  0
LINE
  8
0
 62
7
  6
CONTINUOUS
 10
51.2203495637
 20
94.6734876873
 11
50.5568197344
 21
94.5654668373
  0
LINE
  8
0
 62
7
  6
CONTINUOUS
 10
35.3343420465
 20
94.56266471
 11
35.2706615345
 21
94.5534814758
  0
LINE
  8
0
 62
7
  6
CONTINUOUS
 10
35.3885842168
 20
94.5690112016
 11
35.3343420465
 21
94.56266471
  0
LINE
  8
0
 62
7
  6
CONTINUOUS
 10
36.9935620861
 20
94.7468527518
 11
36.5730543397
 21
94.6986166608
  0
LINE
  8
0
 62
7
  6
CONTINUOUS
 10
36.5730543397
 20
94.6986166608
 11
35.3885713307
 21
94.569009928
  0
POLYLINE
  8
0
 62
7
  6
CONTINUOUS
 66
1
 70
0
  0
VERTEX
  8
0
 62
7
  6
CONTINUOUS
 10
27.8037139433
 20
94.5556800371
  0
VERTEX
  8
0
 62
7
  6
CONTINUOUS
 10
27.7643664831
 20
94.5515263724
  0
VERTEX
  8
0
 62
7
  6
CONTINUOUS
 10
27.7338587213
 20
94.5478353265
  0
VERTEX
  8
0
 62
7
  6
CONTINUOUS
 10
27.6950275659
 20
94.5413823721
  0
SEQEND
  0
LINE
  8
0
 62
7
  6
CONTINUOUS
 10
27.8556084867
 20
94.5607801231
 11
27.8037139433
 21
94.5556800371
  0
LINE
  8
1_AXIS
 62
7
  6
CONTINUOUS
 10
157.7027348395
 20
103.2598097503
 11
41.7027348395
 21
103.2598097503
  0
POLYLINE
  8
0
 62
7
  6
CONTINUOUS
 66
1
 70
0
  0
VERTEX
  8
0
 62
7
  6
CONTINUOUS
 10
164.0168983494
 20
94.5690099279
  0
VERTEX
  8
0
 62
7
  6
CONTINUOUS
 10
162.592077403
 20
94.7258607326
  0
VERTEX
  8
0
 62
7
  6
CONTINUOUS
 10
162.4119075401
 20
94.7468527617
  0
SEQEND
  0
LINE
  8
0
 62
7
  6
CONTINUOUS
 10
164.0731075267
 20
94.5624138802
 11
164.0168832091
 21
94.569011421
  0
LINE
  8
0
 62
7
  6
CONTINUOUS
 10
164.136094604
 20
94.5532636786
 11
164.0731075267
 21
94.5624138802
  0
POLYLINE
  8
0
 62
7
  6
CONTINUOUS
 66
1
 70
0
  0
VERTEX
  8
0
 62
7
  6
CONTINUOUS
 10
171.7082051725
 20
94.5418299874
  0
VERTEX
  8
0
 62
7
  6
CONTINUOUS
 10
171.6705872975
 20
94.547972711
  0
VERTEX
  8
0
 62
7
  6
CONTINUOUS
 10
171.6401934577
 20
94.5516275277
  0
VERTEX
  8
0
 62
7
  6
CONTINUOUS
 10
171.6007416396
 20
94.5557827811
  0
VERTEX
  8
0
 62
7
  6
CONTINUOUS
 10
171.5488027796
 20
94.560881492
  0
VERTEX
  8
0
 62
7
  6
CONTINUOUS
 10
169.4847552192
 20
94.7482024674
  0
SEQEND
  0
LINE
  8
0
 62
7
  6
CONTINUOUS
 10
148.8486499462
 20
94.565466837
 11
148.0607994774
 21
94.6942720293
  0
LINE
  8
0
 62
7
  6
CONTINUOUS
 10
147.8083051355
 20
94.7407411047
 11
147.7613296709
 21
94.7489374139
  0
POLYLINE
  8
0
 62
7
  6
CONTINUOUS
 66
1
 70
0
  0
VERTEX
  8
0
 62
7
  6
CONTINUOUS
 10
148.0607994774
 20
94.6942720293
  0
VERTEX
  8
0
 62
7
  6
CONTINUOUS
 10
147.9106179955
 20
94.7210979953
  0
VERTEX
  8
0
 62
7
  6
CONTINUOUS
 10
147.8083820471
 20
94.7407259668
  0
SEQEND
  0
LINE
  8
0
 62
7
  6
CONTINUOUS
 10
147.8083051355
 20
94.7407411047
 11
147.8083820234
 21
94.740725848
  0
LINE
  8
0
 62
7
  6
CONTINUOUS
 10
127.8490755957
 20
94.5331629187
 11
127.5909504504
 21
94.6412203034
  0
LINE
  8
0
 62
7
  6
CONTINUOUS
 10
127.5906699786
 20
94.6413376072
 11
127.5804153034
 21
94.6458401718
  0
LINE
  8
0
 62
7
  6
CONTINUOUS
 10
127.4134097594
 20
86.782555367
 11
127.5643794198
 21
86.8581640263
  0
POLYLINE
  8
0
 62
7
  6
CONTINUOUS
 66
1
 70
0
  0
VERTEX
  8
0
 62
7
  6
CONTINUOUS
 10
35.2706615345
 20
94.5534814758
  0
VERTEX
  8
0
 62
7
  6
CONTINUOUS
 10
35.2023815875
 20
94.5387532222
  0
VERTEX
  8
0
 62
7
  6
CONTINUOUS
 10
35.1101737488
 20
94.5041185975
  0
VERTEX
  8
0
 62
7
  6
CONTINUOUS
 10
35.0131975822
 20
94.4421780171
  0
VERTEX
  8
0
 62
7
  6
CONTINUOUS
 10
34.9265675068
 20
94.3515308476
  0
VERTEX
  8
0
 62
7
  6
CONTINUOUS
 10
34.8619154687
 20
94.2340668605
  0
VERTEX
  8
0
 62
7
  6
CONTINUOUS
 10
34.8300824772
 20
94.0964387588
  0
SEQEND
  0
LINE
  8
0
 62
7
  6
CONTINUOUS
 10
127.5674313109
 20
94.6592313109
 11
127.4163072232
 21
94.7361583846
  0
LINE
  8
0
 62
7
  6
CONTINUOUS
 10
127.5643794198
 20
86.8581640263
 11
127.5847527402
 21
86.8756340928
  0
POLYLINE
  8
0
 62
7
  6
CONTINUOUS
 66
1
 70
0
  0
VERTEX
  8
0
 62
7
  6
CONTINUOUS
 10
27.6950275659
 20
94.5413823721
  0
VERTEX
  8
0
 62
7
  6
CONTINUOUS
 10
27.6416252278
 20
94.52755256
  0
VERTEX
  8
0
 62
7
  6
CONTINUOUS
 10
27.5838341642
 20
94.5051660811
  0
VERTEX
  8
0
 62
7
  6
CONTINUOUS
 10
27.5542242369
 20
94.4903307264
  0
VERTEX
  8
0
 62
7
  6
CONTINUOUS
 10
27.495610505
 20
94.4530064949
  0
VERTEX
  8
0
 62
7
  6
CONTINUOUS
 10
27.4402007827
 20
94.4054190582
  0
VERTEX
  8
0
 62
7
  6
CONTINUOUS
 10
27.3903111586
 20
94.3475724865
  0
VERTEX
  8
0
 62
7
  6
CONTINUOUS
 10
27.3483470171
 20
94.2799792539
  0
VERTEX
  8
0
 62
7
  6
CONTINUOUS
 10
27.3167054351
 20
94.2037236995
  0
VERTEX
  8
0
 62
7
  6
CONTINUOUS
 10
27.2976389613
 20
94.1204916804
  0
SEQEND
  0
LINE
  8
0
 62
7
  6
CONTINUOUS
 10
171.7631850883
 20
94.5277616449
 11
171.7097245618
 21
94.5415270891
  0
LINE
  8
0
 62
7
  6
CONTINUOUS
 10
127.5855482878
 20
94.6435864101
 11
127.5674313109
 21
94.6592313109
  0
POLYLINE
  8
0
 62
7
  6
CONTINUOUS
 66
1
 70
0
  0
VERTEX
  8
0
 62
7
  6
CONTINUOUS
 10
128.1623256083
 20
94.0667869289
  0
VERTEX
  8
0
 62
7
  6
CONTINUOUS
 10
128.154006131
 20
94.157799682
  0
VERTEX
  8
0
 62
7
  6
CONTINUOUS
 10
128.0975505971
 20
94.3134782234
  0
VERTEX
  8
0
 62
7
  6
CONTINUOUS
 10
128.0020307665
 20
94.4347553813
  0
VERTEX
  8
0
 62
7
  6
CONTINUOUS
 10
127.8881501415
 20
94.5149102993
  0
VERTEX
  8
0
 62
7
  6
CONTINUOUS
 10
127.8490923573
 20
94.5331542034
  0
SEQEND
  0
LINE
  8
0
 62
7
  6
CONTINUOUS
 10
128.1623263943
 20
94.0667963643
 11
128.1623263943
 21
87.4528231363
  0
LINE
  8
0
 62
7
  6
CONTINUOUS
 10
171.8225515183
 20
94.5047431005
 11
171.7615537404
 21
94.528274882
  0
LINE
  8
0
 62
7
  6
CONTINUOUS
 10
149.3134207812
 20
94.0591690166
 11
149.3134207812
 21
87.460450484
  0
POLYLINE
  8
0
 62
7
  6
CONTINUOUS
 66
1
 70
0
  0
VERTEX
  8
0
 62
7
  6
CONTINUOUS
 10
149.3134193367
 20
94.0591215723
  0
VERTEX
  8
0
 62
7
  6
CONTINUOUS
 10
149.3126967067
 20
94.0322149663
  0
VERTEX
  8
0
 62
7
  6
CONTINUOUS
 10
149.3011685756
 20
94.1692649921
  0
VERTEX
  8
0
 62
7
  6
CONTINUOUS
 10
149.2538378393
 20
94.2961732484
  0
VERTEX
  8
0
 62
7
  6
CONTINUOUS
 10
149.1779261941
 20
94.4019824172
  0
VERTEX
  8
0
 62
7
  6
CONTINUOUS
 10
149.1325812911
 20
94.4448028024
  0
VERTEX
  8
0
 62
7
  6
CONTINUOUS
 10
149.0364214765
 20
94.5080232801
  0
VERTEX
  8
0
 62
7
  6
CONTINUOUS
 10
148.9449210554
 20
94.5442098132
  0
VERTEX
  8
0
 62
7
  6
CONTINUOUS
 10
148.8638019615
 20
94.5628950466
  0
VERTEX
  8
0
 62
7
  6
CONTINUOUS
 10
148.8485529247
 20
94.5654822076
  0
SEQEND
  0
LINE
  8
0
 62
7
  6
CONTINUOUS
 10
171.9678207134
 20
94.4028619103
 11
171.9121558575
 21
94.4512981993
  0
LINE
  8
1_AXIS
 62
7
  6
CONTINUOUS
 10
159.7027348395
 20
101.2598097503
 11
159.7027348395
 21
95.7598097503
  0
LINE
  8
1_AXIS
 62
7
  6
CONTINUOUS
 10
159.7027348395
 20
85.7598097503
 11
159.7027348395
 21
80.2598097503
  0
POLYLINE
  8
0
 62
7
  6
CONTINUOUS
 66
1
 70
0
  0
VERTEX
  8
0
 62
7
  6
CONTINUOUS
 10
164.5772260498
 20
94.0535872322
  0
VERTEX
  8
0
 62
7
  6
CONTINUOUS
 10
164.5753936674
 20
94.0963753556
  0
VERTEX
  8
0
 62
7
  6
CONTINUOUS
 10
164.5435982784
 20
94.2339526776
  0
VERTEX
  8
0
 62
7
  6
CONTINUOUS
 10
164.4790278627
 20
94.3513596967
  0
VERTEX
  8
0
 62
7
  6
CONTINUOUS
 10
164.3925567051
 20
94.4419453073
  0
VERTEX
  8
0
 62
7
  6
CONTINUOUS
 10
164.2958893109
 20
94.5038279906
  0
VERTEX
  8
0
 62
7
  6
CONTINUOUS
 10
164.2040933468
 20
94.5384772161
  0
VERTEX
  8
0
 62
7
  6
CONTINUOUS
 10
164.136094604
 20
94.5532636786
  0
SEQEND
  0
LINE
  8
0
 62
7
  6
CONTINUOUS
 10
164.5772260745
 20
94.0536994305
 11
164.5772260745
 21
87.4659200701
  0
POLYLINE
  8
0
 62
7
  6
CONTINUOUS
 66
1
 70
0
  0
VERTEX
  8
0
 62
7
  6
CONTINUOUS
 10
172.1127026249
 20
94.0508601282
  0
VERTEX
  8
0
 62
7
  6
CONTINUOUS
 10
172.1081827341
 20
94.1179407879
  0
VERTEX
  8
0
 62
7
  6
CONTINUOUS
 10
172.0897024711
 20
94.2007701156
  0
VERTEX
  8
0
 62
7
  6
CONTINUOUS
 10
172.0585727303
 20
94.2771441466
  0
VERTEX
  8
0
 62
7
  6
CONTINUOUS
 10
172.0168631549
 20
94.3452460185
  0
VERTEX
  8
0
 62
7
  6
CONTINUOUS
 10
171.9668597957
 20
94.4038296662
  0
VERTEX
  8
0
 62
7
  6
CONTINUOUS
 10
171.9109339513
 20
94.4522098437
  0
VERTEX
  8
0
 62
7
  6
CONTINUOUS
 10
171.8514052098
 20
94.4902439157
  0
VERTEX
  8
0
 62
7
  6
CONTINUOUS
 10
171.8210021057
 20
94.5054571151
  0
SEQEND
  0
LINE
  8
0
 62
7
  6
CONTINUOUS
 10
172.1127020861
 20
94.0509740572
 11
172.1127020861
 21
87.4686454433
  0
LINE
  8
0
 62
7
  6
CONTINUOUS
 10
172.1078298712
 20
87.3991286624
 11
172.1127016701
 21
87.4687596124
  0
ARC
  8
0
 62
7
  6
CONTINUOUS
 10
42.5719484256
 20
157.5007326824
 40
6.2
 50
104.7262619366
 51
111.838
  0
ARC
  8
0
 62
7
  6
CONTINUOUS
 10
42.5719484256
 20
157.5007326824
 40
6.2
 50
88.058871156
 51
102.7506054215
  0
ARC
  8
0
 62
7
  6
CONTINUOUS
 10
61.3586003372
 20
140.6659281439
 40
6.2
 50
124.7262619366
 51
131.838
  0
ARC
  8
0
 62
7
  6
CONTINUOUS
 10
61.3586003372
 20
140.6659281439
 40
6.2
 50
108.058871156
 51
122.7506054215
  0
ARC
  8
0
 62
7
  6
CONTINUOUS
 10
45.6087265867
 20
153.881641399
 40
6.2
 50
337.2493945785
 51
351.941128844
  0
ARC
  8
0
 62
7
  6
CONTINUOUS
 10
45.6087265867
 20
153.881641399
 40
6.2
 50
328.162
 51
335.2737380634
  0
ARC
  8
0
 62
7
  6
CONTINUOUS
 10
42.7142133829
 20
161.6983225482
 40
2.0
 50
35.5051234822
 51
88.058871156
  0
ARC
  8
0
 62
7
  6
CONTINUOUS
 10
60.0566253802
 20
144.659029847
 40
2.0
 50
55.5051234822
 51
108.058871156
  0
ARC
  8
0
 62
7
  6
CONTINUOUS
 10
49.7672496811
 20
153.2928412011
 40
2.0
 50
351.941128844
 51
44.4948765178
  0
ARC
  8
0
 62
7
  6
CONTINUOUS
 10
38.8005858187
 20
163.5305517378
 40
0.8
 50
212.5174152214
 51
291.838
  0
ARC
  8
0
 62
7
  6
CONTINUOUS
 10
55.7523591477
 20
145.0422226356
 40
0.8
 50
232.5174152214
 51
311.838
  0
ARC
  8
0
 62
7
  6
CONTINUOUS
 10
50.8920488977
 20
149.1205071737
 40
0.8
 50
148.162
 51
227.4825847785
  0
ARC
  8
0
 62
7
  6
CONTINUOUS
 10
30.6761125161
 20
179.745687659
 40
6.2
 50
84.7262619366
 51
91.838
  0
ARC
  8
0
 62
7
  6
CONTINUOUS
 10
30.6761125161
 20
179.745687659
 40
6.2
 50
68.058871156
 51
82.7506054215
  0
ARC
  8
0
 62
7
  6
CONTINUOUS
 10
27.1059059833
 20
199.993335061
 40
6.2
 50
297.2493945785
 51
311.941128844
  0
ARC
  8
0
 62
7
  6
CONTINUOUS
 10
27.1059059833
 20
199.993335061
 40
6.2
 50
288.162
 51
295.2737380634
  0
ARC
  8
0
 62
7
  6
CONTINUOUS
 10
32.2919484256
 20
175.3062149842
 40
6.2
 50
317.2493945785
 51
331.941128844
  0
ARC
  8
0
 62
7
  6
CONTINUOUS
 10
32.2919484256
 20
175.3062149842
 40
6.2
 50
308.162
 51
315.2737380634
  0
ARC
  8
0
 62
7
  6
CONTINUOUS
 10
32.2454581342
 20
183.6414744
 40
2.0
 50
15.5051234822
 51
68.058871156
  0
ARC
  8
0
 62
7
  6
CONTINUOUS
 10
29.9130460196
 20
196.8692408216
 40
2.0
 50
311.941128844
 51
4.4948765178
  0
ARC
  8
0
 62
7
  6
CONTINUOUS
 10
35.9983003628
 20
173.3306251183
 40
2.0
 50
331.941128844
 51
24.4948765178
  0
ARC
  8
0
 62
7
  6
CONTINUOUS
 10
29.1945104817
 20
186.7017461094
 40
0.8
 50
192.5174152214
 51
271.838
  0
ARC
  8
0
 62
7
  6
CONTINUOUS
 10
28.0927675928
 20
192.9500405252
 40
0.8
 50
108.162
 51
187.4825847785
  0
ARC
  8
0
 62
7
  6
CONTINUOUS
 10
35.6282436044
 20
169.025209632
 40
0.8
 50
128.162
 51
207.4825847785
  0
ARC
  8
0
 62
7
  6
CONTINUOUS
 10
84.7701207689
 20
131.2717999261
 40
6.2
 50
144.7262619366
 51
151.838
  0
ARC
  8
0
 62
7
  6
CONTINUOUS
 10
84.7701207689
 20
131.2717999261
 40
6.2
 50
128.058871156
 51
142.7506054215
  0
ARC
  8
0
 62
7
  6
CONTINUOUS
 10
65.4500404856
 20
138.3037340728
 40
6.2
 50
357.2493945785
 51
11.941128844
  0
ARC
  8
0
 62
7
  6
CONTINUOUS
 10
65.4500404856
 20
138.3037340728
 40
6.2
 50
348.162
 51
355.2737380634
  0
ARC
  8
0
 62
7
  6
CONTINUOUS
 10
89.4227348395
 20
130.4514185346
 40
6.2
 50
17.2493945785
 51
31.941128844
  0
ARC
  8
0
 62
7
  6
CONTINUOUS
 10
89.4227348395
 20
130.4514185346
 40
6.2
 50
8.162
 51
15.2737380634
  0
ARC
  8
0
 62
7
  6
CONTINUOUS
 10
82.1809432926
 20
134.5787864691
 40
2.0
 50
75.5051234822
 51
128.058871156
  0
ARC
  8
0
 62
7
  6
CONTINUOUS
 10
69.5591554789
 20
139.1727415365
 40
2.0
 50
11.941128844
 51
64.4948765178
  0
ARC
  8
0
 62
7
  6
CONTINUOUS
 10
92.9868218193
 20
132.6734185346
 40
2.0
 50
31.941128844
 51
84.4948765178
  0
ARC
  8
0
 62
7
  6
CONTINUOUS
 10
78.0051964235
 20
133.4667241512
 40
0.8
 50
252.5174152215
 51
331.838
  0
ARC
  8
0
 62
7
  6
CONTINUOUS
 10
72.0431432846
 20
135.6367340288
 40
0.8
 50
168.162
 51
247.4825847785
  0
ARC
  8
0
 62
7
  6
CONTINUOUS
 10
96.5303926252
 20
130.2002322379
 40
0.8
 50
188.162
 51
267.4825847786
  0
ARC
  8
0
 62
7
  6
CONTINUOUS
 10
32.2919484256
 20
229.4048432798
 40
6.2
 50
44.7262619366
 51
51.838
  0
ARC
  8
0
 62
7
  6
CONTINUOUS
 10
32.2919484256
 20
229.4048432798
 40
6.2
 50
28.058871156
 51
42.7506054215
  0
ARC
  8
0
 62
7
  6
CONTINUOUS
 10
27.1059059833
 20
204.717723203
 40
6.2
 50
64.7262619366
 51
71.838
  0
ARC
  8
0
 62
7
  6
CONTINUOUS
 10
27.1059059833
 20
204.717723203
 40
6.2
 50
48.058871156
 51
62.7506054215
  0
ARC
  8
0
 62
7
  6
CONTINUOUS
 10
30.6761125161
 20
224.9653706049
 40
6.2
 50
277.2493945785
 51
291.941128844
  0
ARC
  8
0
 62
7
  6
CONTINUOUS
 10
30.6761125161
 20
224.9653706049
 40
6.2
 50
268.162
 51
275.2737380634
  0
ARC
  8
0
 62
7
  6
CONTINUOUS
 10
57.6298813589
 20
202.355529132
 40
4.0
 50
75.0
 51
285.0
  0
ARC
  8
0
 62
7
  6
CONTINUOUS
 10
35.9983003628
 20
231.3804331456
 40
2.0
 50
335.5051234822
 51
28.058871156
  0
ARC
  8
0
 62
7
  6
CONTINUOUS
 10
29.9130460196
 20
207.8418174424
 40
2.0
 50
355.5051234822
 51
48.058871156
  0
ARC
  8
0
 62
7
  6
CONTINUOUS
 10
32.2454581342
 20
221.069583864
 40
2.0
 50
291.941128844
 51
344.4948765178
  0
ARC
  8
0
 62
7
  6
CONTINUOUS
 10
35.6282436044
 20
235.6858486319
 40
0.8
 50
152.5174152214
 51
231.838
  0
ARC
  8
0
 62
7
  6
CONTINUOUS
 10
28.0927675928
 20
211.7610177388
 40
0.8
 50
172.5174152214
 51
251.838
  0
ARC
  8
0
 62
7
  6
CONTINUOUS
 10
29.1945104817
 20
218.0093121545
 40
0.8
 50
88.162
 51
167.4825847785
  0
ARC
  8
0
 62
7
  6
CONTINUOUS
 10
45.6087265867
 20
250.8294168649
 40
6.2
 50
24.7262619366
 51
31.838
  0
ARC
  8
0
 62
7
  6
CONTINUOUS
 10
45.6087265867
 20
250.8294168649
 40
6.2
 50
8.058871156
 51
22.7506054215
  0
ARC
  8
0
 62
7
  6
CONTINUOUS
 10
61.3586003372
 20
264.0451301201
 40
6.2
 50
237.2493945785
 51
251.941128844
  0
ARC
  8
0
 62
7
  6
CONTINUOUS
 10
61.3586003372
 20
264.0451301201
 40
6.2
 50
228.162
 51
235.2737380634
  0
ARC
  8
0
 62
7
  6
CONTINUOUS
 10
42.5719484256
 20
247.2103255816
 40
6.2
 50
257.2493945785
 51
271.941128844
  0
ARC
  8
0
 62
7
  6
CONTINUOUS
 10
42.5719484256
 20
247.2103255816
 40
6.2
 50
248.162
 51
255.2737380634
  0
ARC
  8
0
 62
7
  6
CONTINUOUS
 10
49.7672496811
 20
251.4182170628
 40
2.0
 50
315.5051234822
 51
8.058871156
  0
ARC
  8
0
 62
7
  6
CONTINUOUS
 10
60.0566253802
 20
260.052028417
 40
2.0
 50
251.941128844
 51
304.4948765178
  0
ARC
  8
0
 62
7
  6
CONTINUOUS
 10
42.7142133829
 20
243.0127357157
 40
2.0
 50
271.941128844
 51
324.4948765178
  0
ARC
  8
0
 62
7
  6
CONTINUOUS
 10
50.8920488977
 20
255.5905510903
 40
0.8
 50
132.5174152214
 51
211.838
  0
ARC
  8
0
 62
7
  6
CONTINUOUS
 10
55.7523591477
 20
259.6688356284
 40
0.8
 50
48.162
 51
127.4825847785
  0
ARC
  8
0
 62
7
  6
CONTINUOUS
 10
38.8005858187
 20
241.1805065261
 40
0.8
 50
68.162
 51
147.4825847785
  0
ARC
  8
0
 62
7
  6
CONTINUOUS
 10
89.4227348395
 20
274.2596397294
 40
6.2
 50
344.7262619366
 51
351.838
  0
ARC
  8
0
 62
7
  6
CONTINUOUS
 10
89.4227348395
 20
274.2596397294
 40
6.2
 50
328.058871156
 51
342.7506054215
  0
ARC
  8
0
 62
7
  6
CONTINUOUS
 10
65.4500404856
 20
266.4073241911
 40
6.2
 50
4.7262619366
 51
11.838
  0
ARC
  8
0
 62
7
  6
CONTINUOUS
 10
65.4500404856
 20
266.4073241911
 40
6.2
 50
348.058871156
 51
2.7506054215
  0
ARC
  8
0
 62
7
  6
CONTINUOUS
 10
84.7701207689
 20
273.4392583379
 40
6.2
 50
217.2493945785
 51
231.941128844
  0
ARC
  8
0
 62
7
  6
CONTINUOUS
 10
84.7701207689
 20
273.4392583379
 40
6.2
 50
208.162
 51
215.2737380634
  0
ARC
  8
0
 62
7
  6
CONTINUOUS
 10
92.9868218193
 20
272.0376397294
 40
2.0
 50
275.5051234822
 51
328.058871156
  0
ARC
  8
0
 62
7
  6
CONTINUOUS
 10
69.5591554789
 20
265.5383167274
 40
2.0
 50
295.5051234822
 51
348.058871156
  0
ARC
  8
0
 62
7
  6
CONTINUOUS
 10
82.1809432926
 20
270.1322717948
 40
2.0
 50
231.941128844
 51
284.4948765178
  0
ARC
  8
0
 62
7
  6
CONTINUOUS
 10
96.5303926252
 20
274.5108260261
 40
0.8
 50
92.5174152214
 51
171.838
  0
ARC
  8
0
 62
7
  6
CONTINUOUS
 10
72.0431432846
 20
269.0743242352
 40
0.8
 50
112.5174152214
 51
191.838
  0
ARC
  8
0
 62
7
  6
CONTINUOUS
 10
78.0051964235
 20
271.2443341128
 40
0.8
 50
28.162
 51
107.4825847785
  0
ARC
  8
0
 62
7
  6
CONTINUOUS
 10
109.9827348395
 20
130.4514185346
 40
6.2
 50
164.7262619366
 51
171.838
  0
ARC
  8
0
 62
7
  6
CONTINUOUS
 10
109.9827348395
 20
130.4514185346
 40
6.2
 50
148.058871156
 51
162.7506054215
  0
ARC
  8
0
 62
7
  6
CONTINUOUS
 10
133.9554291934
 20
138.3037340728
 40
6.2
 50
184.7262619366
 51
191.838
  0
ARC
  8
0
 62
7
  6
CONTINUOUS
 10
133.9554291934
 20
138.3037340728
 40
6.2
 50
168.058871156
 51
182.7506054215
  0
ARC
  8
0
 62
7
  6
CONTINUOUS
 10
114.63534891
 20
131.2717999261
 40
6.2
 50
37.2493945785
 51
51.941128844
  0
ARC
  8
0
 62
7
  6
CONTINUOUS
 10
114.63534891
 20
131.2717999261
 40
6.2
 50
28.162
 51
35.2737380634
  0
ARC
  8
0
 62
7
  6
CONTINUOUS
 10
99.7027348395
 20
160.2826756514
 40
4.0
 50
165.0
 51
15.0
  0
ARC
  8
0
 62
7
  6
CONTINUOUS
 10
106.4186478596
 20
132.6734185346
 40
2.0
 50
95.5051234822
 51
148.058871156
  0
ARC
  8
0
 62
7
  6
CONTINUOUS
 10
129.8463142001
 20
139.1727415365
 40
2.0
 50
115.5051234822
 51
168.058871156
  0
ARC
  8
0
 62
7
  6
CONTINUOUS
 10
117.2245263864
 20
134.5787864691
 40
2.0
 50
51.941128844
 51
104.4948765178
  0
ARC
  8
0
 62
7
  6
CONTINUOUS
 10
102.8750770538
 20
130.2002322379
 40
0.8
 50
272.5174152215
 51
351.838
  0
ARC
  8
0
 62
7
  6
CONTINUOUS
 10
127.3623263943
 20
135.6367340288
 40
0.8
 50
292.5174152215
 51
11.838
  0
ARC
  8
0
 62
7
  6
CONTINUOUS
 10
121.4002732555
 20
133.4667241512
 40
0.8
 50
208.162
 51
287.4825847786
  0
ARC
  8
0
 62
7
  6
CONTINUOUS
 10
156.8335212533
 20
157.5007326824
 40
6.2
 50
68.162
 51
75.2737380634
  0
ARC
  8
0
 62
7
  6
CONTINUOUS
 10
156.8335212533
 20
157.5007326824
 40
6.2
 50
77.2493945785
 51
91.941128844
  0
ARC
  8
0
 62
7
  6
CONTINUOUS
 10
153.7967430923
 20
153.881641399
 40
6.2
 50
204.7262619366
 51
211.838
  0
ARC
  8
0
 62
7
  6
CONTINUOUS
 10
153.7967430923
 20
153.881641399
 40
6.2
 50
188.058871156
 51
202.7506054215
  0
ARC
  8
0
 62
7
  6
CONTINUOUS
 10
138.0468693417
 20
140.6659281439
 40
6.2
 50
57.2493945785
 51
71.941128844
  0
ARC
  8
0
 62
7
  6
CONTINUOUS
 10
138.0468693417
 20
140.6659281439
 40
6.2
 50
48.162
 51
55.2737380634
  0
ARC
  8
0
 62
7
  6
CONTINUOUS
 10
156.6912562961
 20
161.6983225482
 40
2.0
 50
91.941128844
 51
144.4948765178
  0
ARC
  8
0
 62
7
  6
CONTINUOUS
 10
149.6382199978
 20
153.2928412011
 40
2.0
 50
135.5051234822
 51
188.058871156
  0
ARC
  8
0
 62
7
  6
CONTINUOUS
 10
139.3488442987
 20
144.659029847
 40
2.0
 50
71.941128844
 51
124.4948765178
  0
ARC
  8
0
 62
7
  6
CONTINUOUS
 10
160.6048838602
 20
163.5305517378
 40
0.8
 50
248.162
 51
327.4825847786
  0
ARC
  8
0
 62
7
  6
CONTINUOUS
 10
148.5134207812
 20
149.1205071737
 40
0.8
 50
312.5174152215
 51
31.838
  0
ARC
  8
0
 62
7
  6
CONTINUOUS
 10
143.6531105313
 20
145.0422226356
 40
0.8
 50
228.162
 51
307.4825847786
  0
ARC
  8
0
 62
7
  6
CONTINUOUS
 10
168.7293571628
 20
179.745687659
 40
6.2
 50
88.162
 51
95.2737380634
  0
ARC
  8
0
 62
7
  6
CONTINUOUS
 10
168.7293571628
 20
179.745687659
 40
6.2
 50
97.2493945785
 51
111.941128844
  0
ARC
  8
0
 62
7
  6
CONTINUOUS
 10
172.2995636956
 20
199.993335061
 40
6.2
 50
228.058871156
 51
242.7506054215
  0
ARC
  8
0
 62
7
  6
CONTINUOUS
 10
172.2995636956
 20
199.993335061
 40
6.2
 50
244.7262619366
 51
251.838
  0
ARC
  8
0
 62
7
  6
CONTINUOUS
 10
167.1135212533
 20
175.3062149842
 40
6.2
 50
208.058871156
 51
222.7506054215
  0
ARC
  8
0
 62
7
  6
CONTINUOUS
 10
167.1135212533
 20
175.3062149842
 40
6.2
 50
224.7262619366
 51
231.838
  0
ARC
  8
0
 62
7
  6
CONTINUOUS
 10
167.1600115447
 20
183.6414744
 40
2.0
 50
111.941128844
 51
164.4948765178
  0
ARC
  8
0
 62
7
  6
CONTINUOUS
 10
169.4924236594
 20
196.8692408216
 40
2.0
 50
175.5051234822
 51
228.058871156
  0
ARC
  8
0
 62
7
  6
CONTINUOUS
 10
163.4071693162
 20
173.3306251183
 40
2.0
 50
155.5051234822
 51
208.058871156
  0
ARC
  8
0
 62
7
  6
CONTINUOUS
 10
170.2109591972
 20
186.7017461094
 40
0.8
 50
268.162
 51
347.4825847786
  0
ARC
  8
0
 62
7
  6
CONTINUOUS
 10
171.3127020861
 20
192.9500405252
 40
0.8
 50
352.5174152215
 51
71.838
  0
ARC
  8
0
 62
7
  6
CONTINUOUS
 10
163.7772260745
 20
169.025209632
 40
0.8
 50
332.5174152215
 51
51.838
  0
ARC
  8
0
 62
7
  6
CONTINUOUS
 10
99.7027348395
 20
202.355529132
 40
68.005
 50
95.5051234822
 51
104.4948765178
  0
ARC
  8
0
 62
7
  6
CONTINUOUS
 10
99.7027348395
 20
202.355529132
 40
68.005
 50
75.5051234822
 51
84.4948765178
  0
ARC
  8
0
 62
7
  6
CONTINUOUS
 10
99.7027348395
 20
202.355529132
 40
68.005
 50
115.5051234822
 51
124.4948765178
  0
ARC
  8
0
 62
7
  6
CONTINUOUS
 10
99.7027348395
 20
202.355529132
 40
68.005
 50
135.5051234822
 51
144.4948765178
  0
ARC
  8
0
 62
7
  6
CONTINUOUS
 10
99.7027348395
 20
202.355529132
 40
68.005
 50
155.5051234822
 51
164.4948765178
  0
ARC
  8
0
 62
7
  6
CONTINUOUS
 10
99.7027348395
 20
202.355529132
 40
68.005
 50
175.5051234822
 51
184.4948765178
  0
ARC
  8
0
 62
7
  6
CONTINUOUS
 10
99.7027348395
 20
202.355529132
 40
68.005
 50
195.5051234822
 51
204.4948765178
  0
ARC
  8
0
 62
7
  6
CONTINUOUS
 10
99.7027348395
 20
202.355529132
 40
68.005
 50
55.5051234822
 51
64.4948765178
  0
ARC
  8
0
 62
7
  6
CONTINUOUS
 10
99.7027348395
 20
202.355529132
 40
68.005
 50
215.5051234822
 51
224.4948765178
  0
ARC
  8
0
 62
7
  6
CONTINUOUS
 10
99.7027348395
 20
202.355529132
 40
68.005
 50
235.5051234822
 51
244.4948765178
  0
ARC
  8
0
 62
7
  6
CONTINUOUS
 10
99.7027348395
 20
202.355529132
 40
68.005
 50
35.5051234822
 51
44.4948765178
  0
ARC
  8
0
 62
7
  6
CONTINUOUS
 10
99.7027348395
 20
202.355529132
 40
68.005
 50
255.5051234822
 51
264.4948765178
  0
ARC
  8
0
 62
7
  6
CONTINUOUS
 10
99.7027348395
 20
202.355529132
 40
68.005
 50
15.5051234822
 51
24.4948765178
  0
ARC
  8
0
 62
7
  6
CONTINUOUS
 10
99.7027348395
 20
202.355529132
 40
68.005
 50
275.5051234822
 51
284.4948765178
  0
ARC
  8
0
 62
7
  6
CONTINUOUS
 10
99.7027348395
 20
202.355529132
 40
68.005
 50
295.5051234822
 51
304.4948765178
  0
ARC
  8
0
 62
7
  6
CONTINUOUS
 10
99.7027348395
 20
202.355529132
 40
68.005
 50
355.5051234822
 51
4.4948765178
  0
ARC
  8
0
 62
7
  6
CONTINUOUS
 10
99.7027348395
 20
202.355529132
 40
68.005
 50
315.5051234822
 51
324.4948765178
  0
ARC
  8
0
 62
7
  6
CONTINUOUS
 10
99.7027348395
 20
202.355529132
 40
68.005
 50
335.5051234822
 51
344.4948765178
  0
CIRCLE
  8
1_AXIS
 62
7
  6
CONTINUOUS
 10
99.7027348395
 20
202.355529132
 40
60.0
  0
ARC
  8
0
 62
7
  6
CONTINUOUS
 10
109.9827348395
 20
274.2596397294
 40
6.2
 50
197.2493945785
 51
211.941128844
  0
ARC
  8
0
 62
7
  6
CONTINUOUS
 10
109.9827348395
 20
274.2596397294
 40
6.2
 50
188.162
 51
195.2737380634
  0
ARC
  8
0
 62
7
  6
CONTINUOUS
 10
133.9554291934
 20
266.4073241911
 40
6.2
 50
168.162
 51
175.2737380634
  0
ARC
  8
0
 62
7
  6
CONTINUOUS
 10
133.9554291934
 20
266.4073241911
 40
6.2
 50
177.2493945785
 51
191.941128844
  0
ARC
  8
0
 62
7
  6
CONTINUOUS
 10
114.63534891
 20
273.4392583379
 40
6.2
 50
308.058871156
 51
322.7506054215
  0
ARC
  8
0
 62
7
  6
CONTINUOUS
 10
114.63534891
 20
273.4392583379
 40
6.2
 50
324.7262619366
 51
331.838
  0
ARC
  8
0
 62
7
  6
CONTINUOUS
 10
99.7027348395
 20
244.4283826126
 40
4.0
 50
345.0
 51
195.0
  0
ARC
  8
0
 62
7
  6
CONTINUOUS
 10
106.4186478596
 20
272.0376397294
 40
2.0
 50
211.941128844
 51
264.4948765178
  0
ARC
  8
0
 62
7
  6
CONTINUOUS
 10
129.8463142001
 20
265.5383167274
 40
2.0
 50
191.941128844
 51
244.4948765178
  0
ARC
  8
0
 62
7
  6
CONTINUOUS
 10
117.2245263864
 20
270.1322717948
 40
2.0
 50
255.5051234822
 51
308.058871156
  0
CIRCLE
  8
0
 62
7
  6
CONTINUOUS
 10
99.7027348395
 20
267.355529132
 40
0.8660254038
  0
ARC
  8
0
 62
7
  6
CONTINUOUS
 10
102.8750770538
 20
274.5108260261
 40
0.8
 50
8.162
 51
87.4825847785
  0
ARC
  8
0
 62
7
  6
CONTINUOUS
 10
127.3623263943
 20
269.0743242352
 40
0.8
 50
348.162
 51
67.4825847786
  0
ARC
  8
0
 62
7
  6
CONTINUOUS
 10
121.4002732555
 20
271.2443341128
 40
0.8
 50
72.5174152214
 51
151.838
  0
ARC
  8
0
 62
7
  6
CONTINUOUS
 10
167.1135212533
 20
229.4048432798
 40
6.2
 50
128.162
 51
135.2737380634
  0
ARC
  8
0
 62
7
  6
CONTINUOUS
 10
167.1135212533
 20
229.4048432798
 40
6.2
 50
137.2493945785
 51
151.941128844
  0
ARC
  8
0
 62
7
  6
CONTINUOUS
 10
172.2995636956
 20
204.717723203
 40
6.2
 50
108.162
 51
115.2737380634
  0
ARC
  8
0
 62
7
  6
CONTINUOUS
 10
172.2995636956
 20
204.717723203
 40
6.2
 50
117.2493945785
 51
131.941128844
  0
ARC
  8
0
 62
7
  6
CONTINUOUS
 10
168.7293571628
 20
224.9653706049
 40
6.2
 50
248.058871156
 51
262.7506054215
  0
ARC
  8
0
 62
7
  6
CONTINUOUS
 10
168.7293571628
 20
224.9653706049
 40
6.2
 50
264.7262619366
 51
271.838
  0
ARC
  8
0
 62
7
  6
CONTINUOUS
 10
141.7755883201
 20
202.355529132
 40
4.0
 50
255.0
 51
105.0
  0
ARC
  8
0
 62
7
  6
CONTINUOUS
 10
163.4071693162
 20
231.3804331456
 40
2.0
 50
151.941128844
 51
204.4948765178
  0
ARC
  8
0
 62
7
  6
CONTINUOUS
 10
169.4924236594
 20
207.8418174424
 40
2.0
 50
131.941128844
 51
184.4948765178
  0
ARC
  8
0
 62
7
  6
CONTINUOUS
 10
167.1600115447
 20
221.069583864
 40
2.0
 50
195.5051234822
 51
248.058871156
  0
ARC
  8
0
 62
7
  6
CONTINUOUS
 10
163.7772260745
 20
235.6858486319
 40
0.8
 50
308.162
 51
27.4825847786
  0
ARC
  8
0
 62
7
  6
CONTINUOUS
 10
171.3127020861
 20
211.7610177388
 40
0.8
 50
288.162
 51
7.4825847786
  0
ARC
  8
0
 62
7
  6
CONTINUOUS
 10
170.2109591972
 20
218.0093121545
 40
0.8
 50
12.5174152215
 51
91.838
  0
ARC
  8
0
 62
7
  6
CONTINUOUS
 10
153.7967430923
 20
250.8294168649
 40
6.2
 50
148.162
 51
155.2737380634
  0
ARC
  8
0
 62
7
  6
CONTINUOUS
 10
153.7967430923
 20
250.8294168649
 40
6.2
 50
157.2493945785
 51
171.941128844
  0
ARC
  8
0
 62
7
  6
CONTINUOUS
 10
138.0468693417
 20
264.0451301201
 40
6.2
 50
288.058871156
 51
302.7506054215
  0
ARC
  8
0
 62
7
  6
CONTINUOUS
 10
138.0468693417
 20
264.0451301201
 40
6.2
 50
304.7262619366
 51
311.838
  0
ARC
  8
0
 62
7
  6
CONTINUOUS
 10
156.8335212533
 20
247.2103255816
 40
6.2
 50
268.058871156
 51
282.7506054215
  0
ARC
  8
0
 62
7
  6
CONTINUOUS
 10
156.8335212533
 20
247.2103255816
 40
6.2
 50
284.7262619366
 51
291.838
  0
ARC
  8
0
 62
7
  6
CONTINUOUS
 10
149.6382199978
 20
251.4182170628
 40
2.0
 50
171.941128844
 51
224.4948765178
  0
ARC
  8
0
 62
7
  6
CONTINUOUS
 10
139.3488442987
 20
260.052028417
 40
2.0
 50
235.5051234822
 51
288.058871156
  0
ARC
  8
0
 62
7
  6
CONTINUOUS
 10
156.6912562961
 20
243.0127357157
 40
2.0
 50
215.5051234822
 51
268.058871156
  0
ARC
  8
0
 62
7
  6
CONTINUOUS
 10
148.5134207812
 20
255.5905510903
 40
0.8
 50
328.162
 51
47.4825847786
  0
ARC
  8
0
 62
7
  6
CONTINUOUS
 10
143.6531105313
 20
259.6688356284
 40
0.8
 50
52.5174152215
 51
131.838
  0
ARC
  8
0
 62
7
  6
CONTINUOUS
 10
160.6048838602
 20
241.1805065261
 40
0.8
 50
32.5174152215
 51
111.838
  0
ARC
  8
1_AXIS
 62
7
  6
CONTINUOUS
 10
157.7027348395
 20
101.2598097503
 40
2.0
 50
0.0
 51
90.0
  0
ARC
  8
1_AXIS
 62
7
  6
CONTINUOUS
 10
157.7027348395
 20
80.2598097503
 40
2.0
 50
270.0
 51
360.0
  0
ARC
  8
1_AXIS
 62
7
  6
CONTINUOUS
 10
41.7027348395
 20
101.2598097503
 40
2.0
 50
90.0
 51
180.0
  0
ARC
  8
1_AXIS
 62
7
  6
CONTINUOUS
 10
41.7027348395
 20
80.2598097503
 40
2.0
 50
180.0
 51
270.0
  0
ARC
  8
1_AXIS
 62
7
  6
CONTINUOUS
 10
160.7027348395
 20
95.7598097503
 40
1.0
 50
180.0
 51
270.0
  0
ARC
  8
1_AXIS
 62
7
  6
CONTINUOUS
 10
160.7027348395
 20
85.7598097503
 40
1.0
 50
90.0
 51
180.0
  0
ARC
  8
1_AXIS
 62
7
  6
CONTINUOUS
 10
38.7027348395
 20
95.7598097503
 40
1.0
 50
270.0
 51
360.0
  0
ARC
  8
1_AXIS
 62
7
  6
CONTINUOUS
 10
38.7027348395
 20
85.7598097503
 40
1.0
 50
0.0
 51
90.0
  0
ENDSEC
  0
EOF
