  0
SECTION
  2
HEADER
  9
$EXTMAX
 10
210.0
 20
297.0
 30
0.0
  9
$EXTMIN
 10
0.0
 20
0.0
 30
0.0
  9
$LIMMIN
 10
0.0
 20
0.0
  9
$LIMMAX
 10
210.0
 20
297.0
  9
$VIEWCTR
 10
105.0
 20
148.5
  9
$VIEWSIZE
 40
297.0
  9
$CLAYER
  8
0
  9
$LTSCALE
 40
19.36
  9
$CELTYPE
  6
BYLAYER
  9
$DIMSCALE
 40
1.0
  9
$DIMASZ
 40
3.5
  9
$DIMEXO
 40
1.0
  9
$DIMDLI
 40
13.376
  9
$DIMEXE
 40
2.0
  9
$DIMCEN
 40
3.168
  9
$DIMLFAC
 40
1.0
  9
$DIMBLK
  1
_FILLED
  9
$DIMALT
 70
0
  9
$DIMALTF
 40
0.0393700787
  9
$DIMTXT
 40
3.5
  9
$AUNITS
 70
0
  9
$PDMODE
 70
3
  9
$PDSIZE
 40
0.3125
  9
$TILEMODE
 70
1
  0
ENDSEC
  0
SECTION
  2
TABLES
  0
TABLE
  2
LTYPE
 70
6
  0
LTYPE
  2
BYBLOCK
 70
0
  3

 72
65
 73
0
 40
0.0
  0
LTYPE
  2
BYLAYER
 70
0
  3

 72
65
 73
0
 40
0.0
  0
LTYPE
  2
CONTINUOUS
 70
64
  3
Solid line
 72
65
 73
0
 40
0.0
  0
LTYPE
  2
CENTER
 70
64
  3
____ _ ____ _ ____ _ ____ _ ____ _ ____ _ ____
 72
65
 73
4
 40
0.6
 49
0.375
 49
-0.075
 49
0.075
 49
-0.075
  0
LTYPE
  2
HIDDEN
 70
64
  3
- - - - - - - - - - - - - - - - - - - -
 72
65
 73
2
 40
0.2
 49
0.1
 49
-0.1
  0
LTYPE
  2
PHANTOM
 70
64
  3
_____ _ _ _____ _ _ _____ _ _ _____
 72
65
 73
6
 40
0.8
 49
0.45
 49
-0.05
 49
0.1
 49
-0.05
 49
0.1
 49
-0.05
  0
LTYPE
  2
DOT
 70
64
  3
. . . . . . . . . . . . . . . . . . . .
 72
65
 73
2
 40
0.2
 49
0.1
 49
-0.1
  0
LTYPE
  2
DASHED
 70
64
  3
- - - - - - - - - - - - - - - - - - - -
 72
65
 73
2
 40
0.2
 49
0.1
 49
-0.1
  0
ENDTAB
  0
TABLE
  2
LAYER
 70
36
  0
LAYER
  2
0
 70
0
 62
7
  6
CONTINUOUS
  0
LAYER
  2
DEFAULT_1
 70
0
 62
7
  6
CENTER
  0
LAYER
  2
DEFAULT_2
 70
0
 62
8
  6
HIDDEN
  0
LAYER
  2
DEFAULT_3
 70
0
 62
7
  6
PHANTOM
  0
LAYER
  2
1_AXIS
 70
0
 62
7
  6
CONTINUOUS
  0
LAYER
  2
1_CSYS
 70
0
 62
7
  6
CONTINUOUS
  0
LAYER
  2
1_DATUM_PLANE
 70
0
 62
7
  6
CONTINUOUS
  0
LAYER
  2
2_FEATURE
 70
0
 62
7
  6
CONTINUOUS
  0
LAYER
  2
6_DIM
 70
0
 62
7
  6
CONTINUOUS
  0
LAYER
  2
AXES
 70
0
 62
7
  6
CONTINUOUS
  0
LAYER
  2
CSYS
 70
0
 62
7
  6
CONTINUOUS
  0
LAYER
  2
PITCH
 70
0
 62
7
  6
CONTINUOUS
  0
LAYER
  2
PLANES
 70
0
 62
7
  6
CONTINUOUS
  0
LAYER
  2
QUILTS
 70
0
 62
7
  6
CONTINUOUS
  0
LAYER
  2
SQ
 70
0
 62
7
  6
CONTINUOUS
  0
ENDTAB
  0
TABLE
  2
STYLE
 70
1
  0
STYLE
  2
STANDARD
 70
0
 40
0.0
 41
0.8
 50
0.0
 71
0
 42
0.2
  3
txt
  4

  0
STYLE
  2
TEXTSTYLE_1
 70
0
 40
0.0
 41
0.8
 50
0.0
 71
0
 42
0.2
  3
gdt
  4

  0
STYLE
  2
TEXTSTYLE_2
 70
0
 40
0.0
 41
0.6
 50
0.0
 71
0
 42
0.2
  3
txt
  4

  0
STYLE
  2
TEXTSTYLE_3
 70
0
 40
0.0
 41
1.0
 50
0.0
 71
0
 42
0.2
  3
ftb_____.ttf
  4

  0
STYLE
  2
TEXTSTYLE_4
 70
0
 40
0.0
 41
1.0
 50
0.0
 71
0
 42
0.2
  3
fti_____.ttf
  4

  0
STYLE
  2
TEXTSTYLE_5
 70
0
 40
0.0
 41
1.0
 50
0.0
 71
0
 42
0.2
  3
frutiger light.ttf
  4

  0
STYLE
  2
TEXTSTYLE_6
 70
0
 40
0.0
 41
0.7
 50
0.0
 71
0
 42
0.2
  3
txt
  4

  0
STYLE
  2
TEXTSTYLE_7
 70
0
 40
0.0
 41
0.6
 50
0.0
 71
0
 42
0.2
  3
txt
  4

  0
ENDTAB
  0
ENDSEC
  0
SECTION
  2
BLOCKS
  0
BLOCK
  8
0
 62
2
  6
CONTINUOUS
  2
UNI_LOGO2_BL1
 70
64
 10
173.5956734183
 20
35.5937998301
  0
TEXT
  8
0
 62
7
  6
CONTINUOUS
 10
164.6539584268
 20
30.6865562072
  7
TEXTSTYLE_4
 40
1.0655737705
  1
The brand for plastic modular belts and chains
 41
1.0
 72
0
  0
LINE
  8
0
 62
7
  6
CONTINUOUS
 10
149.5737418074
 20
36.1675703219
 11
149.5737418074
 21
34.0364227809
  0
LINE
  8
0
 62
7
  6
CONTINUOUS
 10
149.8628043005
 20
31.0454914852
 11
149.8628043005
 21
31.1422825445
  0
LINE
  8
0
 62
7
  6
CONTINUOUS
 10
149.5737418074
 20
31.1100188581
 11
149.6315543091
 21
30.9164367395
  0
LINE
  8
0
 62
7
  6
CONTINUOUS
 10
150.9671844304
 20
33.9544555678
 11
150.9671844304
 21
36.1675703219
  0
LINE
  8
0
 62
7
  6
CONTINUOUS
 10
151.8862417523
 20
32.1101932727
 11
151.8862417523
 21
30.5937998301
  0
LINE
  8
0
 62
7
  6
CONTINUOUS
 10
152.1753043074
 20
30.5937998301
 11
152.1753043074
 21
31.3358647082
  0
LINE
  8
0
 62
7
  6
CONTINUOUS
 10
152.1753043074
 20
31.4649194539
 11
152.1753043074
 21
32.1101932727
  0
LINE
  8
0
 62
7
  6
CONTINUOUS
 10
149.6315543091
 20
31.3036010218
 11
149.5737418074
 21
31.1100188581
  0
LINE
  8
0
 62
7
  6
CONTINUOUS
 10
149.9784292936
 20
30.8841730531
 11
149.8628043005
 21
31.0454914852
  0
LINE
  8
0
 62
7
  6
CONTINUOUS
 10
151.0768668626
 20
31.400392081
 11
151.1346793074
 21
31.3036010218
  0
LINE
  8
0
 62
7
  6
CONTINUOUS
 10
151.4237418626
 20
31.3036010218
 11
151.3659292523
 21
31.4326557675
  0
LINE
  8
0
 62
7
  6
CONTINUOUS
 10
152.852430332
 20
36.1675703219
 11
152.852430332
 21
34.3642916334
  0
LINE
  8
0
 62
7
  6
CONTINUOUS
 10
152.852430332
 20
33.0528162235
 11
152.852430332
 21
32.3970785186
  0
LINE
  8
0
 62
7
  6
CONTINUOUS
 10
153.2159293074
 20
31.2390736489
 11
153.2159293074
 21
30.5937998301
  0
LINE
  8
0
 62
7
  6
CONTINUOUS
 10
153.5049916972
 20
30.5937998301
 11
153.5049916972
 21
31.2390736489
  0
LINE
  8
0
 62
7
  6
CONTINUOUS
 10
149.8628043005
 20
31.1422825445
 11
149.9206168074
 21
31.2713373354
  0
LINE
  8
0
 62
7
  6
CONTINUOUS
 10
149.6315543091
 20
30.9164367395
 11
149.7471793074
 21
30.7873819712
  0
LINE
  8
0
 62
7
  6
CONTINUOUS
 10
153.1581166972
 20
31.3681283946
 11
153.2159293074
 21
31.2390736489
  0
LINE
  8
0
 62
7
  6
CONTINUOUS
 10
153.9674919177
 20
30.8841730531
 11
154.0253041972
 21
30.7551182848
  0
LINE
  8
0
 62
7
  6
CONTINUOUS
 10
153.5049916972
 20
31.2390736489
 11
153.4471794177
 21
31.400392081
  0
LINE
  8
0
 62
7
  6
CONTINUOUS
 10
153.9674919177
 20
31.4326557675
 11
153.9674919177
 21
31.3681283946
  0
LINE
  8
0
 62
7
  6
CONTINUOUS
 10
153.9674919177
 20
30.9809641124
 11
153.9674919177
 21
30.8841730531
  0
LINE
  8
0
 62
7
  6
CONTINUOUS
 10
154.245872955
 20
32.3970785186
 11
154.245872955
 21
36.1675703219
  0
LINE
  8
0
 62
7
  6
CONTINUOUS
 10
154.2565543074
 20
30.8519093441
 11
154.2565543074
 21
30.9164367395
  0
LINE
  8
0
 62
7
  6
CONTINUOUS
 10
154.5737418074
 20
36.1675703219
 11
154.5737418074
 21
32.3970785186
  0
LINE
  8
0
 62
7
  6
CONTINUOUS
 10
151.3659292523
 20
30.7873819712
 11
151.4237418626
 21
30.9164367395
  0
LINE
  8
0
 62
7
  6
CONTINUOUS
 10
155.759679528
 20
30.6905909007
 11
155.7018665869
 21
30.8519093441
  0
LINE
  8
0
 62
7
  6
CONTINUOUS
 10
155.412804528
 20
31.3681283946
 11
155.412804528
 21
31.2713373354
  0
LINE
  8
0
 62
7
  6
CONTINUOUS
 10
155.412804528
 20
31.1422825445
 11
155.412804528
 21
30.9487004259
  0
LINE
  8
0
 62
7
  6
CONTINUOUS
 10
155.7018665869
 20
30.8519093441
 11
155.7018665869
 21
31.3681283946
  0
LINE
  8
0
 62
7
  6
CONTINUOUS
 10
155.9671844304
 20
32.3970785186
 11
155.9671844304
 21
34.2003572071
  0
LINE
  8
0
 62
7
  6
CONTINUOUS
 10
155.9671844304
 20
35.511832617
 11
155.9671844304
 21
36.1675703219
  0
LINE
  8
0
 62
7
  6
CONTINUOUS
 10
156.279992028
 20
32.1101932727
 11
156.279992028
 21
31.9488748406
  0
LINE
  8
0
 62
7
  6
CONTINUOUS
 10
156.279992028
 20
31.626237886
 11
156.279992028
 21
30.5937998301
  0
LINE
  8
0
 62
7
  6
CONTINUOUS
 10
156.5690540869
 20
30.5937998301
 11
156.5690540869
 21
31.626237886
  0
LINE
  8
0
 62
7
  6
CONTINUOUS
 10
156.5690540869
 20
31.9488748406
 11
156.5690540869
 21
32.1101932727
  0
LINE
  8
0
 62
7
  6
CONTINUOUS
 10
151.1346793074
 20
30.9164367395
 11
151.0768668626
 21
30.8196456577
  0
LINE
  8
0
 62
7
  6
CONTINUOUS
 10
153.4471794177
 20
31.400392081
 11
153.3893668074
 21
31.4649194539
  0
LINE
  8
0
 62
7
  6
CONTINUOUS
 10
154.3143669177
 20
30.7873819712
 11
154.2565543074
 21
30.8519093441
  0
LINE
  8
0
 62
7
  6
CONTINUOUS
 10
155.4706168074
 20
30.6583272086
 11
155.5284290869
 21
30.5937998301
  0
LINE
  8
0
 62
7
  6
CONTINUOUS
 10
155.412804528
 20
30.7551182848
 11
155.4706168074
 21
30.6583272086
  0
LINE
  8
0
 62
7
  6
CONTINUOUS
 10
155.8174918074
 20
30.5937998301
 11
155.759679528
 21
30.6905909007
  0
LINE
  8
0
 62
7
  6
CONTINUOUS
 10
155.7018665869
 20
31.3681283946
 11
155.6440543074
 21
31.4649194539
  0
LINE
  8
0
 62
7
  6
CONTINUOUS
 10
157.0315543074
 20
31.626237886
 11
157.0315543074
 21
30.5937998301
  0
LINE
  8
0
 62
7
  6
CONTINUOUS
 10
157.320617028
 20
30.5937998301
 11
157.320617028
 21
31.3358647082
  0
LINE
  8
0
 62
7
  6
CONTINUOUS
 10
157.320617028
 20
31.4649194539
 11
157.320617028
 21
31.626237886
  0
LINE
  8
0
 62
7
  6
CONTINUOUS
 10
157.852430332
 20
34.6101932727
 11
157.852430332
 21
32.3970785186
  0
LINE
  8
0
 62
7
  6
CONTINUOUS
 10
149.7471793074
 20
31.4326557675
 11
149.6315543091
 21
31.3036010218
  0
LINE
  8
0
 62
7
  6
CONTINUOUS
 10
149.9206168074
 20
31.2713373354
 11
149.9784292936
 21
31.3358647082
  0
LINE
  8
0
 62
7
  6
CONTINUOUS
 10
149.7471793074
 20
30.7873819712
 11
149.8628043005
 21
30.7228545871
  0
LINE
  8
0
 62
7
  6
CONTINUOUS
 10
150.1518667936
 20
30.7873819712
 11
149.9784292936
 21
30.8841730531
  0
LINE
  8
0
 62
7
  6
CONTINUOUS
 10
155.3549915869
 20
31.4326557675
 11
155.412804528
 21
31.3681283946
  0
LINE
  8
0
 62
7
  6
CONTINUOUS
 10
158.3034290869
 20
31.3681283946
 11
158.361242028
 21
31.2068099625
  0
LINE
  8
0
 62
7
  6
CONTINUOUS
 10
158.6503040869
 20
31.2068099625
 11
158.5924918074
 21
31.3681283946
  0
LINE
  8
0
 62
7
  6
CONTINUOUS
 10
158.361242028
 20
31.2068099625
 11
158.361242028
 21
30.5937998301
  0
LINE
  8
0
 62
7
  6
CONTINUOUS
 10
158.6503040869
 20
30.5937998301
 11
158.6503040869
 21
31.2068099625
  0
LINE
  8
0
 62
7
  6
CONTINUOUS
 10
159.1128043074
 20
31.4326557675
 11
159.1128043074
 21
31.3681283946
  0
LINE
  8
0
 62
7
  6
CONTINUOUS
 10
159.245872955
 20
32.3970785186
 11
159.245872955
 21
34.5282260596
  0
LINE
  8
0
 62
7
  6
CONTINUOUS
 10
159.5737418074
 20
36.1675703219
 11
159.5737418074
 21
32.3970785186
  0
LINE
  8
0
 62
7
  6
CONTINUOUS
 10
154.2565543074
 20
30.9164367395
 11
154.3143669177
 21
31.0132277988
  0
LINE
  8
0
 62
7
  6
CONTINUOUS
 10
149.8628043005
 20
30.7228545871
 11
150.0362418212
 21
30.6583272086
  0
LINE
  8
0
 62
7
  6
CONTINUOUS
 10
151.3659292523
 20
31.4326557675
 11
151.1924917523
 21
31.5294468267
  0
LINE
  8
0
 62
7
  6
CONTINUOUS
 10
154.0253041972
 20
30.7551182848
 11
154.1987416972
 21
30.6583272086
  0
LINE
  8
0
 62
7
  6
CONTINUOUS
 10
153.0424918074
 20
31.4326557675
 11
153.1581166972
 21
31.3681283946
  0
LINE
  8
0
 62
7
  6
CONTINUOUS
 10
153.3893668074
 20
31.4649194539
 11
153.2737419177
 21
31.5294468267
  0
LINE
  8
0
 62
7
  6
CONTINUOUS
 10
159.1128043074
 20
30.8519093441
 11
159.228429528
 21
30.7228545871
  0
LINE
  8
0
 62
7
  6
CONTINUOUS
 10
159.4596793074
 20
30.7873819712
 11
159.401867028
 21
30.8519093441
  0
LINE
  8
0
 62
7
  6
CONTINUOUS
 10
159.1128043074
 20
31.3681283946
 11
159.228429528
 21
31.2390736489
  0
LINE
  8
0
 62
7
  6
CONTINUOUS
 10
158.5924918074
 20
31.3681283946
 11
158.534679528
 21
31.4649194539
  0
LINE
  8
0
 62
7
  6
CONTINUOUS
 10
160.9628038663
 20
30.7873819712
 11
160.9628038663
 21
30.8519093441
  0
LINE
  8
0
 62
7
  6
CONTINUOUS
 10
160.9671844304
 20
32.3970785186
 11
160.9671844304
 21
36.1675703219
  0
LINE
  8
0
 62
7
  6
CONTINUOUS
 10
154.0253041972
 20
31.4971831403
 11
153.9674919177
 21
31.4326557675
  0
LINE
  8
0
 62
7
  6
CONTINUOUS
 10
150.9034292799
 20
31.4649194539
 11
151.0768668626
 21
31.400392081
  0
LINE
  8
0
 62
7
  6
CONTINUOUS
 10
155.6440543074
 20
31.4649194539
 11
155.5284290869
 21
31.5294468267
  0
LINE
  8
0
 62
7
  6
CONTINUOUS
 10
159.4596793074
 20
31.3036010218
 11
159.401867028
 21
31.3681283946
  0
LINE
  8
0
 62
7
  6
CONTINUOUS
 10
160.615929528
 20
30.9164367395
 11
160.6737418074
 21
30.8519093441
  0
LINE
  8
0
 62
7
  6
CONTINUOUS
 10
160.9628038663
 20
30.8519093441
 11
160.8471793074
 21
30.9809641124
  0
LINE
  8
0
 62
7
  6
CONTINUOUS
 10
160.615929528
 20
31.4326557675
 11
160.6737418074
 21
31.3681283946
  0
LINE
  8
0
 62
7
  6
CONTINUOUS
 10
160.9628038663
 20
31.3681283946
 11
160.8471793074
 21
31.4971831403
  0
LINE
  8
0
 62
7
  6
CONTINUOUS
 10
154.2565543074
 20
31.3681283946
 11
154.3143669177
 21
31.4326557675
  0
LINE
  8
0
 62
7
  6
CONTINUOUS
 10
154.0831168074
 20
31.1100188581
 11
153.9674919177
 21
30.9809641124
  0
LINE
  8
0
 62
7
  6
CONTINUOUS
 10
155.412804528
 20
30.9487004259
 11
155.3549915869
 21
30.8841730531
  0
LINE
  8
0
 62
7
  6
CONTINUOUS
 10
155.3549915869
 20
30.6905909007
 11
155.412804528
 21
30.7551182848
  0
LINE
  8
0
 62
7
  6
CONTINUOUS
 10
154.1987416972
 20
30.6583272086
 11
154.3143669177
 21
30.6260635193
  0
LINE
  8
0
 62
7
  6
CONTINUOUS
 10
151.1924917523
 20
31.5294468267
 11
150.9612418074
 21
31.5939741996
  0
LINE
  8
0
 62
7
  6
CONTINUOUS
 10
154.5456166972
 20
30.7228545871
 11
154.3143669177
 21
30.7873819712
  0
LINE
  8
0
 62
7
  6
CONTINUOUS
 10
153.2737419177
 20
31.5294468267
 11
153.1003044177
 21
31.5939741996
  0
LINE
  8
0
 62
7
  6
CONTINUOUS
 10
155.5284290869
 20
31.5294468267
 11
155.3549915869
 21
31.5939741996
  0
LINE
  8
0
 62
7
  6
CONTINUOUS
 10
158.187804528
 20
31.4326557675
 11
158.3034290869
 21
31.3681283946
  0
LINE
  8
0
 62
7
  6
CONTINUOUS
 10
158.534679528
 20
31.4649194539
 11
158.4190543074
 21
31.5294468267
  0
LINE
  8
0
 62
7
  6
CONTINUOUS
 10
150.0362418212
 20
30.6583272086
 11
150.2096793212
 21
30.6260635193
  0
LINE
  8
0
 62
7
  6
CONTINUOUS
 10
150.498741835
 20
30.7228545871
 11
150.1518667936
 21
30.7873819712
  0
LINE
  8
0
 62
7
  6
CONTINUOUS
 10
152.9268669177
 20
31.4649194539
 11
153.0424918074
 21
31.4326557675
  0
LINE
  8
0
 62
7
  6
CONTINUOUS
 10
155.239367028
 20
31.4649194539
 11
155.3549915869
 21
31.4326557675
  0
LINE
  8
0
 62
7
  6
CONTINUOUS
 10
159.575304528
 20
30.7551182848
 11
159.4596793074
 21
30.7873819712
  0
LINE
  8
0
 62
7
  6
CONTINUOUS
 10
158.0721793074
 20
31.4649194539
 11
158.187804528
 21
31.4326557675
  0
LINE
  8
0
 62
7
  6
CONTINUOUS
 10
159.228429528
 20
30.7228545871
 11
159.401867028
 21
30.6583272086
  0
LINE
  8
0
 62
7
  6
CONTINUOUS
 10
158.4190543074
 20
31.5294468267
 11
158.2456168074
 21
31.5939741996
  0
LINE
  8
0
 62
7
  6
CONTINUOUS
 10
159.6331168074
 20
31.2390736489
 11
159.4596793074
 21
31.3036010218
  0
LINE
  8
0
 62
7
  6
CONTINUOUS
 10
160.442492028
 20
30.9809641124
 11
160.615929528
 21
30.9164367395
  0
LINE
  8
0
 62
7
  6
CONTINUOUS
 10
160.8471793074
 20
31.4971831403
 11
160.6737418074
 21
31.5617105132
  0
LINE
  8
0
 62
7
  6
CONTINUOUS
 10
159.228429528
 20
31.2390736489
 11
159.4596793074
 21
31.1422825445
  0
LINE
  8
0
 62
7
  6
CONTINUOUS
 10
160.8471793074
 20
30.9809641124
 11
160.615929528
 21
31.0777551716
  0
LINE
  8
0
 62
7
  6
CONTINUOUS
 10
159.401867028
 20
31.3681283946
 11
159.4596793074
 21
31.4326557675
  0
LINE
  8
0
 62
7
  6
CONTINUOUS
 10
149.8628043005
 20
31.4971831403
 11
149.7471793074
 21
31.4326557675
  0
LINE
  8
0
 62
7
  6
CONTINUOUS
 10
149.9784292936
 20
31.3358647082
 11
150.1518667936
 21
31.4326557675
  0
LINE
  8
0
 62
7
  6
CONTINUOUS
 10
152.2909293626
 20
31.5294468267
 11
152.1753043074
 21
31.4649194539
  0
LINE
  8
0
 62
7
  6
CONTINUOUS
 10
152.1753043074
 20
31.3358647082
 11
152.2909293626
 21
31.400392081
  0
LINE
  8
0
 62
7
  6
CONTINUOUS
 10
151.1924917523
 20
30.6905909007
 11
151.3659292523
 21
30.7873819712
  0
LINE
  8
0
 62
7
  6
CONTINUOUS
 10
150.2096793212
 20
30.6260635193
 11
150.5565542799
 21
30.5937998301
  0
LINE
  8
0
 62
7
  6
CONTINUOUS
 10
154.3143669177
 20
30.6260635193
 11
154.5456166972
 21
30.5937998301
  0
LINE
  8
0
 62
7
  6
CONTINUOUS
 10
152.6956168074
 20
31.4971831403
 11
152.9268669177
 21
31.4649194539
  0
LINE
  8
0
 62
7
  6
CONTINUOUS
 10
155.0081169177
 20
31.4971831403
 11
155.239367028
 21
31.4649194539
  0
LINE
  8
0
 62
7
  6
CONTINUOUS
 10
159.4596793074
 20
31.1422825445
 11
160.442492028
 21
30.9809641124
  0
LINE
  8
0
 62
7
  6
CONTINUOUS
 10
160.615929528
 20
31.0777551716
 11
159.6331168074
 21
31.2390736489
  0
LINE
  8
0
 62
7
  6
CONTINUOUS
 10
153.1003044177
 20
31.5939741996
 11
152.9268669177
 21
31.626237886
  0
LINE
  8
0
 62
7
  6
CONTINUOUS
 10
159.401867028
 20
30.6583272086
 11
159.575304528
 21
30.6260635193
  0
LINE
  8
0
 62
7
  6
CONTINUOUS
 10
158.2456168074
 20
31.5939741996
 11
158.0721793074
 21
31.626237886
  0
LINE
  8
0
 62
7
  6
CONTINUOUS
 10
160.5003043074
 20
31.4649194539
 11
160.615929528
 21
31.4326557675
  0
LINE
  8
0
 62
7
  6
CONTINUOUS
 10
160.6737418074
 20
30.8519093441
 11
160.615929528
 21
30.7873819712
  0
LINE
  8
0
 62
7
  6
CONTINUOUS
 10
159.228429528
 20
31.5294468267
 11
159.1128043074
 21
31.4326557675
  0
LINE
  8
0
 62
7
  6
CONTINUOUS
 10
154.1409294177
 20
31.5617105132
 11
154.0253041972
 21
31.4971831403
  0
LINE
  8
0
 62
7
  6
CONTINUOUS
 10
154.1987416972
 20
31.1745462761
 11
154.0831168074
 21
31.1100188581
  0
LINE
  8
0
 62
7
  6
CONTINUOUS
 10
154.3143669177
 20
31.0132277988
 11
154.4299918074
 21
31.0777551716
  0
LINE
  8
0
 62
7
  6
CONTINUOUS
 10
151.8862417523
 20
30.5937998301
 11
152.1753043074
 21
30.5937998301
  0
LINE
  8
0
 62
7
  6
CONTINUOUS
 10
153.2159293074
 20
30.5937998301
 11
153.5049916972
 21
30.5937998301
  0
LINE
  8
0
 62
7
  6
CONTINUOUS
 10
154.5456166972
 20
30.5937998301
 11
154.8924916972
 21
30.5937998301
  0
LINE
  8
0
 62
7
  6
CONTINUOUS
 10
155.5284290869
 20
30.5937998301
 11
155.8174918074
 21
30.5937998301
  0
LINE
  8
0
 62
7
  6
CONTINUOUS
 10
156.279992028
 20
30.5937998301
 11
156.5690540869
 21
30.5937998301
  0
LINE
  8
0
 62
7
  6
CONTINUOUS
 10
157.0315543074
 20
30.5937998301
 11
157.320617028
 21
30.5937998301
  0
LINE
  8
0
 62
7
  6
CONTINUOUS
 10
158.361242028
 20
30.5937998301
 11
158.6503040869
 21
30.5937998301
  0
LINE
  8
0
 62
7
  6
CONTINUOUS
 10
159.922179528
 20
30.5937998301
 11
160.269054528
 21
30.5937998301
  0
LINE
  8
0
 62
7
  6
CONTINUOUS
 10
160.269054528
 20
30.7228545871
 11
159.922179528
 21
30.7228545871
  0
LINE
  8
0
 62
7
  6
CONTINUOUS
 10
154.8924916972
 20
30.7228545871
 11
154.5456166972
 21
30.7228545871
  0
LINE
  8
0
 62
7
  6
CONTINUOUS
 10
159.401867028
 20
30.8519093441
 11
159.1128043074
 21
30.8519093441
  0
LINE
  8
0
 62
7
  6
CONTINUOUS
 10
151.4237418626
 20
30.9164367395
 11
151.1346793074
 21
30.9164367395
  0
LINE
  8
0
 62
7
  6
CONTINUOUS
 10
150.498741835
 20
31.4971831403
 11
150.9034292799
 21
31.4649194539
  0
LINE
  8
0
 62
7
  6
CONTINUOUS
 10
150.9612418074
 20
31.5939741996
 11
150.5565542799
 21
31.626237886
  0
LINE
  8
0
 62
7
  6
CONTINUOUS
 10
159.575304528
 20
30.6260635193
 11
159.922179528
 21
30.5937998301
  0
LINE
  8
0
 62
7
  6
CONTINUOUS
 10
159.922179528
 20
30.7228545871
 11
159.575304528
 21
30.7551182848
  0
LINE
  8
0
 62
7
  6
CONTINUOUS
 10
155.3549915869
 20
31.5939741996
 11
155.0081169177
 21
31.626237886
  0
LINE
  8
0
 62
7
  6
CONTINUOUS
 10
160.1534293074
 20
31.4971831403
 11
160.5003043074
 21
31.4649194539
  0
LINE
  8
0
 62
7
  6
CONTINUOUS
 10
160.5003043074
 20
31.5939741996
 11
160.1534293074
 21
31.626237886
  0
LINE
  8
0
 62
7
  6
CONTINUOUS
 10
157.840929528
 20
31.4971831403
 11
158.0721793074
 21
31.4649194539
  0
LINE
  8
0
 62
7
  6
CONTINUOUS
 10
160.6737418074
 20
31.5617105132
 11
160.5003043074
 21
31.5939741996
  0
LINE
  8
0
 62
7
  6
CONTINUOUS
 10
160.8471793074
 20
30.6905909007
 11
160.9628038663
 21
30.7873819712
  0
LINE
  8
0
 62
7
  6
CONTINUOUS
 10
155.3549915869
 20
30.8841730531
 11
155.1815540869
 21
30.7873819712
  0
LINE
  8
0
 62
7
  6
CONTINUOUS
 10
157.4362415869
 20
31.5294468267
 11
157.320617028
 21
31.4649194539
  0
LINE
  8
0
 62
7
  6
CONTINUOUS
 10
157.320617028
 20
31.3358647082
 11
157.4362415869
 21
31.400392081
  0
LINE
  8
0
 62
7
  6
CONTINUOUS
 10
150.0362418212
 20
31.5617105132
 11
149.8628043005
 21
31.4971831403
  0
LINE
  8
0
 62
7
  6
CONTINUOUS
 10
152.4643666972
 20
31.5939741996
 11
152.2909293626
 21
31.5294468267
  0
LINE
  8
0
 62
7
  6
CONTINUOUS
 10
152.2909293626
 20
31.400392081
 11
152.4643666972
 21
31.4649194539
  0
LINE
  8
0
 62
7
  6
CONTINUOUS
 10
151.0768668626
 20
30.8196456577
 11
150.9034292799
 21
30.7551182848
  0
LINE
  8
0
 62
7
  6
CONTINUOUS
 10
160.5003043074
 20
30.7551182848
 11
160.269054528
 21
30.7228545871
  0
LINE
  8
0
 62
7
  6
CONTINUOUS
 10
154.8924916972
 20
30.5937998301
 11
155.1815540869
 21
30.6260635193
  0
LINE
  8
0
 62
7
  6
CONTINUOUS
 10
160.269054528
 20
30.5937998301
 11
160.615929528
 21
30.6260635193
  0
LINE
  8
0
 62
7
  6
CONTINUOUS
 10
150.5565542799
 20
30.5937998301
 11
150.9612418074
 21
30.6260635193
  0
LINE
  8
0
 62
7
  6
CONTINUOUS
 10
150.9034292799
 20
30.7551182848
 11
150.498741835
 21
30.7228545871
  0
LINE
  8
0
 62
7
  6
CONTINUOUS
 10
154.7768668074
 20
31.1422825445
 11
155.412804528
 21
31.1422825445
  0
LINE
  8
0
 62
7
  6
CONTINUOUS
 10
155.412804528
 20
31.2713373354
 11
154.7768668074
 21
31.2713373354
  0
LINE
  8
0
 62
7
  6
CONTINUOUS
 10
151.1346793074
 20
31.3036010218
 11
151.4237418626
 21
31.3036010218
  0
LINE
  8
0
 62
7
  6
CONTINUOUS
 10
153.9674919177
 20
31.3681283946
 11
154.2565543074
 21
31.3681283946
  0
LINE
  8
0
 62
7
  6
CONTINUOUS
 10
160.6737418074
 20
31.3681283946
 11
160.9628038663
 21
31.3681283946
  0
LINE
  8
0
 62
7
  6
CONTINUOUS
 10
154.6612419177
 20
31.4971831403
 11
155.0081169177
 21
31.4971831403
  0
LINE
  8
0
 62
7
  6
CONTINUOUS
 10
159.8065543074
 20
31.4971831403
 11
160.1534293074
 21
31.4971831403
  0
LINE
  8
0
 62
7
  6
CONTINUOUS
 10
160.1534293074
 20
31.626237886
 11
159.8065543074
 21
31.626237886
  0
LINE
  8
0
 62
7
  6
CONTINUOUS
 10
158.0721793074
 20
31.626237886
 11
157.840929528
 21
31.626237886
  0
LINE
  8
0
 62
7
  6
CONTINUOUS
 10
157.320617028
 20
31.626237886
 11
157.0315543074
 21
31.626237886
  0
LINE
  8
0
 62
7
  6
CONTINUOUS
 10
156.5690540869
 20
31.626237886
 11
156.279992028
 21
31.626237886
  0
LINE
  8
0
 62
7
  6
CONTINUOUS
 10
155.0081169177
 20
31.626237886
 11
154.6612419177
 21
31.626237886
  0
LINE
  8
0
 62
7
  6
CONTINUOUS
 10
152.9268669177
 20
31.626237886
 11
152.6956168074
 21
31.626237886
  0
LINE
  8
0
 62
7
  6
CONTINUOUS
 10
156.279992028
 20
31.9488748406
 11
156.5690540869
 21
31.9488748406
  0
LINE
  8
0
 62
7
  6
CONTINUOUS
 10
156.5690540869
 20
32.1101932727
 11
156.279992028
 21
32.1101932727
  0
LINE
  8
0
 62
7
  6
CONTINUOUS
 10
152.1753043074
 20
32.1101932727
 11
151.8862417523
 21
32.1101932727
  0
LINE
  8
0
 62
7
  6
CONTINUOUS
 10
151.2130860697
 20
32.3970785186
 11
151.6256574183
 21
32.3970785186
  0
LINE
  8
0
 62
7
  6
CONTINUOUS
 10
152.852430332
 20
32.3970785186
 11
154.245872955
 21
32.3970785186
  0
LINE
  8
0
 62
7
  6
CONTINUOUS
 10
154.5737418074
 20
32.3970785186
 11
155.9671844304
 21
32.3970785186
  0
LINE
  8
0
 62
7
  6
CONTINUOUS
 10
157.852430332
 20
32.3970785186
 11
159.245872955
 21
32.3970785186
  0
LINE
  8
0
 62
7
  6
CONTINUOUS
 10
159.5737418074
 20
32.3970785186
 11
160.9671844304
 21
32.3970785186
  0
LINE
  8
0
 62
7
  6
CONTINUOUS
 10
157.6096790869
 20
31.5939741996
 11
157.4362415869
 21
31.5294468267
  0
LINE
  8
0
 62
7
  6
CONTINUOUS
 10
155.1815540869
 20
30.6260635193
 11
155.3549915869
 21
30.6905909007
  0
LINE
  8
0
 62
7
  6
CONTINUOUS
 10
160.615929528
 20
30.6260635193
 11
160.8471793074
 21
30.6905909007
  0
LINE
  8
0
 62
7
  6
CONTINUOUS
 10
160.615929528
 20
30.7873819712
 11
160.5003043074
 21
30.7551182848
  0
LINE
  8
0
 62
7
  6
CONTINUOUS
 10
159.575304528
 20
31.4649194539
 11
159.8065543074
 21
31.4971831403
  0
LINE
  8
0
 62
7
  6
CONTINUOUS
 10
157.6096790869
 20
31.4649194539
 11
157.840929528
 21
31.4971831403
  0
LINE
  8
0
 62
7
  6
CONTINUOUS
 10
154.5456166972
 20
31.1100188581
 11
154.7768668074
 21
31.1422825445
  0
LINE
  8
0
 62
7
  6
CONTINUOUS
 10
157.840929528
 20
31.626237886
 11
157.6096790869
 21
31.5939741996
  0
LINE
  8
0
 62
7
  6
CONTINUOUS
 10
154.4299918074
 20
31.4649194539
 11
154.6612419177
 21
31.4971831403
  0
LINE
  8
0
 62
7
  6
CONTINUOUS
 10
159.8065543074
 20
31.626237886
 11
159.4596793074
 21
31.5939741996
  0
LINE
  8
0
 62
7
  6
CONTINUOUS
 10
154.7768668074
 20
31.2713373354
 11
154.4299918074
 21
31.2390736489
  0
LINE
  8
0
 62
7
  6
CONTINUOUS
 10
150.5565542799
 20
31.626237886
 11
150.2096793212
 21
31.5939741996
  0
LINE
  8
0
 62
7
  6
CONTINUOUS
 10
154.6612419177
 20
31.626237886
 11
154.2565543074
 21
31.5939741996
  0
LINE
  8
0
 62
7
  6
CONTINUOUS
 10
152.0327582009
 20
33.5446195022
 11
151.3770204959
 21
33.5446195022
  0
LINE
  8
0
 62
7
  6
CONTINUOUS
 10
157.4362415869
 20
31.400392081
 11
157.6096790869
 21
31.4649194539
  0
LINE
  8
0
 62
7
  6
CONTINUOUS
 10
159.4596793074
 20
31.4326557675
 11
159.575304528
 21
31.4649194539
  0
LINE
  8
0
 62
7
  6
CONTINUOUS
 10
159.4596793074
 20
31.5939741996
 11
159.228429528
 21
31.5294468267
  0
LINE
  8
0
 62
7
  6
CONTINUOUS
 10
155.1815540869
 20
30.7873819712
 11
154.8924916972
 21
30.7228545871
  0
LINE
  8
0
 62
7
  6
CONTINUOUS
 10
152.4643666972
 20
31.4649194539
 11
152.6956168074
 21
31.4971831403
  0
LINE
  8
0
 62
7
  6
CONTINUOUS
 10
152.6956168074
 20
31.626237886
 11
152.4643666972
 21
31.5939741996
  0
LINE
  8
0
 62
7
  6
CONTINUOUS
 10
150.2674918074
 20
31.4649194539
 11
150.498741835
 21
31.4971831403
  0
LINE
  8
0
 62
7
  6
CONTINUOUS
 10
156.7868565615
 20
35.0200293383
 11
157.4425942664
 21
35.0200293383
  0
LINE
  8
0
 62
7
  6
CONTINUOUS
 10
154.4299918074
 20
31.0777551716
 11
154.5456166972
 21
31.1100188581
  0
LINE
  8
0
 62
7
  6
CONTINUOUS
 10
154.4299918074
 20
31.2390736489
 11
154.1987416972
 21
31.1745462761
  0
LINE
  8
0
 62
7
  6
CONTINUOUS
 10
154.3143669177
 20
31.4326557675
 11
154.4299918074
 21
31.4649194539
  0
LINE
  8
0
 62
7
  6
CONTINUOUS
 10
150.9612418074
 20
30.6260635193
 11
151.1924917523
 21
30.6905909007
  0
LINE
  8
0
 62
7
  6
CONTINUOUS
 10
154.2565543074
 20
31.5939741996
 11
154.1409294177
 21
31.5617105132
  0
LINE
  8
0
 62
7
  6
CONTINUOUS
 10
150.2096793212
 20
31.5939741996
 11
150.0362418212
 21
31.5617105132
  0
LINE
  8
0
 62
7
  6
CONTINUOUS
 10
160.9671844304
 20
36.1675703219
 11
159.5737418074
 21
36.1675703219
  0
LINE
  8
0
 62
7
  6
CONTINUOUS
 10
157.6065286927
 20
36.1675703219
 11
157.1939573441
 21
36.1675703219
  0
LINE
  8
0
 62
7
  6
CONTINUOUS
 10
155.9671844304
 20
36.1675703219
 11
154.5737418074
 21
36.1675703219
  0
LINE
  8
0
 62
7
  6
CONTINUOUS
 10
154.245872955
 20
36.1675703219
 11
152.852430332
 21
36.1675703219
  0
LINE
  8
0
 62
7
  6
CONTINUOUS
 10
150.9671844304
 20
36.1675703219
 11
149.5737418074
 21
36.1675703219
  0
LINE
  8
0
 62
7
  6
CONTINUOUS
 10
150.1518667936
 20
31.4326557675
 11
150.2674918074
 21
31.4649194539
  0
CIRCLE
  8
0
 62
7
  6
CONTINUOUS
 10
160.2704631189
 20
38.5036358957
 40
2.0901639344
  0
ARC
  8
0
 62
7
  6
CONTINUOUS
 10
151.2130860697
 20
34.0364227809
 40
1.6393442623
 50
180.0
 51
270.0
  0
ARC
  8
0
 62
7
  6
CONTINUOUS
 10
157.6065286927
 20
34.5282260596
 40
1.6393442623
 50
0.0
 51
90.0
  0
ARC
  8
0
 62
7
  6
CONTINUOUS
 10
151.6256574183
 20
33.8724883547
 40
1.4754098361
 50
270.0
 51
326.2510114041
  0
ARC
  8
0
 62
7
  6
CONTINUOUS
 10
157.1939573441
 20
34.6921604858
 40
1.4754098361
 50
90.0
 51
146.2510114041
  0
ARC
  8
0
 62
7
  6
CONTINUOUS
 10
152.0327582009
 20
34.3642916334
 40
0.8196721311
 50
270.0
 51
360.0
  0
ARC
  8
0
 62
7
  6
CONTINUOUS
 10
156.7868565615
 20
34.2003572071
 40
0.8196721311
 50
90.0
 51
180.0
  0
ARC
  8
0
 62
7
  6
CONTINUOUS
 10
151.3770204959
 20
33.9544555678
 40
0.4098360656
 50
180.0
 51
270.0
  0
ARC
  8
0
 62
7
  6
CONTINUOUS
 10
157.4425942664
 20
34.6101932727
 40
0.4098360656
 50
0.0
 51
90.0
  0
SOLID
  8
0
 62
7
  6
CONTINUOUS
 10
156.279992028
 20
31.9488752009
 11
156.279992028
 21
32.1101936845
 12
156.5690540869
 22
31.9488752009
 13
156.5690540869
 23
32.1101936845
  0
SOLID
  8
0
 62
7
  6
CONTINUOUS
 10
150.5565542799
 20
31.6262382337
 11
150.9612418074
 21
31.5939740028
 12
150.2096793212
 22
31.5939740028
 13
150.2096793212
 23
31.5939740028
  0
SOLID
  8
0
 62
7
  6
CONTINUOUS
 10
150.0362418212
 20
31.5617111435
 11
150.2096793212
 21
31.5939740028
 12
150.9612418074
 22
31.5939740028
 13
150.9612418074
 23
31.5939740028
  0
SOLID
  8
0
 62
7
  6
CONTINUOUS
 10
150.9612418074
 20
31.5939740028
 11
151.1924917523
 21
31.5294468402
 12
150.0362418212
 22
31.5617111435
 13
150.0362418212
 23
31.5617111435
  0
SOLID
  8
0
 62
7
  6
CONTINUOUS
 10
149.8628043005
 20
31.49718259
 11
150.0362418212
 21
31.5617111435
 12
151.1924917523
 22
31.5294468402
 13
151.1924917523
 23
31.5294468402
  0
SOLID
  8
0
 62
7
  6
CONTINUOUS
 10
149.8628043005
 20
31.49718259
 11
151.1924917523
 21
31.5294468402
 12
150.498741835
 22
31.49718259
 13
150.498741835
 23
31.49718259
  0
SOLID
  8
0
 62
7
  6
CONTINUOUS
 10
150.498741835
 20
31.49718259
 11
151.1924917523
 21
31.5294468402
 12
150.9034292799
 22
31.4649197501
 13
150.9034292799
 23
31.4649197501
  0
SOLID
  8
0
 62
7
  6
CONTINUOUS
 10
151.1924917523
 20
31.5294468402
 11
151.3659292523
 21
31.4326554468
 12
150.9034292799
 22
31.4649197501
 13
150.9034292799
 23
31.4649197501
  0
SOLID
  8
0
 62
7
  6
CONTINUOUS
 10
151.0768668626
 20
31.4003926599
 11
150.9034292799
 21
31.4649197501
 12
151.3659292523
 22
31.4326554468
 13
151.3659292523
 23
31.4326554468
  0
SOLID
  8
0
 62
7
  6
CONTINUOUS
 10
151.0768668626
 20
31.4003926599
 11
151.3659292523
 21
31.4326554468
 12
151.1346793074
 22
31.3036013776
 13
151.1346793074
 23
31.3036013776
  0
SOLID
  8
0
 62
7
  6
CONTINUOUS
 10
151.3659292523
 20
31.4326554468
 11
151.4237418626
 21
31.3036013776
 12
151.1346793074
 22
31.3036013776
 13
151.1346793074
 23
31.3036013776
  0
SOLID
  8
0
 62
7
  6
CONTINUOUS
 10
152.4643666972
 20
31.5939739754
 11
152.6956168074
 21
31.6262382787
 12
152.9268669177
 22
31.6262382787
 13
152.9268669177
 23
31.6262382787
  0
SOLID
  8
0
 62
7
  6
CONTINUOUS
 10
152.9268669177
 20
31.6262382787
 11
153.1003044177
 21
31.5939739754
 12
152.4643666972
 22
31.5939739754
 13
152.4643666972
 23
31.5939739754
  0
SOLID
  8
0
 62
7
  6
CONTINUOUS
 10
152.2909293626
 20
31.5294468852
 11
152.4643666972
 21
31.5939739754
 12
153.1003044177
 22
31.5939739754
 13
153.1003044177
 23
31.5939739754
  0
SOLID
  8
0
 62
7
  6
CONTINUOUS
 10
153.1003044177
 20
31.5939739754
 11
153.2737419177
 21
31.5294468852
 12
152.2909293626
 22
31.5294468852
 13
152.2909293626
 23
31.5294468852
  0
SOLID
  8
0
 62
7
  6
CONTINUOUS
 10
153.2737419177
 20
31.5294468852
 11
152.6956168074
 21
31.4971825369
 12
152.2909293626
 22
31.5294468852
 13
152.2909293626
 23
31.5294468852
  0
SOLID
  8
0
 62
7
  6
CONTINUOUS
 10
152.1753043074
 20
31.4649197951
 11
152.2909293626
 21
31.5294468852
 12
152.6956168074
 22
31.4971825369
 13
152.6956168074
 23
31.4971825369
  0
SOLID
  8
0
 62
7
  6
CONTINUOUS
 10
152.6956168074
 20
31.4971825369
 11
152.4643666972
 21
31.4649197951
 12
152.1753043074
 22
31.4649197951
 13
152.1753043074
 23
31.4649197951
  0
SOLID
  8
0
 62
7
  6
CONTINUOUS
 10
152.6956168074
 20
31.4971825369
 11
153.2737419177
 21
31.5294468852
 12
152.9268669177
 22
31.4649197951
 13
152.9268669177
 23
31.4649197951
  0
SOLID
  8
0
 62
7
  6
CONTINUOUS
 10
153.2737419177
 20
31.5294468852
 11
153.3893668074
 21
31.4649197951
 12
152.9268669177
 22
31.4649197951
 13
152.9268669177
 23
31.4649197951
  0
SOLID
  8
0
 62
7
  6
CONTINUOUS
 10
153.0424918074
 20
31.4326554468
 11
152.9268669177
 21
31.4649197951
 12
153.3893668074
 22
31.4649197951
 13
153.3893668074
 23
31.4649197951
  0
SOLID
  8
0
 62
7
  6
CONTINUOUS
 10
153.3893668074
 20
31.4649197951
 11
153.4471794177
 21
31.4003927049
 12
153.0424918074
 22
31.4326554468
 13
153.0424918074
 23
31.4326554468
  0
SOLID
  8
0
 62
7
  6
CONTINUOUS
 10
153.1581166972
 20
31.3681283566
 11
153.0424918074
 21
31.4326554468
 12
153.4471794177
 22
31.4003927049
 13
153.4471794177
 23
31.4003927049
  0
SOLID
  8
0
 62
7
  6
CONTINUOUS
 10
153.1581166972
 20
31.3681283566
 11
153.4471794177
 21
31.4003927049
 12
153.2159293074
 22
31.2390742213
 13
153.2159293074
 23
31.2390742213
  0
SOLID
  8
0
 62
7
  6
CONTINUOUS
 10
153.4471794177
 20
31.4003927049
 11
153.5049916972
 21
31.2390742213
 12
153.2159293074
 22
31.2390742213
 13
153.2159293074
 23
31.2390742213
  0
SOLID
  8
0
 62
7
  6
CONTINUOUS
 10
152.4643666972
 20
31.4649197951
 11
152.2909293626
 21
31.4003927049
 12
152.1753043074
 22
31.4649197951
 13
152.1753043074
 23
31.4649197951
  0
SOLID
  8
0
 62
7
  6
CONTINUOUS
 10
152.2909293626
 20
31.4003927049
 11
152.1753043074
 21
31.3358640533
 12
152.1753043074
 22
31.4649197951
 13
152.1753043074
 23
31.4649197951
  0
SOLID
  8
0
 62
7
  6
CONTINUOUS
 10
152.1753043074
 20
31.3358640533
 11
151.8862417523
 21
30.5938002869
 12
152.1753043074
 22
31.4649197951
 13
152.1753043074
 23
31.4649197951
  0
SOLID
  8
0
 62
7
  6
CONTINUOUS
 10
152.1753043074
 20
31.4649197951
 11
151.8862417523
 21
30.5938002869
 12
152.1753043074
 22
32.1101937295
 13
152.1753043074
 23
32.1101937295
  0
SOLID
  8
0
 62
7
  6
CONTINUOUS
 10
151.8862417523
 20
30.5938002869
 11
151.8862417523
 21
32.1101937295
 12
152.1753043074
 22
32.1101937295
 13
152.1753043074
 23
32.1101937295
  0
SOLID
  8
0
 62
7
  6
CONTINUOUS
 10
152.1753043074
 20
31.3358640533
 11
152.1753043074
 21
30.5938002869
 12
151.8862417523
 22
30.5938002869
 13
151.8862417523
 23
30.5938002869
  0
SOLID
  8
0
 62
7
  6
CONTINUOUS
 10
153.2159293074
 20
30.5938002869
 11
153.2159293074
 21
31.2390742213
 12
153.5049916972
 22
31.2390742213
 13
153.5049916972
 23
31.2390742213
  0
SOLID
  8
0
 62
7
  6
CONTINUOUS
 10
153.5049916972
 20
31.2390742213
 11
153.5049916972
 21
30.5938002869
 12
153.2159293074
 22
30.5938002869
 13
153.2159293074
 23
30.5938002869
  0
SOLID
  8
0
 62
7
  6
CONTINUOUS
 10
154.2565543074
 20
31.5939738288
 11
154.6612419177
 21
31.6262385959
 12
155.0081169177
 22
31.6262385959
 13
155.0081169177
 23
31.6262385959
  0
SOLID
  8
0
 62
7
  6
CONTINUOUS
 10
155.0081169177
 20
31.6262385959
 11
155.3549915869
 21
31.5939738288
 12
154.2565543074
 22
31.5939738288
 13
154.2565543074
 23
31.5939738288
  0
SOLID
  8
0
 62
7
  6
CONTINUOUS
 10
154.1409294177
 20
31.5617111435
 11
154.2565543074
 21
31.5939738288
 12
155.3549915869
 22
31.5939738288
 13
155.3549915869
 23
31.5939738288
  0
SOLID
  8
0
 62
7
  6
CONTINUOUS
 10
155.3549915869
 20
31.5939738288
 11
155.5284290869
 21
31.5294468402
 12
154.1409294177
 22
31.5617111435
 13
154.1409294177
 23
31.5617111435
  0
SOLID
  8
0
 62
7
  6
CONTINUOUS
 10
154.0253041972
 20
31.4971826249
 11
154.1409294177
 21
31.5617111435
 12
155.5284290869
 22
31.5294468402
 13
155.5284290869
 23
31.5294468402
  0
SOLID
  8
0
 62
7
  6
CONTINUOUS
 10
154.0253041972
 20
31.4971826249
 11
155.5284290869
 21
31.5294468402
 12
154.6612419177
 22
31.4971826249
 13
154.6612419177
 23
31.4971826249
  0
SOLID
  8
0
 62
7
  6
CONTINUOUS
 10
154.6612419177
 20
31.4971826249
 11
155.5284290869
 21
31.5294468402
 12
155.0081169177
 22
31.4971826249
 13
155.0081169177
 23
31.4971826249
  0
SOLID
  8
0
 62
7
  6
CONTINUOUS
 10
155.0081169177
 20
31.4971826249
 11
155.5284290869
 21
31.5294468402
 12
155.239367028
 22
31.4649194065
 13
155.239367028
 23
31.4649194065
  0
SOLID
  8
0
 62
7
  6
CONTINUOUS
 10
155.5284290869
 20
31.5294468402
 11
155.6440543074
 21
31.4649194065
 12
155.239367028
 22
31.4649194065
 13
155.239367028
 23
31.4649194065
  0
SOLID
  8
0
 62
7
  6
CONTINUOUS
 10
153.9674919177
 20
31.4326554138
 11
154.0253041972
 21
31.4971826249
 12
154.6612419177
 22
31.4971826249
 13
154.6612419177
 23
31.4971826249
  0
SOLID
  8
0
 62
7
  6
CONTINUOUS
 10
155.3549915869
 20
31.4326554138
 11
155.239367028
 21
31.4649194065
 12
155.6440543074
 22
31.4649194065
 13
155.6440543074
 23
31.4649194065
  0
SOLID
  8
0
 62
7
  6
CONTINUOUS
 10
155.3549915869
 20
31.4326554138
 11
155.6440543074
 21
31.4649194065
 12
155.412804528
 22
31.3681282026
 13
155.412804528
 23
31.3681282026
  0
SOLID
  8
0
 62
7
  6
CONTINUOUS
 10
155.6440543074
 20
31.4649194065
 11
155.7018665869
 21
31.3681282026
 12
155.412804528
 22
31.3681282026
 13
155.412804528
 23
31.3681282026
  0
SOLID
  8
0
 62
7
  6
CONTINUOUS
 10
155.412804528
 20
31.2713369632
 11
155.412804528
 21
31.3681282026
 12
155.7018665869
 22
31.3681282026
 13
155.7018665869
 23
31.3681282026
  0
SOLID
  8
0
 62
7
  6
CONTINUOUS
 10
155.412804528
 20
31.2713369632
 11
155.7018665869
 21
31.3681282026
 12
155.412804528
 22
31.1422827828
 13
155.412804528
 23
31.1422827828
  0
SOLID
  8
0
 62
7
  6
CONTINUOUS
 10
155.412804528
 20
31.1422827828
 11
155.7018665869
 21
31.3681282026
 12
155.412804528
 22
30.9487004259
 13
155.412804528
 23
30.9487004259
  0
SOLID
  8
0
 62
7
  6
CONTINUOUS
 10
155.7018665869
 20
31.3681282026
 11
155.7018665869
 21
30.8519086025
 12
155.412804528
 22
30.9487004259
 13
155.412804528
 23
30.9487004259
  0
SOLID
  8
0
 62
7
  6
CONTINUOUS
 10
157.6096790869
 20
31.5939736268
 11
157.840929528
 21
31.6262383465
 12
158.0721793074
 22
31.6262383465
 13
158.0721793074
 23
31.6262383465
  0
SOLID
  8
0
 62
7
  6
CONTINUOUS
 10
158.0721793074
 20
31.6262383465
 11
158.2456168074
 21
31.5939736268
 12
157.6096790869
 22
31.5939736268
 13
157.6096790869
 23
31.5939736268
  0
SOLID
  8
0
 62
7
  6
CONTINUOUS
 10
157.4362415869
 20
31.5294472848
 11
157.6096790869
 21
31.5939736268
 12
158.2456168074
 22
31.5939736268
 13
158.2456168074
 23
31.5939736268
  0
SOLID
  8
0
 62
7
  6
CONTINUOUS
 10
158.2456168074
 20
31.5939736268
 11
158.4190543074
 21
31.5294472848
 12
157.4362415869
 22
31.5294472848
 13
157.4362415869
 23
31.5294472848
  0
SOLID
  8
0
 62
7
  6
CONTINUOUS
 10
158.4190543074
 20
31.5294472848
 11
157.840929528
 21
31.4971825369
 12
157.4362415869
 22
31.5294472848
 13
157.4362415869
 23
31.5294472848
  0
SOLID
  8
0
 62
7
  6
CONTINUOUS
 10
157.320617028
 20
31.4649199103
 11
157.4362415869
 21
31.5294472848
 12
157.840929528
 22
31.4971825369
 13
157.840929528
 23
31.4971825369
  0
SOLID
  8
0
 62
7
  6
CONTINUOUS
 10
157.840929528
 20
31.4971825369
 11
157.6096790869
 21
31.4649199103
 12
157.320617028
 22
31.4649199103
 13
157.320617028
 23
31.4649199103
  0
SOLID
  8
0
 62
7
  6
CONTINUOUS
 10
157.840929528
 20
31.4971825369
 11
158.4190543074
 21
31.5294472848
 12
158.0721793074
 22
31.4649199103
 13
158.0721793074
 23
31.4649199103
  0
SOLID
  8
0
 62
7
  6
CONTINUOUS
 10
158.4190543074
 20
31.5294472848
 11
158.534679528
 21
31.4649199103
 12
158.0721793074
 22
31.4649199103
 13
158.0721793074
 23
31.4649199103
  0
SOLID
  8
0
 62
7
  6
CONTINUOUS
 10
158.187804528
 20
31.4326554468
 11
158.0721793074
 21
31.4649199103
 12
158.534679528
 22
31.4649199103
 13
158.534679528
 23
31.4649199103
  0
SOLID
  8
0
 62
7
  6
CONTINUOUS
 10
158.187804528
 20
31.4326554468
 11
158.534679528
 21
31.4649199103
 12
158.3034290869
 22
31.3681288486
 13
158.3034290869
 23
31.3681288486
  0
SOLID
  8
0
 62
7
  6
CONTINUOUS
 10
158.534679528
 20
31.4649199103
 11
158.5924918074
 21
31.3681288486
 12
158.3034290869
 22
31.3681288486
 13
158.3034290869
 23
31.3681288486
  0
SOLID
  8
0
 62
7
  6
CONTINUOUS
 10
158.361242028
 20
31.2068093799
 11
158.3034290869
 21
31.3681288486
 12
158.5924918074
 22
31.3681288486
 13
158.5924918074
 23
31.3681288486
  0
SOLID
  8
0
 62
7
  6
CONTINUOUS
 10
158.5924918074
 20
31.3681288486
 11
158.6503040869
 21
31.2068093799
 12
158.361242028
 22
31.2068093799
 13
158.361242028
 23
31.2068093799
  0
SOLID
  8
0
 62
7
  6
CONTINUOUS
 10
157.6096790869
 20
31.4649199103
 11
157.4362415869
 21
31.4003926599
 12
157.320617028
 22
31.4649199103
 13
157.320617028
 23
31.4649199103
  0
SOLID
  8
0
 62
7
  6
CONTINUOUS
 10
157.4362415869
 20
31.4003926599
 11
157.320617028
 21
31.3358640533
 12
157.320617028
 22
31.4649199103
 13
157.320617028
 23
31.4649199103
  0
SOLID
  8
0
 62
7
  6
CONTINUOUS
 10
157.320617028
 20
31.3358640533
 11
157.0315543074
 21
30.5938003547
 12
157.320617028
 22
31.4649199103
 13
157.320617028
 23
31.4649199103
  0
SOLID
  8
0
 62
7
  6
CONTINUOUS
 10
157.320617028
 20
31.4649199103
 11
157.0315543074
 21
30.5938003547
 12
157.320617028
 22
31.6262383465
 13
157.320617028
 23
31.6262383465
  0
SOLID
  8
0
 62
7
  6
CONTINUOUS
 10
157.0315543074
 20
30.5938003547
 11
157.0315543074
 21
31.6262383465
 12
157.320617028
 22
31.6262383465
 13
157.320617028
 23
31.6262383465
  0
SOLID
  8
0
 62
7
  6
CONTINUOUS
 10
157.320617028
 20
31.3358640533
 11
157.320617028
 21
30.5938003547
 12
157.0315543074
 22
30.5938003547
 13
157.0315543074
 23
30.5938003547
  0
SOLID
  8
0
 62
7
  6
CONTINUOUS
 10
158.361242028
 20
30.5938003547
 11
158.361242028
 21
31.2068093799
 12
158.6503040869
 22
31.2068093799
 13
158.6503040869
 23
31.2068093799
  0
SOLID
  8
0
 62
7
  6
CONTINUOUS
 10
158.6503040869
 20
31.2068093799
 11
158.6503040869
 21
30.5938003547
 12
158.361242028
 22
30.5938003547
 13
158.361242028
 23
30.5938003547
  0
SOLID
  8
0
 62
7
  6
CONTINUOUS
 10
159.4596793074
 20
31.5939739474
 11
159.8065543074
 21
31.6262381969
 12
160.1534293074
 22
31.6262381969
 13
160.1534293074
 23
31.6262381969
  0
SOLID
  8
0
 62
7
  6
CONTINUOUS
 10
160.1534293074
 20
31.6262381969
 11
160.5003043074
 21
31.5939739474
 12
159.4596793074
 22
31.5939739474
 13
159.4596793074
 23
31.5939739474
  0
SOLID
  8
0
 62
7
  6
CONTINUOUS
 10
159.228429528
 20
31.5294468402
 11
159.4596793074
 21
31.5939739474
 12
160.5003043074
 22
31.5939739474
 13
160.5003043074
 23
31.5939739474
  0
SOLID
  8
0
 62
7
  6
CONTINUOUS
 10
159.228429528
 20
31.5294468402
 11
160.5003043074
 21
31.5939739304
 12
160.6737418074
 22
31.5617111435
 13
160.6737418074
 23
31.5617111435
  0
SOLID
  8
0
 62
7
  6
CONTINUOUS
 10
159.228429528
 20
31.5294468402
 11
160.6737418074
 21
31.5617111435
 12
159.8065543074
 22
31.4971825592
 13
159.8065543074
 23
31.4971825592
  0
SOLID
  8
0
 62
7
  6
CONTINUOUS
 10
159.8065543074
 20
31.4971825592
 11
160.6737418074
 21
31.5617111435
 12
160.1534293074
 22
31.4971825592
 13
160.1534293074
 23
31.4971825592
  0
SOLID
  8
0
 62
7
  6
CONTINUOUS
 10
160.6737418074
 20
31.5617111435
 11
160.8471793074
 21
31.4971825592
 12
160.1534293074
 22
31.4971825592
 13
160.1534293074
 23
31.4971825592
  0
SOLID
  8
0
 62
7
  6
CONTINUOUS
 10
160.5003043074
 20
31.4649197501
 11
160.1534293074
 21
31.4971825592
 12
160.8471793074
 22
31.4971825592
 13
160.8471793074
 23
31.4971825592
  0
SOLID
  8
0
 62
7
  6
CONTINUOUS
 10
159.1128043074
 20
31.4326555427
 11
159.228429528
 21
31.5294468402
 12
159.8065543074
 22
31.4971825592
 13
159.8065543074
 23
31.4971825592
  0
SOLID
  8
0
 62
7
  6
CONTINUOUS
 10
160.5003043074
 20
31.4649197501
 11
160.8471793074
 21
31.4971825592
 12
160.615929528
 22
31.4326555427
 13
160.615929528
 23
31.4326555427
  0
SOLID
  8
0
 62
7
  6
CONTINUOUS
 10
160.615929528
 20
31.4326555427
 11
160.8471793074
 21
31.4971825592
 12
160.6737418074
 22
31.3681283005
 13
160.6737418074
 23
31.3681283005
  0
SOLID
  8
0
 62
7
  6
CONTINUOUS
 10
160.8471793074
 20
31.4971825592
 11
160.9628038663
 21
31.3681283005
 12
160.6737418074
 22
31.3681283005
 13
160.6737418074
 23
31.3681283005
  0
SOLID
  8
0
 62
7
  6
CONTINUOUS
 10
150.2674918074
 20
31.4649197501
 11
149.7471793074
 21
31.4326554237
 12
150.498741835
 22
31.4971824493
 13
150.498741835
 23
31.4971824493
  0
SOLID
  8
0
 62
7
  6
CONTINUOUS
 10
149.7471793074
 20
31.4326554237
 11
149.8628043005
 21
31.4971824493
 12
150.498741835
 22
31.4971824493
 13
150.498741835
 23
31.4971824493
  0
SOLID
  8
0
 62
7
  6
CONTINUOUS
 10
150.2674918074
 20
31.4649197501
 11
150.1518667936
 21
31.4326554237
 12
149.7471793074
 22
31.4326554237
 13
149.7471793074
 23
31.4326554237
  0
SOLID
  8
0
 62
7
  6
CONTINUOUS
 10
149.6315543091
 20
31.3036012664
 11
149.7471793074
 21
31.4326554237
 12
150.1518667936
 22
31.4326554237
 13
150.1518667936
 23
31.4326554237
  0
SOLID
  8
0
 62
7
  6
CONTINUOUS
 10
153.9674919177
 20
31.4326554237
 11
154.6612419177
 21
31.4971825369
 12
154.4299918074
 22
31.4649197501
 13
154.4299918074
 23
31.4649197501
  0
SOLID
  8
0
 62
7
  6
CONTINUOUS
 10
154.4299918074
 20
31.4649197501
 11
154.3143669177
 21
31.4326554237
 12
153.9674919177
 22
31.4326554237
 13
153.9674919177
 23
31.4326554237
  0
SOLID
  8
0
 62
7
  6
CONTINUOUS
 10
153.9674919177
 20
31.3681283335
 11
153.9674919177
 21
31.4326554237
 12
154.3143669177
 22
31.4326554237
 13
154.3143669177
 23
31.4326554237
  0
SOLID
  8
0
 62
7
  6
CONTINUOUS
 10
154.3143669177
 20
31.4326554237
 11
154.2565543074
 21
31.3681283335
 12
153.9674919177
 22
31.3681283335
 13
153.9674919177
 23
31.3681283335
  0
SOLID
  8
0
 62
7
  6
CONTINUOUS
 10
159.1128043074
 20
31.4326555528
 11
159.8065543074
 21
31.4971825369
 12
159.575304528
 22
31.4649197501
 13
159.575304528
 23
31.4649197501
  0
SOLID
  8
0
 62
7
  6
CONTINUOUS
 10
159.575304528
 20
31.4649197501
 11
159.4596793074
 21
31.4326555528
 12
159.1128043074
 22
31.4326555528
 13
159.1128043074
 23
31.4326555528
  0
SOLID
  8
0
 62
7
  6
CONTINUOUS
 10
159.1128043074
 20
31.3681284626
 11
159.1128043074
 21
31.4326555528
 12
159.4596793074
 22
31.4326555528
 13
159.4596793074
 23
31.4326555528
  0
SOLID
  8
0
 62
7
  6
CONTINUOUS
 10
159.4596793074
 20
31.4326555528
 11
159.401867028
 21
31.3681284626
 12
159.1128043074
 22
31.3681284626
 13
159.1128043074
 23
31.3681284626
  0
SOLID
  8
0
 62
7
  6
CONTINUOUS
 10
159.228429528
 20
31.2390741763
 11
159.1128043074
 21
31.3681284626
 12
159.401867028
 22
31.3681284626
 13
159.401867028
 23
31.3681284626
  0
SOLID
  8
0
 62
7
  6
CONTINUOUS
 10
149.6315543091
 20
31.3036012664
 11
150.1518667936
 21
31.4326554468
 12
149.9784292936
 22
31.3358640533
 13
149.9784292936
 23
31.3358640533
  0
SOLID
  8
0
 62
7
  6
CONTINUOUS
 10
149.9784292936
 20
31.3358640533
 11
149.9206168074
 21
31.2713369632
 12
149.6315543091
 22
31.3036012664
 13
149.6315543091
 23
31.3036012664
  0
SOLID
  8
0
 62
7
  6
CONTINUOUS
 10
149.5737418074
 20
31.1100184796
 11
149.6315543091
 21
31.3036012664
 12
149.9206168074
 22
31.2713369632
 13
149.9206168074
 23
31.2713369632
  0
SOLID
  8
0
 62
7
  6
CONTINUOUS
 10
154.4299918074
 20
31.2390741763
 11
154.7768668074
 21
31.271336924
 12
155.412804528
 22
31.271336924
 13
155.412804528
 23
31.271336924
  0
SOLID
  8
0
 62
7
  6
CONTINUOUS
 10
154.4299918074
 20
31.2390741763
 11
155.412804528
 21
31.271336924
 12
154.1987416972
 22
31.1745462761
 13
154.1987416972
 23
31.1745462761
  0
SOLID
  8
0
 62
7
  6
CONTINUOUS
 10
154.1987416972
 20
31.1745462761
 11
155.412804528
 21
31.271336924
 12
154.7768668074
 22
31.1422827436
 13
154.7768668074
 23
31.1422827436
  0
SOLID
  8
0
 62
7
  6
CONTINUOUS
 10
155.412804528
 20
31.271336924
 11
155.412804528
 21
31.1422827436
 12
154.7768668074
 22
31.1422827436
 13
154.7768668074
 23
31.1422827436
  0
SOLID
  8
0
 62
7
  6
CONTINUOUS
 10
159.228429528
 20
31.2390745501
 11
159.401867028
 21
31.3681283566
 12
159.4596793074
 22
31.3036012664
 13
159.4596793074
 23
31.3036012664
  0
SOLID
  8
0
 62
7
  6
CONTINUOUS
 10
159.4596793074
 20
31.3036012664
 11
159.6331168074
 21
31.2390745501
 12
159.228429528
 22
31.2390745501
 13
159.228429528
 23
31.2390745501
  0
SOLID
  8
0
 62
7
  6
CONTINUOUS
 10
159.4596793074
 20
31.1422827828
 11
159.228429528
 21
31.2390745501
 12
159.6331168074
 22
31.2390745501
 13
159.6331168074
 23
31.2390745501
  0
SOLID
  8
0
 62
7
  6
CONTINUOUS
 10
159.6331168074
 20
31.2390745501
 11
160.615929528
 21
31.0777556927
 12
159.4596793074
 22
31.1422827828
 13
159.4596793074
 23
31.1422827828
  0
SOLID
  8
0
 62
7
  6
CONTINUOUS
 10
160.442492028
 20
30.9809646623
 11
159.4596793074
 21
31.1422827828
 12
160.615929528
 22
31.0777556927
 13
160.615929528
 23
31.0777556927
  0
SOLID
  8
0
 62
7
  6
CONTINUOUS
 10
160.615929528
 20
31.0777556927
 11
160.8471793074
 21
30.9809646623
 12
160.442492028
 22
30.9809646623
 13
160.442492028
 23
30.9809646623
  0
SOLID
  8
0
 62
7
  6
CONTINUOUS
 10
160.615929528
 20
30.9164372091
 11
160.442492028
 21
30.9809646623
 12
160.8471793074
 22
30.9809646623
 13
160.8471793074
 23
30.9809646623
  0
SOLID
  8
0
 62
7
  6
CONTINUOUS
 10
160.615929528
 20
30.9164372091
 11
160.8471793074
 21
30.9809646623
 12
160.6737418074
 22
30.8519089441
 13
160.6737418074
 23
30.8519089441
  0
SOLID
  8
0
 62
7
  6
CONTINUOUS
 10
160.8471793074
 20
30.9809646623
 11
160.9628038663
 21
30.8519089441
 12
160.6737418074
 22
30.8519089441
 13
160.6737418074
 23
30.8519089441
  0
SOLID
  8
0
 62
7
  6
CONTINUOUS
 10
160.615929528
 20
30.7873818593
 11
160.6737418074
 21
30.8519089441
 12
160.9628038663
 22
30.8519089441
 13
160.9628038663
 23
30.8519089441
  0
SOLID
  8
0
 62
7
  6
CONTINUOUS
 10
160.9628038663
 20
30.8519089441
 11
160.9628038663
 21
30.7873818593
 12
160.615929528
 22
30.7873818593
 13
160.615929528
 23
30.7873818593
  0
SOLID
  8
0
 62
7
  6
CONTINUOUS
 10
160.5003043074
 20
30.7551187255
 11
160.615929528
 21
30.7873818593
 12
160.9628038663
 22
30.7873818593
 13
160.9628038663
 23
30.7873818593
  0
SOLID
  8
0
 62
7
  6
CONTINUOUS
 10
160.5003043074
 20
30.7551187255
 11
160.9628038663
 21
30.7873818593
 12
160.269054528
 22
30.7228547745
 13
160.269054528
 23
30.7228547745
  0
SOLID
  8
0
 62
7
  6
CONTINUOUS
 10
160.9628038663
 20
30.7873818593
 11
160.8471793074
 21
30.6905916353
 12
160.269054528
 22
30.7228547745
 13
160.269054528
 23
30.7228547745
  0
SOLID
  8
0
 62
7
  6
CONTINUOUS
 10
160.8471793074
 20
30.6905916353
 11
159.401867028
 21
30.658327332
 12
160.269054528
 22
30.7228547745
 13
160.269054528
 23
30.7228547745
  0
SOLID
  8
0
 62
7
  6
CONTINUOUS
 10
160.269054528
 20
30.7228547745
 11
159.401867028
 21
30.658327332
 12
159.922179528
 22
30.7228547745
 13
159.922179528
 23
30.7228547745
  0
SOLID
  8
0
 62
7
  6
CONTINUOUS
 10
159.401867028
 20
30.658327332
 11
159.228429528
 21
30.7228547745
 12
159.922179528
 22
30.7228547745
 13
159.922179528
 23
30.7228547745
  0
SOLID
  8
0
 62
7
  6
CONTINUOUS
 10
159.401867028
 20
30.658327332
 11
160.8471793074
 21
30.6905916353
 12
159.575304528
 22
30.6260629858
 13
159.575304528
 23
30.6260629858
  0
SOLID
  8
0
 62
7
  6
CONTINUOUS
 10
160.8471793074
 20
30.6905916353
 11
160.615929528
 21
30.6260629858
 12
159.575304528
 22
30.6260629858
 13
159.575304528
 23
30.6260629858
  0
SOLID
  8
0
 62
7
  6
CONTINUOUS
 10
159.922179528
 20
30.5938006049
 11
159.575304528
 21
30.6260629858
 12
160.615929528
 22
30.6260629858
 13
160.615929528
 23
30.6260629858
  0
SOLID
  8
0
 62
7
  6
CONTINUOUS
 10
160.615929528
 20
30.6260629858
 11
160.269054528
 21
30.5938006049
 12
159.922179528
 22
30.5938006049
 13
159.922179528
 23
30.5938006049
  0
SOLID
  8
0
 62
7
  6
CONTINUOUS
 10
149.5737418074
 20
31.1100184796
 11
149.9206168074
 21
31.2713369632
 12
149.8628043005
 22
31.1422827828
 13
149.8628043005
 23
31.1422827828
  0
SOLID
  8
0
 62
7
  6
CONTINUOUS
 10
149.8628043005
 20
31.1422827828
 11
149.8628043005
 21
31.0454914852
 12
149.5737418074
 22
31.1100184796
 13
149.5737418074
 23
31.1100184796
  0
SOLID
  8
0
 62
7
  6
CONTINUOUS
 10
149.6315543091
 20
30.9164372091
 11
149.5737418074
 21
31.1100184796
 12
149.8628043005
 22
31.0454914852
 13
149.8628043005
 23
31.0454914852
  0
SOLID
  8
0
 62
7
  6
CONTINUOUS
 10
149.8628043005
 20
31.0454914852
 11
149.9784292936
 21
30.8841729058
 12
149.6315543091
 22
30.9164372091
 13
149.6315543091
 23
30.9164372091
  0
SOLID
  8
0
 62
7
  6
CONTINUOUS
 10
149.7471793074
 20
30.7873813202
 11
149.6315543091
 21
30.9164372091
 12
149.9784292936
 22
30.8841729058
 13
149.9784292936
 23
30.8841729058
  0
SOLID
  8
0
 62
7
  6
CONTINUOUS
 10
149.9784292936
 20
30.8841729058
 11
150.1518667936
 21
30.7873813202
 12
149.7471793074
 22
30.7873813202
 13
149.7471793074
 23
30.7873813202
  0
SOLID
  8
0
 62
7
  6
CONTINUOUS
 10
149.8628043005
 20
30.7228547004
 11
149.7471793074
 21
30.7873813202
 12
150.1518667936
 22
30.7873813202
 13
150.1518667936
 23
30.7873813202
  0
SOLID
  8
0
 62
7
  6
CONTINUOUS
 10
150.1518667936
 20
30.7873813202
 11
150.498741835
 21
30.7228547004
 12
149.8628043005
 22
30.7228547004
 13
149.8628043005
 23
30.7228547004
  0
SOLID
  8
0
 62
7
  6
CONTINUOUS
 10
150.0362418212
 20
30.658327332
 11
149.8628043005
 21
30.7228547004
 12
150.498741835
 22
30.7228547004
 13
150.498741835
 23
30.7228547004
  0
SOLID
  8
0
 62
7
  6
CONTINUOUS
 10
154.0831168074
 20
31.1100184386
 11
154.1987416972
 21
31.1745462761
 12
154.7768668074
 22
31.1422827828
 13
154.7768668074
 23
31.1422827828
  0
SOLID
  8
0
 62
7
  6
CONTINUOUS
 10
154.7768668074
 20
31.1422827828
 11
154.5456166972
 21
31.1100184386
 12
154.0831168074
 22
31.1100184386
 13
154.0831168074
 23
31.1100184386
  0
SOLID
  8
0
 62
7
  6
CONTINUOUS
 10
153.9674919177
 20
30.9809642992
 11
154.0831168074
 21
31.1100184386
 12
154.5456166972
 22
31.1100184386
 13
154.5456166972
 23
31.1100184386
  0
SOLID
  8
0
 62
7
  6
CONTINUOUS
 10
154.3143669177
 20
31.0132277988
 11
153.9674919177
 21
30.9809642992
 12
154.4299918074
 22
31.0777556927
 13
154.4299918074
 23
31.0777556927
  0
SOLID
  8
0
 62
7
  6
CONTINUOUS
 10
153.9674919177
 20
30.9809642992
 11
154.5456166972
 21
31.1100184796
 12
154.4299918074
 22
31.0777556927
 13
154.4299918074
 23
31.0777556927
  0
SOLID
  8
0
 62
7
  6
CONTINUOUS
 10
154.3143669177
 20
31.0132277988
 11
154.2565543074
 21
30.9164372091
 12
153.9674919177
 22
30.9809642992
 13
153.9674919177
 23
30.9809642992
  0
SOLID
  8
0
 62
7
  6
CONTINUOUS
 10
153.9674919177
 20
30.8841729058
 11
153.9674919177
 21
30.9809642992
 12
154.2565543074
 22
30.9164372091
 13
154.2565543074
 23
30.9164372091
  0
SOLID
  8
0
 62
7
  6
CONTINUOUS
 10
154.2565543074
 20
30.9164372091
 11
154.2565543074
 21
30.8519086025
 12
153.9674919177
 22
30.8841729058
 13
153.9674919177
 23
30.8841729058
  0
SOLID
  8
0
 62
7
  6
CONTINUOUS
 10
154.0253041972
 20
30.7551187255
 11
153.9674919177
 21
30.8841729058
 12
154.2565543074
 22
30.8519086025
 13
154.2565543074
 23
30.8519086025
  0
SOLID
  8
0
 62
7
  6
CONTINUOUS
 10
155.412804528
 20
30.9487004259
 11
155.7018665869
 21
30.8519086025
 12
155.3549915869
 22
30.8841729058
 13
155.3549915869
 23
30.8841729058
  0
SOLID
  8
0
 62
7
  6
CONTINUOUS
 10
155.1815540869
 20
30.7873815123
 11
155.3549915869
 21
30.8841729058
 12
155.7018665869
 22
30.8519086025
 13
155.7018665869
 23
30.8519086025
  0
SOLID
  8
0
 62
7
  6
CONTINUOUS
 10
155.1815540869
 20
30.7873815123
 11
155.7018665869
 21
30.8519086025
 12
155.412804528
 22
30.7551187255
 13
155.412804528
 23
30.7551187255
  0
SOLID
  8
0
 62
7
  6
CONTINUOUS
 10
155.7018665869
 20
30.8519086025
 11
155.759679528
 21
30.6905916353
 12
155.412804528
 22
30.7551187255
 13
155.412804528
 23
30.7551187255
  0
SOLID
  8
0
 62
7
  6
CONTINUOUS
 10
155.4706168074
 20
30.658327332
 11
155.412804528
 21
30.7551187255
 12
155.759679528
 22
30.6905916353
 13
155.759679528
 23
30.6905916353
  0
SOLID
  8
0
 62
7
  6
CONTINUOUS
 10
155.4706168074
 20
30.658327332
 11
155.759679528
 21
30.6905916353
 12
155.5284290869
 22
30.5938002079
 13
155.5284290869
 23
30.5938002079
  0
SOLID
  8
0
 62
7
  6
CONTINUOUS
 10
155.759679528
 20
30.6905916353
 11
155.8174918074
 21
30.5938002079
 12
155.5284290869
 22
30.5938002079
 13
155.5284290869
 23
30.5938002079
  0
SOLID
  8
0
 62
7
  6
CONTINUOUS
 10
151.0768668626
 20
30.8196456577
 11
151.1346793074
 21
30.9164373395
 12
151.4237418626
 22
30.9164373395
 13
151.4237418626
 23
30.9164373395
  0
SOLID
  8
0
 62
7
  6
CONTINUOUS
 10
151.4237418626
 20
30.9164373395
 11
151.3659292523
 21
30.7873815123
 12
151.0768668626
 22
30.8196456577
 13
151.0768668626
 23
30.8196456577
  0
SOLID
  8
0
 62
7
  6
CONTINUOUS
 10
150.9034292799
 20
30.7551187255
 11
151.0768668626
 21
30.8196456577
 12
151.3659292523
 22
30.7873815123
 13
151.3659292523
 23
30.7873815123
  0
SOLID
  8
0
 62
7
  6
CONTINUOUS
 10
150.9034292799
 20
30.7551187255
 11
151.3659292523
 21
30.7873815123
 12
150.498741835
 22
30.7228544222
 13
150.498741835
 23
30.7228544222
  0
SOLID
  8
0
 62
7
  6
CONTINUOUS
 10
151.3659292523
 20
30.7873815123
 11
151.1924917523
 21
30.6905916353
 12
150.498741835
 22
30.7228544222
 13
150.498741835
 23
30.7228544222
  0
SOLID
  8
0
 62
7
  6
CONTINUOUS
 10
150.0362418212
 20
30.658327332
 11
150.498741835
 21
30.7228544222
 12
151.1924917523
 22
30.6905916353
 13
151.1924917523
 23
30.6905916353
  0
SOLID
  8
0
 62
7
  6
CONTINUOUS
 10
150.0362418212
 20
30.658327332
 11
151.1924917523
 21
30.6905916353
 12
150.2096793212
 22
30.6260631011
 13
150.2096793212
 23
30.6260631011
  0
SOLID
  8
0
 62
7
  6
CONTINUOUS
 10
151.1924917523
 20
30.6905916353
 11
150.9612418074
 21
30.6260631011
 12
150.2096793212
 22
30.6260631011
 13
150.2096793212
 23
30.6260631011
  0
SOLID
  8
0
 62
7
  6
CONTINUOUS
 10
150.5565542799
 20
30.5938002419
 11
150.2096793212
 21
30.6260631011
 12
150.9612418074
 22
30.6260631011
 13
150.9612418074
 23
30.6260631011
  0
SOLID
  8
0
 62
7
  6
CONTINUOUS
 10
154.0253041972
 20
30.7551187255
 11
154.2565543074
 21
30.8519086025
 12
154.3143669177
 22
30.7873815123
 13
154.3143669177
 23
30.7873815123
  0
SOLID
  8
0
 62
7
  6
CONTINUOUS
 10
154.3143669177
 20
30.7873815123
 11
154.5456166972
 21
30.7228544222
 12
154.0253041972
 22
30.7551187255
 13
154.0253041972
 23
30.7551187255
  0
SOLID
  8
0
 62
7
  6
CONTINUOUS
 10
154.1987416972
 20
30.658327332
 11
154.0253041972
 21
30.7551187255
 12
154.5456166972
 22
30.7228544222
 13
154.5456166972
 23
30.7228544222
  0
SOLID
  8
0
 62
7
  6
CONTINUOUS
 10
154.8924916972
 20
30.7228544637
 11
155.1815540869
 21
30.7873815123
 12
155.412804528
 22
30.7551187255
 13
155.412804528
 23
30.7551187255
  0
SOLID
  8
0
 62
7
  6
CONTINUOUS
 10
155.412804528
 20
30.7551187255
 11
155.3549915869
 21
30.6905916353
 12
154.8924916972
 22
30.7228544637
 13
154.8924916972
 23
30.7228544637
  0
SOLID
  8
0
 62
7
  6
CONTINUOUS
 10
155.3549915869
 20
30.6905916353
 11
154.1987416972
 21
30.658327332
 12
154.8924916972
 22
30.7228544637
 13
154.8924916972
 23
30.7228544637
  0
SOLID
  8
0
 62
7
  6
CONTINUOUS
 10
154.1987416972
 20
30.658327332
 11
154.5456166972
 21
30.7228544637
 12
154.8924916972
 22
30.7228544637
 13
154.8924916972
 23
30.7228544637
  0
SOLID
  8
0
 62
7
  6
CONTINUOUS
 10
154.1987416972
 20
30.658327332
 11
155.3549915869
 21
30.6905916353
 12
154.3143669177
 22
30.6260630541
 13
154.3143669177
 23
30.6260630541
  0
SOLID
  8
0
 62
7
  6
CONTINUOUS
 10
155.3549915869
 20
30.6905916353
 11
155.1815540869
 21
30.6260630541
 12
154.3143669177
 22
30.6260630541
 13
154.3143669177
 23
30.6260630541
  0
SOLID
  8
0
 62
7
  6
CONTINUOUS
 10
154.5456166972
 20
30.5938002188
 11
154.3143669177
 21
30.6260630541
 12
155.1815540869
 22
30.6260630541
 13
155.1815540869
 23
30.6260630541
  0
SOLID
  8
0
 62
7
  6
CONTINUOUS
 10
155.1815540869
 20
30.6260630541
 11
154.8924916972
 21
30.5938002188
 12
154.5456166972
 22
30.5938002188
 13
154.5456166972
 23
30.5938002188
  0
SOLID
  8
0
 62
7
  6
CONTINUOUS
 10
159.575304528
 20
30.7551187255
 11
159.228429528
 21
30.7228544637
 12
159.4596793074
 22
30.7873815123
 13
159.4596793074
 23
30.7873815123
  0
SOLID
  8
0
 62
7
  6
CONTINUOUS
 10
159.4596793074
 20
30.7873815123
 11
159.228429528
 21
30.7228544637
 12
159.401867028
 22
30.851908644
 13
159.401867028
 23
30.851908644
  0
SOLID
  8
0
 62
7
  6
CONTINUOUS
 10
159.228429528
 20
30.7228544637
 11
159.1128043074
 21
30.851908644
 12
159.401867028
 22
30.851908644
 13
159.401867028
 23
30.851908644
  0
SOLID
  8
0
 62
7
  6
CONTINUOUS
 10
159.575304528
 20
30.7551187255
 11
159.922179528
 21
30.7228544637
 12
159.228429528
 22
30.7228544637
 13
159.228429528
 23
30.7228544637
  0
SOLID
  8
0
 62
7
  6
CONTINUOUS
 10
156.279992028
 20
30.5938002419
 11
156.279992028
 21
31.6262382337
 12
156.5690540869
 22
30.5938002419
 13
156.5690540869
 23
31.6262382337
  0
ENDBLK
  8
0
  6
BYBLOCK
 62
0
  0
BLOCK
  8
0
 62
2
  6
CONTINUOUS
  2
AMMEAAL_LOGO_BL0
 70
64
 10
32.1213064866
 20
19.8534310916
  0
TEXT
  8
0
 62
7
  6
CONTINUOUS
 10
18.3860103289
 20
19.2268451992
  7
TEXTSTYLE_3
 40
2.7338706658
  1
Ammeraal Beltech
 41
1.0
 51
15.0
 72
0
  0
TEXT
  8
0
 62
7
  6
CONTINUOUS
 10
29.1868111546
 20
16.9533085264
  7
TEXTSTYLE_4
 40
1.0935482663
  1
Innovation & Service in Belting
 41
1.0
 72
0
  0
LINE
  8
0
 62
7
  6
CONTINUOUS
 10
12.3614696776
 20
19.9934385078
 11
13.1396216709
 21
23.6543558055
  0
LINE
  8
0
 62
7
  6
CONTINUOUS
 10
23.2347899607
 20
27.3177497171
 11
13.6274394139
 21
24.1961322958
  0
LINE
  8
0
 62
7
  6
CONTINUOUS
 10
12.5867530099
 20
19.3000877048
 11
20.093828271
 21
12.5406867788
  0
LINE
  8
0
 62
7
  6
CONTINUOUS
 10
12.8492874206
 20
20.5352149982
 11
23.6575567857
 21
24.0470345971
  0
LINE
  8
0
 62
7
  6
CONTINUOUS
 10
23.6533516486
 20
13.6972460334
 11
15.2078919798
 21
21.3015720751
  0
LINE
  8
0
 62
7
  6
CONTINUOUS
 10
24.1731743684
 20
26.4728246013
 11
23.1966148312
 21
21.8784731989
  0
LINE
  8
0
 62
7
  6
CONTINUOUS
 10
22.4968128835
 20
18.5861638851
 11
21.810364672
 21
15.3566789607
  0
LINE
  8
0
 62
7
  6
CONTINUOUS
 10
24.8542704669
 20
14.087448211
 11
25.8105020025
 21
18.5861638851
  0
LINE
  8
0
 62
7
  6
CONTINUOUS
 10
26.5103039502
 20
21.8784731989
 11
26.9545457526
 21
23.9684665583
  0
LINE
  8
0
 62
7
  6
CONTINUOUS
 10
20.8069293463
 20
12.3891124661
 11
24.3664527239
 21
13.5456717207
  0
LINE
  8
0
 62
7
  6
CONTINUOUS
 10
23.9478910361
 20
27.1661754044
 11
26.7292624203
 21
24.6618173613
  0
ARC
  8
0
 62
7
  6
CONTINUOUS
 10
13.8527227462
 20
23.5027814928
 40
0.7290321776
 50
108.0
 51
168.0
  0
ARC
  8
0
 62
7
  6
CONTINUOUS
 10
23.4600732931
 20
26.624398914
 40
0.7290321776
 50
348.0
 51
108.0
  0
ARC
  8
0
 62
7
  6
CONTINUOUS
 10
26.2414446773
 20
24.120040871
 40
0.7290321776
 50
348.0
 51
48.0
  0
ARC
  8
0
 62
7
  6
CONTINUOUS
 10
20.581646014
 20
13.0824632691
 40
0.7290321776
 50
228.0
 51
288.0
  0
ARC
  8
0
 62
7
  6
CONTINUOUS
 10
13.0745707529
 20
19.8418641951
 40
0.7290321776
 50
108.0
 51
228.0
  0
ARC
  8
0
 62
7
  6
CONTINUOUS
 10
24.1411693916
 20
14.2390225237
 40
0.7290321776
 50
228.0
 51
348.0
  0
ENDBLK
  8
0
  6
BYBLOCK
 62
0
  0
ENDSEC
  0
SECTION
  2
ENTITIES
  0
TEXT
  8
0
 62
5
  6
CONTINUOUS
 10
96.0
 20
25.636
  7
TEXTSTYLE_2
 40
2.8
  1
Scale :
 41
0.6
 51
0.000019
 72
0
  0
TEXT
  8
0
 62
5
  6
CONTINUOUS
 10
116.0
 20
25.636
  7
TEXTSTYLE_2
 40
2.8
  1
Belt type:
 41
0.6
 51
0.000019
 72
0
  0
INSERT
  8
0
 62
2
  6
CONTINUOUS
  2
AMMEAAL_LOGO_BL0
 10
32.1213064866
 20
19.8534310916
  0
INSERT
  8
0
 62
2
  6
CONTINUOUS
  2
UNI_LOGO2_BL1
 10
173.5956734183
 20
35.5937998301
  0
LINE
  8
0
 62
2
  6
CONTINUOUS
 10
10.0
 20
30.0
 11
200.0
 21
30.0
  0
LINE
  8
0
 62
2
  6
CONTINUOUS
 10
10.0
 20
30.0
 11
10.0
 21
10.0
  0
LINE
  8
0
 62
2
  6
CONTINUOUS
 10
10.0
 20
10.0
 11
200.0
 21
10.0
  0
LINE
  8
0
 62
2
  6
CONTINUOUS
 10
95.0
 20
30.0
 11
95.0
 21
10.0
  0
LINE
  8
0
 62
2
  6
CONTINUOUS
 10
115.0
 20
30.0
 11
115.0
 21
10.0
  0
LINE
  8
0
 62
2
  6
CONTINUOUS
 10
200.0
 20
30.0
 11
200.0
 21
10.0
  0
TEXT
  8
0
 62
5
  6
CONTINUOUS
 10
13.0
 20
23.303
  7
TEXTSTYLE_5
 40
1.52
  1
                                                                     Ammeraal Beltech Modular A/S
 41
1.0
 72
0
  0
TEXT
  8
0
 62
5
  6
CONTINUOUS
 10
13.0
 20
20.595
  7
TEXTSTYLE_5
 40
1.5
  1
                                                                      Hjulmagervej 21,  7100 Vejle,  DK
 41
1.0
 72
0
  0
TEXT
  8
0
 62
5
  6
CONTINUOUS
 10
13.0
 20
17.881
  7
TEXTSTYLE_5
 40
1.495
  1
                                                                      tel: 
 41
1.0
 72
0
  0
TEXT
  8
0
 62
5
  6
CONTINUOUS
 10
57.9869465649
 20
17.881
  7
TEXTSTYLE_5
 40
1.51
  1
+45 75723100     fax: +45 75723348
 41
1.0
 72
0
  0
TEXT
  8
0
 62
5
  6
CONTINUOUS
 10
13.0
 20
15.177
  7
TEXTSTYLE_5
 40
1.5
  1
                                                                      admin@unichains.dk  www.unichains.com
 41
1.0
 72
0
  0
TEXT
  8
0
 62
5
  6
CONTINUOUS
 10
99.75
 20
13.75
  7
TEXTSTYLE_6
 40
5.0
  1
1:1
 41
0.7
 72
1
 11
105.0
 21
13.75
  0
TEXT
  8
0
 62
5
  6
CONTINUOUS
 10
118.0
 20
13.75
  7
TEXTSTYLE_7
 40
7.5
  1
Sprocket Z18 1,5" SQ
 41
0.47375
 72
0
  0
LINE
  8
0
 62
7
  6
CONTINUOUS
 10
210.0
 20
0.0
 11
0.0
 21
0.0
  0
LINE
  8
0
 62
7
  6
CONTINUOUS
 10
10.0
 20
10.0
 11
200.0
 21
10.0
  0
LINE
  8
0
 62
7
  6
CONTINUOUS
 10
10.0
 20
30.0
 11
200.0
 21
30.0
  0
LINE
  8
0
 62
7
  6
CONTINUOUS
 10
0.0
 20
0.0
 11
0.0
 21
297.0
  0
LINE
  8
0
 62
7
  6
CONTINUOUS
 10
10.0
 20
10.0
 11
10.0
 21
287.0
  0
LINE
  8
0
 62
7
  6
CONTINUOUS
 10
200.0
 20
287.0
 11
200.0
 21
10.0
  0
LINE
  8
0
 62
7
  6
CONTINUOUS
 10
210.0
 20
0.0
 11
210.0
 21
297.0
  0
LINE
  8
0
 62
7
  6
CONTINUOUS
 10
10.0
 20
287.0
 11
200.0
 21
287.0
  0
LINE
  8
0
 62
7
  6
CONTINUOUS
 10
0.0
 20
297.0
 11
210.0
 21
297.0
  0
LINE
  8
0
 62
7
  6
CONTINUOUS
 10
31.3528842493
 20
213.8626209745
 11
30.2389379086
 21
207.5451173441
  0
LINE
  8
0
 62
7
  6
CONTINUOUS
 10
41.0653612516
 20
237.2904710124
 11
37.857880598
 21
231.7349515562
  0
LINE
  8
0
 62
7
  6
CONTINUOUS
 10
58.2049008479
 20
255.9835860375
 11
53.2907553858
 21
251.8601283928
  0
LINE
  8
0
 62
7
  6
CONTINUOUS
 10
80.7042216103
 20
267.6873004969
 11
74.6761298074
 21
265.4932545112
  0
LINE
  8
0
 62
7
  6
CONTINUOUS
 10
105.8495734003
 20
125.0809240425
 11
99.4346120932
 21
125.0809240425
  0
LINE
  8
0
 62
7
  6
CONTINUOUS
 10
80.7042216103
 20
128.3835972439
 11
74.6761298074
 21
130.5776432296
  0
LINE
  8
0
 62
7
  6
CONTINUOUS
 10
58.2049008479
 20
140.0873117032
 11
53.2907553858
 21
144.210769348
  0
LINE
  8
0
 62
7
  6
CONTINUOUS
 10
37.857880598
 20
164.3359461846
 11
41.0653612516
 21
158.7804267284
  0
LINE
  8
0
 62
7
  6
CONTINUOUS
 10
30.2389379086
 20
188.5257803967
 11
31.3528842493
 21
182.2082767662
  0
LINE
  8
QUILTS
 62
7
  6
CONTINUOUS
 10
47.3130265227
 20
201.2685065974
 11
47.2963360009
 21
200.7479406639
  0
LINE
  8
QUILTS
 62
7
  6
CONTINUOUS
 10
47.2295739294
 20
198.6656774141
 11
47.2128834113
 21
198.1451115924
  0
LINE
  8
QUILTS
 62
7
  6
CONTINUOUS
 10
48.8883003608
 20
214.6452408853
 11
48.9160287067
 21
215.0743786886
  0
LINE
  8
QUILTS
 62
7
  6
CONTINUOUS
 10
47.6066599346
 20
204.4312476558
 11
47.5616756488
 21
204.01701621
  0
LINE
  8
QUILTS
 62
7
  6
CONTINUOUS
 10
47.4604610539
 20
203.0849959013
 11
47.4042307128
 21
202.5672067422
  0
LINE
  8
QUILTS
 62
7
  6
CONTINUOUS
 10
48.3090393053
 20
215.2718323369
 11
48.2490873712
 21
214.7436364679
  0
LINE
  8
QUILTS
 62
7
  6
CONTINUOUS
 10
46.386173956
 20
207.219098352
 11
46.3046092386
 21
206.7046915568
  0
LINE
  8
QUILTS
 62
7
  6
CONTINUOUS
 10
46.829960997
 20
206.6213913979
 11
46.9115257145
 21
207.1357981932
  0
LINE
  8
QUILTS
 62
7
  6
CONTINUOUS
 10
47.9622295258
 20
206.9691978289
 11
47.8806648083
 21
206.4547910336
  0
LINE
  8
QUILTS
 62
7
  6
CONTINUOUS
 10
48.5668261664
 20
216.0642911945
 11
48.3090393053
 21
215.2718323369
  0
LINE
  8
QUILTS
 62
7
  6
CONTINUOUS
 10
48.9160287067
 20
215.0743786886
 11
49.1738155679
 21
215.8668375462
  0
LINE
  8
QUILTS
 62
7
  6
CONTINUOUS
 10
51.2128371578
 20
222.7006459408
 11
50.9633297573
 21
222.1276092429
  0
LINE
  8
QUILTS
 62
7
  6
CONTINUOUS
 10
49.9237152713
 20
219.7399556065
 11
49.5494546464
 21
218.8804016527
  0
LINE
  8
QUILTS
 62
7
  6
CONTINUOUS
 10
53.0008408875
 20
226.0546270686
 11
51.7939353643
 21
223.8652483763
  0
LINE
  8
QUILTS
 62
7
  6
CONTINUOUS
 10
52.6546519829
 20
224.1044469951
 11
53.6101192391
 21
225.8377058224
  0
LINE
  8
QUILTS
 62
7
  6
CONTINUOUS
 10
54.9144300549
 20
225.1186982185
 11
53.9589627986
 21
223.3854393912
  0
LINE
  8
QUILTS
 62
7
  6
CONTINUOUS
 10
48.8291075322
 20
216.5266680472
 11
48.5668261664
 21
216.0642911945
  0
LINE
  8
QUILTS
 62
7
  6
CONTINUOUS
 10
49.1738155679
 20
215.8668375462
 11
49.4038737143
 21
216.2301574668
  0
LINE
  8
QUILTS
 62
7
  6
CONTINUOUS
 10
62.7778271242
 20
236.5146046911
 11
62.3434777354
 21
235.919340335
  0
LINE
  8
QUILTS
 62
7
  6
CONTINUOUS
 10
59.049577822
 20
234.7644683998
 11
57.4580340445
 21
232.8365191255
  0
LINE
  8
QUILTS
 62
7
  6
CONTINUOUS
 10
58.3481622981
 20
232.9121548897
 11
59.6081349612
 21
234.4384486781
  0
LINE
  8
QUILTS
 62
7
  6
CONTINUOUS
 10
60.7567005792
 20
233.4902948616
 11
59.4967279161
 21
231.9640010732
  0
LINE
  8
QUILTS
 62
7
  6
CONTINUOUS
 10
53.3454453451
 20
226.4593913457
 11
53.0008408875
 21
226.0546270686
  0
LINE
  8
QUILTS
 62
7
  6
CONTINUOUS
 10
63.2152586519
 20
236.9610144118
 11
62.7778271242
 21
236.5146046911
  0
LINE
  8
QUILTS
 62
7
  6
CONTINUOUS
 10
63.0817644617
 20
236.2167801417
 11
63.5191959895
 21
236.6631898624
  0
LINE
  8
QUILTS
 62
7
  6
CONTINUOUS
 10
62.5108420811
 20
235.0261395567
 11
62.8753680761
 21
235.3981473735
  0
LINE
  8
QUILTS
 62
7
  6
CONTINUOUS
 10
64.2956641476
 20
240.2091282326
 11
63.9119129001
 21
239.8569862202
  0
LINE
  8
QUILTS
 62
7
  6
CONTINUOUS
 10
65.4068135303
 20
241.1933195191
 11
65.0140230815
 21
240.8512892863
  0
LINE
  8
QUILTS
 62
7
  6
CONTINUOUS
 10
59.4631908391
 20
235.0984004653
 11
59.049577822
 21
234.7644683998
  0
LINE
  8
QUILTS
 62
7
  6
CONTINUOUS
 10
78.7331838784
 20
249.0785304489
 11
79.0683933239
 21
249.3479107069
  0
LINE
  8
QUILTS
 62
7
  6
CONTINUOUS
 10
78.848121385
 20
249.8320735509
 11
78.4180981514
 21
249.519557358
  0
LINE
  8
QUILTS
 62
7
  6
CONTINUOUS
 10
63.7286728454
 20
237.3329662923
 11
63.2152586519
 21
236.9610144118
  0
LINE
  8
QUILTS
 62
7
  6
CONTINUOUS
 10
74.1702239329
 20
247.4590561923
 11
70.6381769162
 21
245.2486847897
  0
LINE
  8
QUILTS
 62
7
  6
CONTINUOUS
 10
70.9203520628
 20
244.7977850523
 11
74.0108916867
 21
246.731859081
  0
LINE
  8
QUILTS
 62
7
  6
CONTINUOUS
 10
76.3138260989
 20
248.5944540062
 11
75.7626827353
 21
248.2997236333
  0
LINE
  8
QUILTS
 62
7
  6
CONTINUOUS
 10
79.2273808779
 20
250.0046192654
 11
78.848121385
 21
249.8320735509
  0
LINE
  8
QUILTS
 62
7
  6
CONTINUOUS
 10
79.0683933239
 20
249.3479107069
 11
79.4476528168
 21
249.5204564213
  0
LINE
  8
QUILTS
 62
7
  6
CONTINUOUS
 10
80.1525231447
 20
247.9711350492
 11
79.7732636518
 21
247.7985893347
  0
LINE
  8
QUILTS
 62
7
  6
CONTINUOUS
 10
79.9494812029
 20
247.4112590595
 11
80.3287406958
 21
247.583804774
  0
LINE
  8
QUILTS
 62
7
  6
CONTINUOUS
 10
52.7100926989
 20
215.0451053077
 11
52.7145875723
 21
214.7150244364
  0
LINE
  8
QUILTS
 62
7
  6
CONTINUOUS
 10
53.381528601
 20
215.0457655034
 11
53.3770337188
 21
215.3758463776
  0
LINE
  8
QUILTS
 62
7
  6
CONTINUOUS
 10
55.4956515545
 20
225.5119698644
 11
55.5030615915
 21
225.7457750685
  0
LINE
  8
QUILTS
 62
7
  6
CONTINUOUS
 10
50.2434865147
 20
199.7154667529
 11
50.2301340982
 21
199.2990140359
  0
LINE
  8
QUILTS
 62
7
  6
CONTINUOUS
 10
50.6554474471
 20
199.2853775275
 11
50.6687998636
 21
199.7018302445
  0
LINE
  8
QUILTS
 62
7
  6
CONTINUOUS
 10
50.7055190029
 20
200.84707503
 11
50.7222095246
 21
201.3676409635
  0
LINE
  8
QUILTS
 62
7
  6
CONTINUOUS
 10
50.7885880386
 20
202.1996757429
 11
50.8448183797
 21
202.717464902
  0
LINE
  8
QUILTS
 62
7
  6
CONTINUOUS
 10
51.0472475694
 20
204.5815055194
 11
51.1034778784
 21
205.0992943823
  0
LINE
  8
QUILTS
 62
7
  6
CONTINUOUS
 10
53.3215770446
 20
214.5175707651
 11
53.381528601
 21
215.0457655034
  0
LINE
  8
QUILTS
 62
7
  6
CONTINUOUS
 10
51.2429163569
 20
205.9216699704
 11
51.3244810744
 21
206.4360767657
  0
LINE
  8
QUILTS
 62
7
  6
CONTINUOUS
 10
54.9721282056
 20
225.4437282308
 11
54.9144300549
 21
225.1186982185
  0
LINE
  8
QUILTS
 62
7
  6
CONTINUOUS
 10
56.9285942336
 20
224.3652169328
 11
56.8708960828
 21
224.0401869206
  0
LINE
  8
QUILTS
 62
7
  6
CONTINUOUS
 10
61.4007076782
 20
233.769106403
 11
61.4512954356
 21
233.9974934887
  0
LINE
  8
QUILTS
 62
7
  6
CONTINUOUS
 10
50.5357666959
 20
198.8723340121
 11
50.6554474471
 21
199.2853775275
  0
LINE
  8
QUILTS
 62
7
  6
CONTINUOUS
 10
57.379598272
 20
223.6408160221
 11
57.5378726422
 21
224.1482956552
  0
LINE
  8
QUILTS
 62
7
  6
CONTINUOUS
 10
62.3434777354
 20
235.919340335
 11
62.2736510043
 21
235.6960803897
  0
LINE
  8
QUILTS
 62
7
  6
CONTINUOUS
 10
62.7963032714
 20
235.6214598492
 11
62.8661300025
 21
235.8447197944
  0
LINE
  8
QUILTS
 62
7
  6
CONTINUOUS
 10
63.3980203433
 20
235.3235268329
 11
63.2583685498
 21
234.8770086454
  0
LINE
  8
QUILTS
 62
7
  6
CONTINUOUS
 10
63.7779421217
 20
234.9512460419
 11
63.8477671841
 21
235.1745042842
  0
LINE
  8
QUILTS
 62
7
  6
CONTINUOUS
 10
52.2364913462
 20
215.3087069698
 11
52.0431512925
 21
214.71436311
  0
LINE
  8
QUILTS
 62
7
  6
CONTINUOUS
 10
52.7145875723
 20
214.7150244364
 11
52.4568007111
 21
213.9225655789
  0
LINE
  8
QUILTS
 62
7
  6
CONTINUOUS
 10
53.0637901834
 20
213.7251119075
 11
53.3215770446
 21
214.5175707651
  0
LINE
  8
QUILTS
 62
7
  6
CONTINUOUS
 10
53.6438103445
 20
215.5081434868
 11
53.8371503981
 21
216.1024873466
  0
LINE
  8
QUILTS
 62
7
  6
CONTINUOUS
 10
47.9847202774
 20
203.9710748391
 11
48.1354657204
 21
204.3738209422
  0
LINE
  8
QUILTS
 62
7
  6
CONTINUOUS
 10
60.8736031666
 20
233.7990137799
 11
60.7567005792
 21
233.4902948616
  0
LINE
  8
QUILTS
 62
7
  6
CONTINUOUS
 10
62.5964514212
 20
232.3767831975
 11
62.4795488339
 21
232.0680642791
  0
LINE
  8
QUILTS
 62
7
  6
CONTINUOUS
 10
65.4095664355
 20
235.2483586931
 11
65.1970091358
 21
234.7274385755
  0
LINE
  8
QUILTS
 62
7
  6
CONTINUOUS
 10
54.1337482293
 20
216.8843424487
 11
54.3832556298
 21
217.4573791465
  0
LINE
  8
QUILTS
 62
7
  6
CONTINUOUS
 10
55.4228696399
 20
219.8450316899
 11
55.7971307407
 21
220.7045867367
  0
LINE
  8
QUILTS
 62
7
  6
CONTINUOUS
 10
47.74615929
 20
204.7304357494
 11
47.6066599346
 21
204.4312476558
  0
LINE
  8
QUILTS
 62
7
  6
CONTINUOUS
 10
62.9054763706
 20
231.5813808447
 11
63.1550086107
 21
232.0507634343
  0
LINE
  8
QUILTS
 62
7
  6
CONTINUOUS
 10
54.5179530364
 20
223.0772933369
 11
55.4734202926
 21
224.8105521642
  0
LINE
  8
QUILTS
 62
7
  6
CONTINUOUS
 10
56.8708960828
 20
224.0401869206
 11
55.9154288266
 21
222.3069280932
  0
LINE
  8
QUILTS
 62
7
  6
CONTINUOUS
 10
56.1726927488
 20
221.4514373299
 11
57.379598272
 21
223.6408160221
  0
LINE
  8
QUILTS
 62
7
  6
CONTINUOUS
 10
52.80150844
 20
213.2627339241
 11
53.0637901834
 21
213.7251119075
  0
LINE
  8
QUILTS
 62
7
  6
CONTINUOUS
 10
62.8661300025
 20
235.8447197944
 11
63.0817644617
 21
236.2167801417
  0
LINE
  8
QUILTS
 62
7
  6
CONTINUOUS
 10
63.8477671841
 20
235.1745042842
 11
64.0634016434
 21
235.5465646315
  0
LINE
  8
QUILTS
 62
7
  6
CONTINUOUS
 10
52.4568007111
 20
213.9225655789
 11
52.2267425647
 21
213.5592456583
  0
LINE
  8
QUILTS
 62
7
  6
CONTINUOUS
 10
65.5009465
 20
234.429614
 11
65.789488154
 21
234.8760779606
  0
LINE
  8
QUILTS
 62
7
  6
CONTINUOUS
 10
48.1354657204
 20
204.3738209422
 11
48.2637189883
 21
204.5694510261
  0
LINE
  8
QUILTS
 62
7
  6
CONTINUOUS
 10
78.4180981514
 20
249.519557358
 11
78.0761836933
 21
249.0133760275
  0
LINE
  8
QUILTS
 62
7
  6
CONTINUOUS
 10
63.7594641993
 20
235.8443892852
 11
63.3980203433
 21
235.3235268329
  0
LINE
  8
QUILTS
 62
7
  6
CONTINUOUS
 10
79.1028491012
 20
247.2598307935
 11
78.9572715723
 21
247.0767243801
  0
LINE
  8
QUILTS
 62
7
  6
CONTINUOUS
 10
79.3231210401
 20
246.7756679495
 11
79.6142717574
 21
247.1418788016
  0
LINE
  8
QUILTS
 62
7
  6
CONTINUOUS
 10
80.9991552464
 20
248.1225633152
 11
81.1447284349
 21
248.3056677539
  0
LINE
  8
QUILTS
 62
7
  6
CONTINUOUS
 10
59.9889702253
 20
231.5576495189
 11
61.2489428885
 21
233.0839433073
  0
LINE
  8
QUILTS
 62
7
  6
CONTINUOUS
 10
62.4795488339
 20
232.0680642791
 11
61.2195761708
 21
230.5417704908
  0
LINE
  8
QUILTS
 62
7
  6
CONTINUOUS
 10
61.3139325931
 20
229.6534315704
 11
62.9054763706
 21
231.5813808447
  0
LINE
  8
QUILTS
 62
7
  6
CONTINUOUS
 10
64.5614200535
 20
236.6628051198
 11
63.7594641993
 21
235.8443892852
  0
LINE
  8
QUILTS
 62
7
  6
CONTINUOUS
 10
64.0634016434
 20
235.5465646315
 11
64.8653574975
 21
236.364980466
  0
LINE
  8
QUILTS
 62
7
  6
CONTINUOUS
 10
65.1970091358
 20
234.7274385755
 11
64.7595792767
 21
234.2810305577
  0
LINE
  8
QUILTS
 62
7
  6
CONTINUOUS
 10
65.0635166409
 20
233.9832059822
 11
65.5009465
 21
234.429614
  0
LINE
  8
QUILTS
 62
7
  6
CONTINUOUS
 10
66.3029023542
 20
235.2480298346
 11
66.6674250119
 21
235.6200342455
  0
LINE
  8
QUILTS
 62
7
  6
CONTINUOUS
 10
49.1603309477
 20
216.85708016
 11
48.8291075322
 21
216.5266680472
  0
LINE
  8
QUILTS
 62
7
  6
CONTINUOUS
 10
67.2924659021
 20
236.1729854872
 11
67.6762171496
 21
236.5251274996
  0
LINE
  8
QUILTS
 62
7
  6
CONTINUOUS
 10
53.6101192391
 20
225.8377058224
 11
53.8541474691
 21
226.0600204832
  0
LINE
  8
QUILTS
 62
7
  6
CONTINUOUS
 10
55.4734202926
 20
224.8105521642
 11
55.7174485226
 21
225.032866825
  0
LINE
  8
QUILTS
 62
7
  6
CONTINUOUS
 10
68.2975032956
 20
237.0805124852
 11
68.6902937444
 21
237.422542718
  0
LINE
  8
QUILTS
 62
7
  6
CONTINUOUS
 10
80.4877282498
 20
248.2405133325
 11
80.1525231447
 21
247.9711350492
  0
LINE
  8
QUILTS
 62
7
  6
CONTINUOUS
 10
79.6142717574
 20
247.1418788016
 11
79.9494812029
 21
247.4112590595
  0
LINE
  8
QUILTS
 62
7
  6
CONTINUOUS
 10
81.4128704857
 20
246.2070291841
 11
81.0776653806
 21
245.9376509009
  0
LINE
  8
QUILTS
 62
7
  6
CONTINUOUS
 10
81.3927511385
 20
245.496623924
 11
81.8227743682
 21
245.8091401253
  0
LINE
  8
QUILTS
 62
7
  6
CONTINUOUS
 10
55.6893916708
 20
225.6430597171
 11
55.4956515545
 21
225.5119698644
  0
LINE
  8
QUILTS
 62
7
  6
CONTINUOUS
 10
76.4840604123
 20
243.7616779035
 11
73.4818206502
 21
241.8828623378
  0
LINE
  8
QUILTS
 62
7
  6
CONTINUOUS
 10
73.2906236111
 20
241.0102267528
 11
76.8226706278
 21
243.2205981554
  0
LINE
  8
QUILTS
 62
7
  6
CONTINUOUS
 10
59.6081349612
 20
234.4384486781
 11
59.8891183183
 21
234.6117170783
  0
LINE
  8
QUILTS
 62
7
  6
CONTINUOUS
 10
61.2489428885
 20
233.0839433073
 11
61.5299262455
 21
233.2572117075
  0
LINE
  8
QUILTS
 62
7
  6
CONTINUOUS
 10
63.5191959895
 20
236.6631898624
 11
63.8867991175
 21
236.886337935
  0
LINE
  8
QUILTS
 62
7
  6
CONTINUOUS
 10
64.6959118376
 20
233.7600562132
 11
65.0635166409
 21
233.9832059822
  0
LINE
  8
QUILTS
 62
7
  6
CONTINUOUS
 10
78.1205257188
 20
243.8905767242
 11
78.6716690824
 21
244.1853070972
  0
LINE
  8
QUILTS
 62
7
  6
CONTINUOUS
 10
81.0776653806
 20
245.9376509009
 11
80.6984058877
 21
245.7651051864
  0
LINE
  8
QUILTS
 62
7
  6
CONTINUOUS
 10
80.823859729
 20
245.2378043649
 11
81.3927511385
 21
245.496623924
  0
LINE
  8
QUILTS
 62
7
  6
CONTINUOUS
 10
61.6153762053
 20
233.8620429706
 11
61.4007076782
 21
233.769106403
  0
LINE
  8
QUILTS
 62
7
  6
CONTINUOUS
 10
63.8867991175
 20
236.886337935
 11
64.1085945174
 21
236.9606856055
  0
LINE
  8
QUILTS
 62
7
  6
CONTINUOUS
 10
50.1505105612
 20
200.1353284489
 11
50.2434865147
 21
199.7154667529
  0
LINE
  8
QUILTS
 62
7
  6
CONTINUOUS
 10
50.6687998636
 20
199.7018302445
 11
50.575823938
 21
200.1216919396
  0
LINE
  8
QUILTS
 62
7
  6
CONTINUOUS
 10
48.2490873712
 20
214.7436364679
 11
48.3225239255
 21
214.2815897231
  0
LINE
  8
QUILTS
 62
7
  6
CONTINUOUS
 10
47.5616756488
 20
204.01701621
 11
47.6224525201
 21
203.5912994215
  0
LINE
  8
QUILTS
 62
7
  6
CONTINUOUS
 10
48.0454971488
 20
203.5453580506
 11
47.9847202774
 21
203.9710748391
  0
LINE
  8
QUILTS
 62
7
  6
CONTINUOUS
 10
63.1550086107
 20
232.0507634343
 11
63.174143719
 21
232.5752628825
  0
LINE
  8
QUILTS
 62
7
  6
CONTINUOUS
 10
65.789488154
 20
234.8760779606
 11
65.8562343948
 21
235.2481942638
  0
LINE
  8
QUILTS
 62
7
  6
CONTINUOUS
 10
78.0761836933
 20
249.0133760275
 11
77.9239011519
 21
248.5934685415
  0
LINE
  8
QUILTS
 62
7
  6
CONTINUOUS
 10
78.4860875489
 20
248.615487028
 11
78.7331838784
 21
249.0785304489
  0
LINE
  8
QUILTS
 62
7
  6
CONTINUOUS
 10
78.9572715723
 20
247.0767243801
 11
78.7101752427
 21
246.6136809592
  0
LINE
  8
QUILTS
 62
7
  6
CONTINUOUS
 10
80.7348289197
 20
248.703558728
 11
80.4877282498
 21
248.2405133325
  0
LINE
  8
QUILTS
 62
7
  6
CONTINUOUS
 10
50.2301340982
 20
199.2990140359
 11
50.0041249911
 21
198.8893796482
  0
LINE
  8
QUILTS
 62
7
  6
CONTINUOUS
 10
81.8227743682
 20
245.8091401253
 11
82.1646888147
 21
246.3153214813
  0
LINE
  8
QUILTS
 62
7
  6
CONTINUOUS
 10
50.3130956998
 20
198.5668127289
 11
50.5357666959
 21
198.8723340121
  0
LINE
  8
QUILTS
 62
7
  6
CONTINUOUS
 10
81.7040255434
 20
246.5732420109
 11
81.4128704857
 21
246.2070291841
  0
LINE
  8
QUILTS
 62
7
  6
CONTINUOUS
 10
47.9914198026
 20
205.0181385001
 11
47.74615929
 21
204.7304357494
  0
LINE
  8
QUILTS
 62
7
  6
CONTINUOUS
 10
52.4702853668
 20
212.9323229536
 11
52.80150844
 21
213.2627339241
  0
LINE
  8
QUILTS
 62
7
  6
CONTINUOUS
 10
49.4038737143
 20
216.2301574668
 11
49.7028735417
 21
216.4615115139
  0
LINE
  8
QUILTS
 62
7
  6
CONTINUOUS
 10
52.2267425647
 20
213.5592456583
 11
51.9277426665
 21
213.3278916342
  0
LINE
  8
QUILTS
 62
7
  6
CONTINUOUS
 10
49.6938837948
 20
217.1216732565
 11
49.1603309477
 21
216.85708016
  0
LINE
  8
QUILTS
 62
7
  6
CONTINUOUS
 10
53.8260906172
 20
226.6702133753
 11
53.3454453451
 21
226.4593913457
  0
LINE
  8
QUILTS
 62
7
  6
CONTINUOUS
 10
64.7595792767
 20
234.2810305577
 11
64.315990119
 21
234.1323369456
  0
LINE
  8
QUILTS
 62
7
  6
CONTINUOUS
 10
64.4741180997
 20
233.6857102521
 11
64.6959118376
 21
233.7600562132
  0
LINE
  8
QUILTS
 62
7
  6
CONTINUOUS
 10
49.9478682165
 20
200.454486203
 11
50.1505105612
 21
200.1353284489
  0
LINE
  8
QUILTS
 62
7
  6
CONTINUOUS
 10
47.6224525201
 20
203.5912994215
 11
47.8002366684
 21
203.2576555961
  0
LINE
  8
QUILTS
 62
7
  6
CONTINUOUS
 10
48.2232812971
 20
203.2117142252
 11
48.0454971488
 21
203.5453580506
  0
LINE
  8
QUILTS
 62
7
  6
CONTINUOUS
 10
48.3225239255
 20
214.2815897231
 11
48.5982902803
 21
213.7537250956
  0
LINE
  8
QUILTS
 62
7
  6
CONTINUOUS
 10
50.575823938
 20
200.1216919396
 11
50.4761718114
 21
200.3333274997
  0
LINE
  8
QUILTS
 62
7
  6
CONTINUOUS
 10
48.9939601344
 20
214.2822510726
 11
48.8883003608
 21
214.6452408853
  0
LINE
  8
QUILTS
 62
7
  6
CONTINUOUS
 10
57.5378726422
 20
224.1482956552
 11
57.4595276521
 21
224.6672637526
  0
LINE
  8
QUILTS
 62
7
  6
CONTINUOUS
 10
60.842150539
 20
234.0951261247
 11
60.8736031666
 21
233.7990137799
  0
LINE
  8
QUILTS
 62
7
  6
CONTINUOUS
 10
62.5649987362
 20
232.6728955897
 11
62.5964514212
 21
232.3767831975
  0
LINE
  8
QUILTS
 62
7
  6
CONTINUOUS
 10
62.2736510043
 20
235.6960803897
 11
62.2798102763
 21
235.39836601
  0
LINE
  8
QUILTS
 62
7
  6
CONTINUOUS
 10
63.2583685498
 20
234.8770086454
 11
63.2645279282
 21
234.5792941614
  0
LINE
  8
QUILTS
 62
7
  6
CONTINUOUS
 10
63.784099725
 20
234.6535299593
 11
63.7779421217
 21
234.9512460419
  0
LINE
  8
QUILTS
 62
7
  6
CONTINUOUS
 10
65.4003283086
 20
235.6949311662
 11
65.4095664355
 21
235.2483586931
  0
LINE
  8
QUILTS
 62
7
  6
CONTINUOUS
 10
75.7626827353
 20
248.2997236333
 11
75.5627074337
 21
247.3483118841
  0
LINE
  8
QUILTS
 62
7
  6
CONTINUOUS
 10
75.9640425023
 20
246.5978186198
 11
76.1640176634
 21
247.5492306318
  0
LINE
  8
QUILTS
 62
7
  6
CONTINUOUS
 10
73.4818206502
 20
241.8828623378
 11
74.5652691382
 21
246.82779656
  0
LINE
  8
QUILTS
 62
7
  6
CONTINUOUS
 10
74.0108916867
 20
246.731859081
 11
72.8391433369
 21
241.7316663959
  0
LINE
  8
QUILTS
 62
7
  6
CONTINUOUS
 10
81.1447284349
 20
248.3056677539
 11
81.2970109764
 21
248.7255752399
  0
LINE
  8
QUILTS
 62
7
  6
CONTINUOUS
 10
82.1646888147
 20
246.3153214813
 11
82.3169713407
 21
246.7352290011
  0
LINE
  8
QUILTS
 62
7
  6
CONTINUOUS
 10
49.9840963682
 20
198.2647006285
 11
50.3130956998
 21
198.5668127289
  0
LINE
  8
QUILTS
 62
7
  6
CONTINUOUS
 10
48.2254342277
 20
205.2022832413
 11
47.9914198026
 21
205.0181385001
  0
LINE
  8
QUILTS
 62
7
  6
CONTINUOUS
 10
48.2637189883
 20
204.5694510261
 11
48.4977334134
 21
204.7535957673
  0
LINE
  8
QUILTS
 62
7
  6
CONTINUOUS
 10
53.8371503981
 20
216.1024873466
 11
53.1702089918
 21
215.7717451489
  0
LINE
  8
QUILTS
 62
7
  6
CONTINUOUS
 10
52.6366560738
 20
215.5071520755
 11
52.2364913462
 21
215.3087069698
  0
LINE
  8
QUILTS
 62
7
  6
CONTINUOUS
 10
53.3770337188
 20
215.3758463776
 11
53.6438103445
 21
215.5081434868
  0
LINE
  8
QUILTS
 62
7
  6
CONTINUOUS
 10
52.0431512925
 20
214.71436311
 11
52.7100926989
 21
215.0451053077
  0
LINE
  8
QUILTS
 62
7
  6
CONTINUOUS
 10
51.9367324842
 20
212.6677298686
 11
52.4702853668
 21
212.9323229536
  0
LINE
  8
QUILTS
 62
7
  6
CONTINUOUS
 10
50.4761718114
 20
200.3333274997
 11
50.1672010782
 21
200.6558942334
  0
LINE
  8
QUILTS
 62
7
  6
CONTINUOUS
 10
47.8002366684
 20
203.2576555961
 11
47.9892668398
 21
203.0275691877
  0
LINE
  8
QUILTS
 62
7
  6
CONTINUOUS
 10
48.4123114685
 20
202.9816278168
 11
48.2232812971
 21
203.2117142252
  0
LINE
  8
QUILTS
 62
7
  6
CONTINUOUS
 10
53.1702089918
 20
215.7717451489
 11
53.0323259988
 21
216.0356780295
  0
LINE
  8
QUILTS
 62
7
  6
CONTINUOUS
 10
54.886373203
 20
225.7288911106
 11
54.9721282056
 21
225.4437282308
  0
LINE
  8
QUILTS
 62
7
  6
CONTINUOUS
 10
56.8428391657
 20
224.6503798486
 11
56.9285942336
 21
224.3652169328
  0
LINE
  8
QUILTS
 62
7
  6
CONTINUOUS
 10
78.428618919
 20
248.2387152058
 11
78.4860875489
 21
248.615487028
  0
LINE
  8
QUILTS
 62
7
  6
CONTINUOUS
 10
80.7922933327
 20
249.0803283044
 11
80.7348289197
 21
248.703558728
  0
LINE
  8
QUILTS
 62
7
  6
CONTINUOUS
 10
79.2148929481
 20
246.2589277591
 11
79.3231210401
 21
246.7756679495
  0
LINE
  8
QUILTS
 62
7
  6
CONTINUOUS
 10
81.8122536662
 20
247.0899821334
 11
81.7040255434
 21
246.5732420109
  0
LINE
  8
QUILTS
 62
7
  6
CONTINUOUS
 10
50.0041249911
 20
198.8893796482
 11
49.6784637246
 21
198.6913806724
  0
LINE
  8
QUILTS
 62
7
  6
CONTINUOUS
 10
131.464281882
 20
244.50298427
 11
131.9485180389
 21
244.7133386418
  0
LINE
  8
QUILTS
 62
7
  6
CONTINUOUS
 10
138.2878537716
 20
241.0198391287
 11
138.6541775182
 21
241.1250265093
  0
LINE
  8
QUILTS
 62
7
  6
CONTINUOUS
 10
138.360933229
 20
237.4410127059
 11
137.9946094336
 21
237.3358252689
  0
LINE
  8
QUILTS
 62
7
  6
CONTINUOUS
 10
49.6355593641
 20
200.6729398698
 11
49.9478682165
 21
200.454486203
  0
LINE
  8
QUILTS
 62
7
  6
CONTINUOUS
 10
49.2330083111
 20
213.9854091585
 11
48.9939601344
 21
214.2822510726
  0
LINE
  8
QUILTS
 62
7
  6
CONTINUOUS
 10
52.3976081805
 20
215.8039938974
 11
52.6366560738
 21
215.5071520755
  0
LINE
  8
QUILTS
 62
7
  6
CONTINUOUS
 10
55.5030615915
 20
225.7457750685
 11
55.2812646234
 21
226.2248781079
  0
LINE
  8
QUILTS
 62
7
  6
CONTINUOUS
 10
57.4595276521
 20
224.6672637526
 11
57.2377306513
 21
225.14636681
  0
LINE
  8
QUILTS
 62
7
  6
CONTINUOUS
 10
61.4512954356
 20
233.9974934887
 11
61.3220768683
 21
234.5093881842
  0
LINE
  8
QUILTS
 62
7
  6
CONTINUOUS
 10
63.174143719
 20
232.5752628825
 11
63.0449251229
 21
233.0871576018
  0
LINE
  8
0
 62
7
  6
CONTINUOUS
 10
74.5683166879
 20
262.5980948887
 11
74.5822552455
 21
262.3847737638
  0
LINE
  8
QUILTS
 62
7
  6
CONTINUOUS
 10
77.9239011519
 20
248.5934685415
 11
77.9545456379
 21
248.0230335563
  0
LINE
  8
QUILTS
 62
7
  6
CONTINUOUS
 10
78.7101752427
 20
246.6136809592
 11
78.7408153267
 21
246.043244135
  0
LINE
  8
QUILTS
 62
7
  6
CONTINUOUS
 10
81.2970109764
 20
248.7255752399
 11
81.3104253419
 21
249.1991793597
  0
LINE
  8
0
 62
7
  6
CONTINUOUS
 10
74.5822552455
 20
133.686123977
 11
74.5683166879
 21
133.4728028521
  0
LINE
  8
0
 62
7
  6
CONTINUOUS
 10
98.3430979913
 20
268.3062878235
 11
98.2832358293
 21
268.1010642692
  0
LINE
  8
0
 62
7
  6
CONTINUOUS
 10
54.2657051834
 20
147.1638927593
 11
54.179647102
 21
146.9682037399
  0
LINE
  8
0
 62
7
  6
CONTINUOUS
 10
122.6364015087
 20
265.5387804935
 11
122.5099588873
 21
265.3664074991
  0
LINE
  8
0
 62
7
  6
CONTINUOUS
 10
39.7840614209
 20
166.7775219929
 11
39.6362636904
 21
166.6230680627
  0
LINE
  8
0
 62
7
  6
CONTINUOUS
 10
144.5180963047
 20
254.6293751266
 11
144.3403240702
 21
254.5106434192
  0
LINE
  8
QUILTS
 62
7
  6
CONTINUOUS
 10
138.1813674215
 20
241.5337753471
 11
137.675894956
 21
241.2676311316
  0
LINE
  8
0
 62
7
  6
CONTINUOUS
 10
32.884023922
 20
190.1613185258
 11
32.69231313
 21
190.0667291083
  0
LINE
  8
QUILTS
 62
7
  6
CONTINUOUS
 10
50.7222095246
 20
201.3676409635
 11
50.5062147401
 21
201.2703458522
  0
LINE
  8
QUILTS
 62
7
  6
CONTINUOUS
 10
49.7681016086
 20
198.1674057122
 11
49.9840963682
 21
198.2647006285
  0
LINE
  8
QUILTS
 62
7
  6
CONTINUOUS
 10
50.1672010782
 20
200.6558942334
 11
50.7055190029
 21
200.84707503
  0
LINE
  8
0
 62
7
  6
CONTINUOUS
 10
43.9352584458
 20
159.1769907249
 11
44.1429183383
 21
159.2277603491
  0
LINE
  8
0
 62
7
  6
CONTINUOUS
 10
170.8863464506
 20
181.5760463528
 11
171.0988471534
 21
181.5993623778
  0
LINE
  8
0
 62
7
  6
CONTINUOUS
 10
34.1853383401
 20
181.5993623778
 11
34.3978390429
 21
181.5760463528
  0
LINE
  8
0
 62
7
  6
CONTINUOUS
 10
161.1412671552
 20
159.2277603491
 11
161.3489270477
 21
159.1769907249
  0
LINE
  8
0
 62
7
  6
CONTINUOUS
 10
32.69231313
 20
206.0041686325
 11
32.884023922
 21
205.909579215
  0
LINE
  8
0
 62
7
  6
CONTINUOUS
 10
144.3403240702
 20
141.5602543215
 11
144.5180963047
 21
141.4415226142
  0
LINE
  8
QUILTS
 62
7
  6
CONTINUOUS
 10
48.5982902803
 20
213.7537250956
 11
48.9385030737
 21
213.4239743323
  0
LINE
  8
QUILTS
 62
7
  6
CONTINUOUS
 10
53.0323259988
 20
216.0356780295
 11
52.6921131344
 21
216.3654288158
  0
LINE
  8
0
 62
7
  6
CONTINUOUS
 10
39.6362636904
 20
229.447829678
 11
39.7840614209
 21
229.2933757479
  0
LINE
  8
0
 62
7
  6
CONTINUOUS
 10
122.5099588873
 20
130.7044902417
 11
122.6364015087
 21
130.5321172473
  0
LINE
  8
0
 62
7
  6
CONTINUOUS
 10
54.179647102
 20
249.1026940009
 11
54.2657051834
 21
248.9070049814
  0
LINE
  8
QUILTS
 62
7
  6
CONTINUOUS
 10
62.2798102763
 20
235.39836601
 11
62.3588734123
 21
235.1750518314
  0
LINE
  8
QUILTS
 62
7
  6
CONTINUOUS
 10
62.8753680761
 20
235.3981473735
 11
62.7963032714
 21
235.6214598492
  0
LINE
  8
QUILTS
 62
7
  6
CONTINUOUS
 10
63.2645279282
 20
234.5792941614
 11
63.4226542003
 21
234.1326658041
  0
LINE
  8
QUILTS
 62
7
  6
CONTINUOUS
 10
65.3212635039
 20
235.9182436419
 11
65.4003283086
 21
235.6949311662
  0
LINE
  8
QUILTS
 62
7
  6
CONTINUOUS
 10
65.8562343948
 20
235.2481942638
 11
65.7771695635
 21
235.4715067656
  0
LINE
  8
0
 62
7
  6
CONTINUOUS
 10
98.2832358293
 20
127.9698334716
 11
98.3430979913
 21
127.7646099173
  0
LINE
  8
QUILTS
 62
7
  6
CONTINUOUS
 10
82.3169713407
 20
246.7352290011
 11
82.2863269473
 21
247.3056637829
  0
LINE
  8
0
 62
7
  6
CONTINUOUS
 10
98.6778540458
 20
270.3043237308
 11
98.4992905182
 21
269.0593302286
  0
LINE
  8
0
 62
7
  6
CONTINUOUS
 10
74.4575339816
 20
132.7117534705
 11
74.1995159546
 21
131.4807699402
  0
LINE
  8
0
 62
7
  6
CONTINUOUS
 10
123.6343378301
 20
267.3018267779
 11
123.0407301449
 21
266.1929878942
  0
LINE
  8
0
 62
7
  6
CONTINUOUS
 10
53.8152511917
 20
146.290941169
 11
53.1517723924
 21
145.2224423919
  0
LINE
  8
0
 62
7
  6
CONTINUOUS
 10
98.7783894416
 20
221.1125139284
 11
79.5650276887
 21
201.8991521755
  0
LINE
  8
0
 62
7
  6
CONTINUOUS
 10
146.0588470449
 20
255.9447823865
 11
145.1217930496
 21
255.1058404555
  0
LINE
  8
QUILTS
 62
7
  6
CONTINUOUS
 10
131.7127257252
 20
245.3432143454
 11
131.4620507385
 21
245.1198997087
  0
LINE
  8
QUILTS
 62
7
  6
CONTINUOUS
 10
131.9485180389
 20
244.7133386418
 11
132.1991930255
 21
244.9366532785
  0
LINE
  8
0
 62
7
  6
CONTINUOUS
 10
39.0622061009
 20
166.111280164
 11
38.0732918642
 21
165.3341428619
  0
LINE
  8
QUILTS
 62
7
  6
CONTINUOUS
 10
133.1133182426
 20
242.2655499481
 11
135.5465327691
 21
244.0568381548
  0
LINE
  8
QUILTS
 62
7
  6
CONTINUOUS
 10
131.6996613265
 20
241.1838491765
 11
132.781092562
 21
241.9799753791
  0
LINE
  8
QUILTS
 62
7
  6
CONTINUOUS
 10
135.4550887673
 20
244.6453287452
 11
131.1912452951
 21
241.5473572769
  0
LINE
  8
QUILTS
 62
7
  6
CONTINUOUS
 10
138.0003267031
 20
240.8465308743
 11
138.2878537716
 21
241.0198391287
  0
LINE
  8
QUILTS
 62
7
  6
CONTINUOUS
 10
136.887138414
 20
239.5588778858
 11
137.174665385
 21
239.7321860274
  0
LINE
  8
QUILTS
 62
7
  6
CONTINUOUS
 10
138.6484601025
 20
237.6143207348
 11
138.360933229
 21
237.4410127059
  0
LINE
  8
QUILTS
 62
7
  6
CONTINUOUS
 10
138.4674195303
 20
236.9270764311
 11
138.9728918496
 21
237.1932204775
  0
LINE
  8
0
 62
7
  6
CONTINUOUS
 10
163.2466549283
 20
237.6030177223
 11
162.0791771641
 21
237.1351615222
  0
LINE
  8
0
 62
7
  6
CONTINUOUS
 10
31.9778336787
 20
189.7821450555
 11
30.7827616564
 21
189.3901034563
  0
LINE
  8
QUILTS
 62
7
  6
CONTINUOUS
 10
49.6784637246
 20
198.6913806724
 11
49.3561406368
 21
198.5974948736
  0
LINE
  8
0
 62
7
  6
CONTINUOUS
 10
33.4166137935
 20
181.6224175479
 11
32.159527309
 21
181.5820774413
  0
LINE
  8
0
 62
7
  6
CONTINUOUS
 10
173.1246581845
 20
181.5820774413
 11
171.8675716999
 21
181.6224175479
  0
LINE
  8
0
 62
7
  6
CONTINUOUS
 10
31.9778336787
 20
206.2887526853
 11
30.7827616564
 21
206.6807942844
  0
LINE
  8
0
 62
7
  6
CONTINUOUS
 10
163.2466549283
 20
158.4678800185
 11
162.0791771641
 21
158.9357362185
  0
LINE
  8
QUILTS
 62
7
  6
CONTINUOUS
 10
49.6054446927
 20
213.7547164609
 11
49.2330083111
 21
213.9854091585
  0
LINE
  8
0
 62
7
  6
CONTINUOUS
 10
38.0732918642
 20
230.7367548789
 11
39.0622061009
 21
229.9596175768
  0
LINE
  8
0
 62
7
  6
CONTINUOUS
 10
146.0588470449
 20
140.1261153543
 11
145.1217930496
 21
140.9650572853
  0
LINE
  8
0
 62
7
  6
CONTINUOUS
 10
79.5650276887
 20
194.1717455652
 11
98.7783894416
 21
174.9583838123
  0
LINE
  8
QUILTS
 62
7
  6
CONTINUOUS
 10
54.6571661979
 20
225.9741889459
 11
54.886373203
 21
225.7288911106
  0
LINE
  8
QUILTS
 62
7
  6
CONTINUOUS
 10
55.2812646234
 20
226.2248781079
 11
55.0520576183
 21
226.4701759432
  0
LINE
  8
QUILTS
 62
7
  6
CONTINUOUS
 10
56.6136321606
 20
224.8956776839
 11
56.8428391657
 21
224.6503798486
  0
LINE
  8
QUILTS
 62
7
  6
CONTINUOUS
 10
57.2377306513
 20
225.14636681
 11
57.008523581
 21
225.3916646812
  0
LINE
  8
QUILTS
 62
7
  6
CONTINUOUS
 10
60.6623442144
 20
234.3786337345
 11
60.842150539
 21
234.0951261247
  0
LINE
  8
QUILTS
 62
7
  6
CONTINUOUS
 10
61.3220768683
 20
234.5093881842
 11
61.1422705436
 21
234.792895794
  0
LINE
  8
QUILTS
 62
7
  6
CONTINUOUS
 10
62.3851924116
 20
232.9564031995
 11
62.5649987362
 21
232.6728955897
  0
LINE
  8
QUILTS
 62
7
  6
CONTINUOUS
 10
63.0449251229
 20
233.0871576018
 11
62.8651187409
 21
233.370665259
  0
LINE
  8
0
 62
7
  6
CONTINUOUS
 10
53.1517723924
 20
250.8484553489
 11
53.8152511917
 21
249.7799565717
  0
LINE
  8
0
 62
7
  6
CONTINUOUS
 10
123.0407301449
 20
129.8779098465
 11
123.6343378301
 21
128.7690709629
  0
LINE
  8
QUILTS
 62
7
  6
CONTINUOUS
 10
63.9391488641
 20
234.3557613462
 11
63.784099725
 21
234.6535299593
  0
LINE
  8
0
 62
7
  6
CONTINUOUS
 10
74.1995159546
 20
264.5901278006
 11
74.4575339816
 21
263.3591442703
  0
LINE
  8
0
 62
7
  6
CONTINUOUS
 10
98.4992905182
 20
127.0115675122
 11
98.6778540458
 21
125.76657401
  0
LINE
  8
QUILTS
 62
7
  6
CONTINUOUS
 10
137.675894956
 20
241.2676311316
 11
137.1100710345
 21
240.7724098837
  0
LINE
  8
QUILTS
 62
7
  6
CONTINUOUS
 10
137.5040770436
 20
240.4317879312
 11
138.0003267031
 21
240.8465308743
  0
LINE
  8
QUILTS
 62
7
  6
CONTINUOUS
 10
48.9385030737
 20
213.4239743323
 11
49.412104639
 21
213.1603726011
  0
LINE
  8
QUILTS
 62
7
  6
CONTINUOUS
 10
52.6921131344
 20
216.3654288158
 11
52.2185118526
 21
216.6290304548
  0
LINE
  8
QUILTS
 62
7
  6
CONTINUOUS
 10
52.0251717989
 20
216.0346865951
 11
52.3976081805
 21
215.8039938974
  0
LINE
  8
1_AXIS
 62
2
  6
CONTINUOUS
 10
102.6420927467
 20
198.9154488704
 11
102.6420927467
 21
197.1554488704
  0
LINE
  8
1_AXIS
 62
2
  6
CENTER
 10
102.6420927467
 20
193.6354488704
 11
102.6420927467
 21
123.0104488704
  0
LINE
  8
1_AXIS
 62
2
  6
CENTER
 10
102.6420927467
 20
202.4354488704
 11
102.6420927467
 21
273.0604488704
  0
LINE
  8
QUILTS
 62
7
  6
CONTINUOUS
 10
129.6723877379
 20
248.255731715
 11
127.1552501454
 21
243.9355444111
  0
LINE
  8
QUILTS
 62
7
  6
CONTINUOUS
 10
127.6952735584
 20
243.6209022121
 11
128.8199520731
 21
245.5511986944
  0
LINE
  8
QUILTS
 62
7
  6
CONTINUOUS
 10
129.1412887487
 20
246.1027119015
 11
129.9446305879
 21
247.4814951767
  0
LINE
  8
QUILTS
 62
7
  6
CONTINUOUS
 10
137.1100710345
 20
240.7724098837
 11
136.6230512007
 21
240.2090617506
  0
LINE
  8
QUILTS
 62
7
  6
CONTINUOUS
 10
137.3649285197
 20
240.2708313217
 11
137.5040770436
 21
240.4317879312
  0
LINE
  8
QUILTS
 62
7
  6
CONTINUOUS
 10
136.678415628
 20
239.3174429715
 11
136.887138414
 21
239.5588778858
  0
LINE
  8
1_AXIS
 62
2
  6
CONTINUOUS
 10
103.5220927467
 20
198.0354488704
 11
101.7620927467
 21
198.0354488704
  0
LINE
  8
1_AXIS
 62
2
  6
CENTER
 10
98.2420927467
 20
198.0354488704
 11
27.6170927467
 21
198.0354488704
  0
LINE
  8
1_AXIS
 62
2
  6
CENTER
 10
107.0420927467
 20
198.0354488704
 11
177.6670927467
 21
198.0354488704
  0
LINE
  8
QUILTS
 62
7
  6
CONTINUOUS
 10
47.2128834113
 20
198.1451115924
 11
49.3394501186
 21
198.0769290518
  0
LINE
  8
QUILTS
 62
7
  6
CONTINUOUS
 10
49.3561406368
 20
198.5974948736
 11
47.2295739294
 21
198.6656774141
  0
LINE
  8
QUILTS
 62
7
  6
CONTINUOUS
 10
47.4042307128
 20
202.5672067422
 11
50.7885880386
 21
202.1996757429
  0
LINE
  8
QUILTS
 62
7
  6
CONTINUOUS
 10
50.8448183797
 20
202.717464902
 11
48.4123114685
 21
202.9816278168
  0
LINE
  8
QUILTS
 62
7
  6
CONTINUOUS
 10
47.9892668398
 20
203.0275691877
 11
47.4604610539
 21
203.0849959013
  0
LINE
  8
QUILTS
 62
7
  6
CONTINUOUS
 10
46.3046092386
 20
206.7046915568
 11
46.829960997
 21
206.6213913979
  0
LINE
  8
QUILTS
 62
7
  6
CONTINUOUS
 10
47.8806648083
 20
206.4547910336
 11
51.2429163569
 21
205.9216699704
  0
LINE
  8
QUILTS
 62
7
  6
CONTINUOUS
 10
51.3244810744
 20
206.4360767657
 11
47.9622295258
 21
206.9691978289
  0
LINE
  8
QUILTS
 62
7
  6
CONTINUOUS
 10
46.9115257145
 20
207.1357981932
 11
46.386173956
 21
207.219098352
  0
LINE
  8
QUILTS
 62
7
  6
CONTINUOUS
 10
49.412104639
 20
213.1603726011
 11
50.9295782843
 21
212.6667384343
  0
LINE
  8
QUILTS
 62
7
  6
CONTINUOUS
 10
51.122918338
 20
213.261082294
 11
49.6054446927
 21
213.7547164609
  0
LINE
  8
QUILTS
 62
7
  6
CONTINUOUS
 10
49.5494546464
 20
218.8804016527
 11
54.1337482293
 21
216.8843424487
  0
LINE
  8
QUILTS
 62
7
  6
CONTINUOUS
 10
54.3832556298
 20
217.4573791465
 11
50.3841909452
 21
219.1986223124
  0
LINE
  8
QUILTS
 62
7
  6
CONTINUOUS
 10
51.7939353643
 20
223.8652483763
 11
56.1726927488
 21
221.4514373299
  0
LINE
  8
QUILTS
 62
7
  6
CONTINUOUS
 10
55.9154288266
 20
222.3069280932
 11
54.5179530364
 21
223.0772933369
  0
LINE
  8
QUILTS
 62
7
  6
CONTINUOUS
 10
53.9589627986
 20
223.3854393912
 11
52.6546519829
 21
224.1044469951
  0
LINE
  8
QUILTS
 62
7
  6
CONTINUOUS
 10
57.4580340445
 20
232.8365191255
 11
61.3139325931
 21
229.6534315704
  0
LINE
  8
QUILTS
 62
7
  6
CONTINUOUS
 10
61.2195761708
 20
230.5417704908
 11
59.9889702253
 21
231.5576495189
  0
LINE
  8
QUILTS
 62
7
  6
CONTINUOUS
 10
59.4967279161
 20
231.9640010732
 11
58.3481622981
 21
232.9121548897
  0
LINE
  8
QUILTS
 62
7
  6
CONTINUOUS
 10
62.3588734123
 20
235.1750518314
 11
62.5108420811
 21
235.0261395567
  0
LINE
  8
QUILTS
 62
7
  6
CONTINUOUS
 10
63.4226542003
 20
234.1326658041
 11
63.6506072035
 21
233.9092973921
  0
LINE
  8
QUILTS
 62
7
  6
CONTINUOUS
 10
64.0911175861
 20
234.2068490193
 11
63.9391488641
 21
234.3557613462
  0
LINE
  8
QUILTS
 62
7
  6
CONTINUOUS
 10
63.9119129001
 20
239.8569862202
 11
67.2924659021
 21
236.1729854872
  0
LINE
  8
QUILTS
 62
7
  6
CONTINUOUS
 10
67.6762171496
 20
236.5251274996
 11
64.2956641476
 21
240.2091282326
  0
LINE
  8
QUILTS
 62
7
  6
CONTINUOUS
 10
65.0140230815
 20
240.8512892863
 11
68.2975032956
 21
237.0805124852
  0
LINE
  8
QUILTS
 62
7
  6
CONTINUOUS
 10
68.6902937444
 20
237.422542718
 11
65.4068135303
 21
241.1933195191
  0
LINE
  8
QUILTS
 62
7
  6
CONTINUOUS
 10
70.6381769162
 20
245.2486847897
 11
70.9203520628
 21
244.7977850523
  0
LINE
  8
QUILTS
 62
7
  6
CONTINUOUS
 10
72.8391433369
 20
241.7316663959
 11
73.2906236111
 21
241.0102267528
  0
LINE
  8
QUILTS
 62
7
  6
CONTINUOUS
 10
75.5627074337
 20
247.3483118841
 11
75.9640425023
 21
246.5978186198
  0
LINE
  8
QUILTS
 62
7
  6
CONTINUOUS
 10
76.1640176634
 20
247.5492306318
 11
78.1205257188
 21
243.8905767242
  0
LINE
  8
QUILTS
 62
7
  6
CONTINUOUS
 10
78.6716690824
 20
244.1853070972
 11
76.3138260989
 21
248.5944540062
  0
LINE
  8
QUILTS
 62
7
  6
CONTINUOUS
 10
78.7408153267
 20
246.043244135
 11
78.87297849
 21
245.7527464286
  0
LINE
  8
QUILTS
 62
7
  6
CONTINUOUS
 10
77.9545456379
 20
248.0230335563
 11
78.0867088012
 21
247.7325358499
  0
LINE
  8
QUILTS
 62
7
  6
CONTINUOUS
 10
79.3470561114
 20
245.9684300527
 11
79.2148929481
 21
246.2589277591
  0
LINE
  8
QUILTS
 62
7
  6
CONTINUOUS
 10
78.5167276945
 20
248.0450500682
 11
78.428618919
 21
248.2387152058
  0
LINE
  8
QUILTS
 62
7
  6
CONTINUOUS
 10
131.873394213
 20
245.6189712065
 11
131.7127257252
 21
245.3432143454
  0
LINE
  8
QUILTS
 62
7
  6
CONTINUOUS
 10
132.1991930255
 20
244.9366532785
 11
132.413417626
 21
245.3043290074
  0
LINE
  8
QUILTS
 62
7
  6
CONTINUOUS
 10
136.6230512007
 20
240.2090617506
 11
136.214835357
 21
239.5775866193
  0
LINE
  8
QUILTS
 62
7
  6
CONTINUOUS
 10
138.8571828884
 20
237.855755649
 11
138.6484601025
 21
237.6143207348
  0
LINE
  8
QUILTS
 62
7
  6
CONTINUOUS
 10
138.9728918496
 20
237.1932204775
 11
139.320763257
 21
237.595612114
  0
LINE
  8
QUILTS
 62
7
  6
CONTINUOUS
 10
47.2963360009
 20
200.7479406639
 11
49.6355593641
 21
200.6729398698
  0
LINE
  8
QUILTS
 62
7
  6
CONTINUOUS
 10
50.077563272
 20
201.1798692937
 11
47.3130265227
 21
201.2685065974
  0
LINE
  8
QUILTS
 62
7
  6
CONTINUOUS
 10
49.0377852868
 20
204.7997270633
 11
51.0472475694
 21
204.5815055194
  0
LINE
  8
QUILTS
 62
7
  6
CONTINUOUS
 10
51.1034778784
 20
205.0992943823
 11
49.0940155958
 21
205.3175159262
  0
LINE
  8
QUILTS
 62
7
  6
CONTINUOUS
 10
50.5076981536
 20
216.5283207619
 11
52.0251717989
 21
216.0346865951
  0
LINE
  8
QUILTS
 62
7
  6
CONTINUOUS
 10
52.2185118526
 20
216.6290304548
 11
50.7010382073
 21
217.1226646217
  0
LINE
  8
QUILTS
 62
7
  6
CONTINUOUS
 10
50.9633297573
 20
222.1276092429
 11
54.8648562239
 21
220.4288354465
  0
LINE
  8
QUILTS
 62
7
  6
CONTINUOUS
 10
55.7971307407
 20
220.7045867367
 11
51.2128371578
 21
222.7006459408
  0
LINE
  8
QUILTS
 62
7
  6
CONTINUOUS
 10
54.4708361186
 20
226.0769042973
 11
54.6571661979
 21
225.9741889459
  0
LINE
  8
QUILTS
 62
7
  6
CONTINUOUS
 10
56.3341370417
 20
225.0497507111
 11
56.6136321606
 21
224.8956776839
  0
LINE
  8
QUILTS
 62
7
  6
CONTINUOUS
 10
57.008523581
 20
225.3916646812
 11
56.5426983829
 21
225.6484530598
  0
LINE
  8
QUILTS
 62
7
  6
CONTINUOUS
 10
55.0520576183
 20
226.4701759432
 11
54.6793971988
 21
226.67560679
  0
LINE
  8
QUILTS
 62
7
  6
CONTINUOUS
 10
60.4982634447
 20
234.5140842526
 11
60.6623442144
 21
234.3786337345
  0
LINE
  8
QUILTS
 62
7
  6
CONTINUOUS
 10
62.139071257
 20
233.1595789766
 11
62.3851924116
 21
232.9564031995
  0
LINE
  8
QUILTS
 62
7
  6
CONTINUOUS
 10
62.8651187409
 20
233.370665259
 11
62.4549168165
 21
233.7092915543
  0
LINE
  8
QUILTS
 62
7
  6
CONTINUOUS
 10
61.1422705436
 20
234.792895794
 11
60.8141087743
 21
235.0637970199
  0
LINE
  8
QUILTS
 62
7
  6
CONTINUOUS
 10
64.3334670503
 20
236.8861735318
 11
64.5614200535
 21
236.6628051198
  0
LINE
  8
QUILTS
 62
7
  6
CONTINUOUS
 10
64.8653574975
 20
236.364980466
 11
65.3212635039
 21
235.9182436419
  0
LINE
  8
QUILTS
 62
7
  6
CONTINUOUS
 10
65.9137425553
 20
236.0668829945
 11
64.6979930453
 21
237.2581813486
  0
LINE
  8
QUILTS
 62
7
  6
CONTINUOUS
 10
76.8226706278
 20
243.2205981554
 11
76.4840604123
 21
243.7616779035
  0
LINE
  8
QUILTS
 62
7
  6
CONTINUOUS
 10
74.5652691382
 20
246.82779656
 11
74.1702239329
 21
247.4590561923
  0
LINE
  8
QUILTS
 62
7
  6
CONTINUOUS
 10
80.7041845572
 20
249.273993442
 11
80.7922933327
 21
249.0803283044
  0
LINE
  8
QUILTS
 62
7
  6
CONTINUOUS
 10
81.6800905029
 20
247.3804798399
 11
81.8122536662
 21
247.0899821334
  0
LINE
  8
QUILTS
 62
7
  6
CONTINUOUS
 10
81.3104253419
 20
249.1991793597
 11
81.1782621785
 21
249.4896770661
  0
LINE
  8
QUILTS
 62
7
  6
CONTINUOUS
 10
82.2863269473
 20
247.3056637829
 11
82.154163784
 21
247.5961614893
  0
LINE
  8
0
 62
7
  6
CONTINUOUS
 10
106.7848949752
 20
127.0115675122
 11
106.6063314477
 21
125.76657401
  0
LINE
  8
0
 62
7
  6
CONTINUOUS
 10
131.0846695388
 20
264.5901278006
 11
130.8266515119
 21
263.3591442703
  0
LINE
  8
0
 62
7
  6
CONTINUOUS
 10
82.2434553485
 20
129.8779098465
 11
81.6498476633
 21
128.7690709629
  0
LINE
  8
0
 62
7
  6
CONTINUOUS
 10
152.1324131011
 20
250.8484553489
 11
151.4689343017
 21
249.7799565717
  0
LINE
  8
0
 62
7
  6
CONTINUOUS
 10
60.1623924439
 20
140.9650572853
 11
59.2253384485
 21
140.1261153543
  0
LINE
  8
0
 62
7
  6
CONTINUOUS
 10
167.2108936293
 20
230.7367548789
 11
166.2219793926
 21
229.9596175768
  0
LINE
  8
0
 62
7
  6
CONTINUOUS
 10
43.2050083294
 20
158.9357362185
 11
42.0375305652
 21
158.4678800185
  0
LINE
  8
0
 62
7
  6
CONTINUOUS
 10
174.501423837
 20
206.6807942844
 11
173.3063518147
 21
206.2887526853
  0
LINE
  8
QUILTS
 62
7
  6
CONTINUOUS
 10
49.3394501186
 20
198.0769290518
 11
49.7681016086
 21
198.1674057122
  0
LINE
  8
QUILTS
 62
7
  6
CONTINUOUS
 10
50.5062147401
 20
201.2703458522
 11
50.077563272
 21
201.1798692937
  0
LINE
  8
QUILTS
 62
7
  6
CONTINUOUS
 10
48.4977334134
 20
204.7535957673
 11
49.0377852868
 21
204.7997270633
  0
LINE
  8
QUILTS
 62
7
  6
CONTINUOUS
 10
49.0940155958
 20
205.3175159262
 11
48.5539637868
 21
205.2713852227
  0
LINE
  8
0
 62
7
  6
CONTINUOUS
 10
173.1246581845
 20
214.4888202995
 11
171.8675716999
 21
214.4484801929
  0
LINE
  8
0
 62
7
  6
CONTINUOUS
 10
33.4166137935
 20
214.4484801929
 11
32.159527309
 21
214.4888202995
  0
LINE
  8
QUILTS
 62
7
  6
CONTINUOUS
 10
51.5598011583
 20
213.2285034606
 11
51.122918338
 21
213.261082294
  0
LINE
  8
QUILTS
 62
7
  6
CONTINUOUS
 10
50.0708153333
 20
216.5608995954
 11
50.5076981536
 21
216.5283207619
  0
LINE
  8
QUILTS
 62
7
  6
CONTINUOUS
 10
50.9295782843
 20
212.6667384343
 11
51.4676260049
 21
212.6012506594
  0
LINE
  8
QUILTS
 62
7
  6
CONTINUOUS
 10
50.7010382073
 20
217.1226646217
 11
50.1629902033
 21
217.1881524887
  0
LINE
  8
0
 62
7
  6
CONTINUOUS
 10
174.501423837
 20
189.3901034563
 11
173.3063518147
 21
189.7821450555
  0
LINE
  8
0
 62
7
  6
CONTINUOUS
 10
43.2050083294
 20
237.1351615222
 11
42.0375305652
 21
237.6030177223
  0
LINE
  8
QUILTS
 62
7
  6
CONTINUOUS
 10
63.6506072035
 20
233.9092973921
 11
64.027450127
 21
233.6858746944
  0
LINE
  8
QUILTS
 62
7
  6
CONTINUOUS
 10
66.366568118
 20
235.7690024826
 11
65.9137425553
 21
236.0668829945
  0
LINE
  8
0
 62
7
  6
CONTINUOUS
 10
167.2108936293
 20
165.3341428619
 11
166.2219793926
 21
166.111280164
  0
LINE
  8
0
 62
7
  6
CONTINUOUS
 10
59.2253384485
 20
255.9447823865
 11
60.1623924439
 21
255.1058404555
  0
LINE
  8
0
 62
7
  6
CONTINUOUS
 10
151.4689343017
 20
146.290941169
 11
152.1324131011
 21
145.2224423919
  0
LINE
  8
0
 62
7
  6
CONTINUOUS
 10
81.6498476633
 20
267.3018267779
 11
82.2434553485
 21
266.1929878942
  0
LINE
  8
0
 62
7
  6
CONTINUOUS
 10
130.8266515119
 20
132.7117534705
 11
131.0846695388
 21
131.4807699402
  0
LINE
  8
0
 62
7
  6
CONTINUOUS
 10
106.6063314477
 20
270.3043237308
 11
106.7848949752
 21
269.0593302286
  0
LINE
  8
QUILTS
 62
7
  6
CONTINUOUS
 10
131.944055902
 20
245.9471697769
 11
131.873394213
 21
245.6189712065
  0
LINE
  8
QUILTS
 62
7
  6
CONTINUOUS
 10
132.413417626
 20
245.3043290074
 11
132.484079315
 21
245.6325275778
  0
LINE
  8
QUILTS
 62
7
  6
CONTINUOUS
 10
134.5806880905
 20
239.1239680925
 11
136.1329742233
 21
244.160653127
  0
LINE
  8
QUILTS
 62
7
  6
CONTINUOUS
 10
134.4758100808
 20
240.7682835603
 11
134.0722720591
 21
239.4874761928
  0
LINE
  8
QUILTS
 62
7
  6
CONTINUOUS
 10
135.5465327691
 20
244.0568381548
 11
134.6385663369
 21
241.1750256472
  0
LINE
  8
QUILTS
 62
7
  6
CONTINUOUS
 10
136.214835357
 20
239.5775866193
 11
136.0245649591
 21
239.0389475057
  0
LINE
  8
QUILTS
 62
7
  6
CONTINUOUS
 10
139.320763257
 20
237.595612114
 11
139.5110336061
 21
238.1342511713
  0
LINE
  8
QUILTS
 62
7
  6
CONTINUOUS
 10
136.5484969297
 20
239.007881172
 11
136.678415628
 21
239.3174429715
  0
LINE
  8
QUILTS
 62
7
  6
CONTINUOUS
 10
138.9871016842
 20
238.1653175613
 11
138.8571828884
 21
237.855755649
  0
LINE
  8
QUILTS
 62
7
  6
CONTINUOUS
 10
140.4154992068
 20
239.1804693583
 11
140.5454179051
 21
239.4900311579
  0
LINE
  8
0
 62
7
  6
CONTINUOUS
 10
106.5057960519
 20
174.9583838123
 11
125.7191578048
 21
194.1717455652
  0
LINE
  8
QUILTS
 62
7
  6
CONTINUOUS
 10
48.5539637868
 20
205.2713852227
 11
48.2254342277
 21
205.2022832413
  0
LINE
  8
QUILTS
 62
7
  6
CONTINUOUS
 10
51.4676260049
 20
212.6012506594
 11
51.9367324842
 21
212.6677298686
  0
LINE
  8
QUILTS
 62
7
  6
CONTINUOUS
 10
56.0043536785
 20
225.112599002
 11
56.3341370417
 21
225.0497507111
  0
LINE
  8
QUILTS
 62
7
  6
CONTINUOUS
 10
56.5426983829
 20
225.6484530598
 11
56.2129150197
 21
225.7113013508
  0
LINE
  8
QUILTS
 62
7
  6
CONTINUOUS
 10
54.141052625
 20
226.1397526602
 11
54.4708361186
 21
226.0769042973
  0
LINE
  8
QUILTS
 62
7
  6
CONTINUOUS
 10
54.6793971988
 20
226.67560679
 11
54.3496139661
 21
226.738455009
  0
LINE
  8
QUILTS
 62
7
  6
CONTINUOUS
 10
61.8266351575
 20
233.282423016
 11
62.139071257
 21
233.1595789766
  0
LINE
  8
QUILTS
 62
7
  6
CONTINUOUS
 10
62.4549168165
 20
233.7092915543
 11
62.142480717
 21
233.8321355937
  0
LINE
  8
QUILTS
 62
7
  6
CONTINUOUS
 10
60.1858272302
 20
234.6369283868
 11
60.4982634447
 21
234.5140842526
  0
LINE
  8
QUILTS
 62
7
  6
CONTINUOUS
 10
60.8141087743
 20
235.0637970199
 11
60.5016727897
 21
235.1866409645
  0
LINE
  8
QUILTS
 62
7
  6
CONTINUOUS
 10
65.7771695635
 20
235.4715067656
 11
66.0780264707
 21
235.3225385155
  0
LINE
  8
QUILTS
 62
7
  6
CONTINUOUS
 10
66.6674250119
 20
235.6200342455
 11
66.366568118
 21
235.7690024826
  0
LINE
  8
QUILTS
 62
7
  6
CONTINUOUS
 10
64.6979930453
 20
237.2581813486
 11
64.3971328407
 21
237.4071461538
  0
LINE
  8
QUILTS
 62
7
  6
CONTINUOUS
 10
78.87297849
 20
245.7527464286
 11
79.2828823764
 21
245.3548573613
  0
LINE
  8
QUILTS
 62
7
  6
CONTINUOUS
 10
82.154163784
 20
247.5961614893
 11
81.7442642071
 21
247.994052599
  0
LINE
  8
0
 62
7
  6
CONTINUOUS
 10
125.7191578048
 20
201.8991521755
 11
106.5057960519
 21
221.1125139284
  0
LINE
  8
0
 62
7
  6
CONTINUOUS
 10
130.7158688055
 20
133.4728028521
 11
130.701930248
 21
133.686123977
  0
LINE
  8
0
 62
7
  6
CONTINUOUS
 10
130.701930248
 20
262.3847737638
 11
130.7158688055
 21
262.5980948887
  0
LINE
  8
QUILTS
 62
7
  6
CONTINUOUS
 10
136.4973750558
 20
238.6301986678
 11
136.5484969297
 21
239.007881172
  0
LINE
  8
0
 62
7
  6
CONTINUOUS
 10
106.9410875021
 20
127.7646099173
 11
107.0009496641
 21
127.9698334716
  0
LINE
  8
0
 62
7
  6
CONTINUOUS
 10
151.01848031
 20
248.9070049814
 11
151.1045383914
 21
249.1026940009
  0
LINE
  8
0
 62
7
  6
CONTINUOUS
 10
82.6477839848
 20
130.5321172473
 11
82.7742266062
 21
130.7044902417
  0
LINE
  8
0
 62
7
  6
CONTINUOUS
 10
165.5001240726
 20
229.2933757479
 11
165.6479218031
 21
229.447829678
  0
LINE
  8
0
 62
7
  6
CONTINUOUS
 10
60.7660891888
 20
141.4415226142
 11
60.9438614233
 21
141.5602543215
  0
LINE
  8
0
 62
7
  6
CONTINUOUS
 10
172.4001615714
 20
205.909579215
 11
172.5918723635
 21
206.0041686325
  0
LINE
  8
QUILTS
 62
7
  6
CONTINUOUS
 10
51.9277426665
 20
213.3278916342
 11
51.5598011583
 21
213.2285034606
  0
LINE
  8
0
 62
7
  6
CONTINUOUS
 10
161.3489270477
 20
236.8939070159
 11
161.1412671552
 21
236.8431373917
  0
LINE
  8
QUILTS
 62
7
  6
CONTINUOUS
 10
50.1629902033
 20
217.1881524887
 11
49.6938837948
 21
217.1216732565
  0
LINE
  8
QUILTS
 62
7
  6
CONTINUOUS
 10
50.3841909452
 20
219.1986223124
 11
55.4228696399
 21
219.8450316899
  0
LINE
  8
0
 62
7
  6
CONTINUOUS
 10
34.3978390429
 20
214.494851388
 11
34.1853383401
 21
214.471535363
  0
LINE
  8
0
 62
7
  6
CONTINUOUS
 10
171.0988471534
 20
214.471535363
 11
170.8863464506
 21
214.494851388
  0
LINE
  8
0
 62
7
  6
CONTINUOUS
 10
44.1429183383
 20
236.8431373917
 11
43.9352584458
 21
236.8939070159
  0
LINE
  8
QUILTS
 62
7
  6
CONTINUOUS
 10
66.0780264707
 20
235.3225385155
 11
66.3029023542
 21
235.2480298346
  0
LINE
  8
QUILTS
 62
7
  6
CONTINUOUS
 10
64.315990119
 20
234.1323369456
 11
64.0911175861
 21
234.2068490193
  0
LINE
  8
QUILTS
 62
7
  6
CONTINUOUS
 10
64.1085945174
 20
236.9606856055
 11
64.3334670503
 21
236.8861735318
  0
LINE
  8
0
 62
7
  6
CONTINUOUS
 10
172.5918723635
 20
190.0667291083
 11
172.4001615714
 21
190.1613185258
  0
LINE
  8
0
 62
7
  6
CONTINUOUS
 10
60.9438614233
 20
254.5106434192
 11
60.7660891888
 21
254.6293751266
  0
LINE
  8
QUILTS
 62
7
  6
CONTINUOUS
 10
78.0867088012
 20
247.7325358499
 11
78.4525539287
 21
247.4314774446
  0
LINE
  8
QUILTS
 62
7
  6
CONTINUOUS
 10
81.1782621785
 20
249.4896770661
 11
80.7683581996
 21
249.8875663368
  0
LINE
  8
0
 62
7
  6
CONTINUOUS
 10
165.6479218031
 20
166.6230680627
 11
165.5001240726
 21
166.7775219929
  0
LINE
  8
0
 62
7
  6
CONTINUOUS
 10
82.7742266062
 20
265.3664074991
 11
82.6477839848
 21
265.5387804935
  0
LINE
  8
0
 62
7
  6
CONTINUOUS
 10
151.1045383914
 20
146.9682037399
 11
151.01848031
 21
147.1638927593
  0
LINE
  8
0
 62
7
  6
CONTINUOUS
 10
107.0009496641
 20
268.1010642692
 11
106.9410875021
 21
268.3062878235
  0
LINE
  8
QUILTS
 62
7
  6
CONTINUOUS
 10
132.484079315
 20
245.6325275778
 11
132.4282920589
 21
246.1575241487
  0
LINE
  8
QUILTS
 62
7
  6
CONTINUOUS
 10
136.0245649591
 20
239.0389475057
 11
135.9826729352
 21
238.5126598396
  0
LINE
  8
QUILTS
 62
7
  6
CONTINUOUS
 10
140.5454179051
 20
239.4900311579
 11
140.5873099047
 21
240.0163187958
  0
LINE
  8
QUILTS
 62
7
  6
CONTINUOUS
 10
140.0726078084
 20
239.8987799957
 11
140.0214859832
 21
239.5210975479
  0
LINE
  8
QUILTS
 62
7
  6
CONTINUOUS
 10
49.7028735417
 20
216.4615115139
 11
50.0708153333
 21
216.5608995954
  0
LINE
  8
QUILTS
 62
7
  6
CONTINUOUS
 10
137.9527174096
 20
236.8095376029
 11
138.4674195303
 21
236.9270764311
  0
LINE
  8
QUILTS
 62
7
  6
CONTINUOUS
 10
138.6960695178
 20
241.6513141472
 11
138.1813674215
 21
241.5337753471
  0
LINE
  8
QUILTS
 62
7
  6
CONTINUOUS
 10
54.8648562239
 20
220.4288354465
 11
49.9237152713
 21
219.7399556065
  0
LINE
  8
QUILTS
 62
7
  6
CONTINUOUS
 10
56.2129150197
 20
225.7113013508
 11
55.6893916708
 21
225.6430597171
  0
LINE
  8
QUILTS
 62
7
  6
CONTINUOUS
 10
54.3496139661
 20
226.738455009
 11
53.8260906172
 21
226.6702133753
  0
LINE
  8
QUILTS
 62
7
  6
CONTINUOUS
 10
62.142480717
 20
233.8321355937
 11
61.6153762053
 21
233.8620429706
  0
LINE
  8
QUILTS
 62
7
  6
CONTINUOUS
 10
60.5016727897
 20
235.1866409645
 11
59.974568278
 21
235.2165483414
  0
LINE
  8
QUILTS
 62
7
  6
CONTINUOUS
 10
79.8077193982
 20
245.7105094892
 11
79.3470561114
 21
245.9684300527
  0
LINE
  8
QUILTS
 62
7
  6
CONTINUOUS
 10
81.2194271853
 20
247.6384004712
 11
81.6800905029
 21
247.3804798399
  0
LINE
  8
QUILTS
 62
7
  6
CONTINUOUS
 10
78.8385227745
 20
247.8408262063
 11
78.5167276945
 21
248.0450500682
  0
LINE
  8
QUILTS
 62
7
  6
CONTINUOUS
 10
80.3823936941
 20
249.4782195497
 11
80.7041845572
 21
249.273993442
  0
LINE
  8
QUILTS
 62
7
  6
CONTINUOUS
 10
138.9686492474
 20
238.4625217044
 11
138.9871016842
 21
238.1653175613
  0
LINE
  8
QUILTS
 62
7
  6
CONTINUOUS
 10
139.5110336061
 20
238.1342511713
 11
139.4833513437
 21
238.5800605044
  0
LINE
  8
QUILTS
 62
7
  6
CONTINUOUS
 10
55.7174485226
 20
225.032866825
 11
56.0043536785
 21
225.112599002
  0
LINE
  8
QUILTS
 62
7
  6
CONTINUOUS
 10
53.8541474691
 20
226.0600204832
 11
54.141052625
 21
226.1397526602
  0
LINE
  8
QUILTS
 62
7
  6
CONTINUOUS
 10
131.4620507385
 20
245.1198997087
 11
131.1749334557
 21
245.0409411057
  0
LINE
  8
QUILTS
 62
7
  6
CONTINUOUS
 10
61.5299262455
 20
233.2572117075
 11
61.8266351575
 21
233.282423016
  0
LINE
  8
QUILTS
 62
7
  6
CONTINUOUS
 10
59.8891183183
 20
234.6117170783
 11
60.1858272302
 21
234.6369283868
  0
LINE
  8
QUILTS
 62
7
  6
CONTINUOUS
 10
137.174665385
 20
239.7321860274
 11
137.4714148697
 21
239.7568951033
  0
LINE
  8
QUILTS
 62
7
  6
CONTINUOUS
 10
64.027450127
 20
233.6858746944
 11
64.4741180997
 21
233.6857102521
  0
LINE
  8
QUILTS
 62
7
  6
CONTINUOUS
 10
64.3971328407
 20
237.4071461538
 11
64.0993564438
 21
237.4072580265
  0
LINE
  8
QUILTS
 62
7
  6
CONTINUOUS
 10
79.2828823764
 20
245.3548573613
 11
79.6994912599
 21
245.1937694005
  0
LINE
  8
QUILTS
 62
7
  6
CONTINUOUS
 10
78.4525539287
 20
247.4314774446
 11
78.8691627968
 21
247.2703895177
  0
LINE
  8
QUILTS
 62
7
  6
CONTINUOUS
 10
80.7683581996
 20
249.8875663368
 11
80.3517493315
 21
250.0486542637
  0
LINE
  8
QUILTS
 62
7
  6
CONTINUOUS
 10
131.8711630696
 20
246.2358866452
 11
131.944055902
 21
245.9471697769
  0
LINE
  8
QUILTS
 62
7
  6
CONTINUOUS
 10
59.974568278
 20
235.2165483414
 11
59.4631908391
 21
235.0984004653
  0
LINE
  8
QUILTS
 62
7
  6
CONTINUOUS
 10
64.0993564438
 20
237.4072580265
 11
63.7286728454
 21
237.3329662923
  0
LINE
  8
QUILTS
 62
7
  6
CONTINUOUS
 10
130.9435951888
 20
244.4369907328
 11
131.464281882
 21
244.50298427
  0
LINE
  8
QUILTS
 62
7
  6
CONTINUOUS
 10
80.2750876667
 20
245.689390066
 11
79.8077193982
 21
245.7105094892
  0
LINE
  8
QUILTS
 62
7
  6
CONTINUOUS
 10
78.8691627968
 20
247.2703895177
 11
79.1028491012
 21
247.2598307935
  0
LINE
  8
QUILTS
 62
7
  6
CONTINUOUS
 10
80.7520545765
 20
247.6595179197
 11
81.2194271853
 21
247.6384004712
  0
LINE
  8
QUILTS
 62
7
  6
CONTINUOUS
 10
81.2328372105
 20
248.1120026163
 11
80.9991552464
 21
248.1225633152
  0
LINE
  8
QUILTS
 62
7
  6
CONTINUOUS
 10
137.9946094336
 20
237.3358252689
 11
137.6190558612
 21
237.3792430784
  0
LINE
  8
QUILTS
 62
7
  6
CONTINUOUS
 10
137.4714148697
 20
239.7568951033
 11
137.846968442
 21
239.7134772938
  0
LINE
  8
QUILTS
 62
7
  6
CONTINUOUS
 10
138.1160356643
 20
240.1839957028
 11
137.3649285197
 21
240.2708313217
  0
LINE
  8
QUILTS
 62
7
  6
CONTINUOUS
 10
138.6541775182
 20
241.1250265093
 11
139.0297310906
 21
241.0816086998
  0
LINE
  8
QUILTS
 62
7
  6
CONTINUOUS
 10
79.6994912599
 20
245.1937694005
 11
80.3057320562
 21
245.1189552928
  0
LINE
  8
QUILTS
 62
7
  6
CONTINUOUS
 10
80.3517493315
 20
250.0486542637
 11
79.7455128871
 21
250.1234703206
  0
LINE
  8
QUILTS
 62
7
  6
CONTINUOUS
 10
137.3499813818
 20
236.9087308571
 11
137.9527174096
 21
236.8095376029
  0
LINE
  8
QUILTS
 62
7
  6
CONTINUOUS
 10
139.2987983128
 20
241.5521271089
 11
138.6960695178
 21
241.6513141472
  0
LINE
  8
QUILTS
 62
7
  6
CONTINUOUS
 10
79.3499454308
 20
247.7228742144
 11
78.8385227745
 21
247.8408262063
  0
LINE
  8
QUILTS
 62
7
  6
CONTINUOUS
 10
81.7442642071
 20
247.994052599
 11
81.2328372105
 21
248.1120026163
  0
LINE
  8
QUILTS
 62
7
  6
CONTINUOUS
 10
79.8709666975
 20
249.596169567
 11
80.3823936941
 21
249.4782195497
  0
LINE
  8
QUILTS
 62
7
  6
CONTINUOUS
 10
132.4282920589
 20
246.1575241487
 11
132.2289420413
 21
246.6430438187
  0
LINE
  8
QUILTS
 62
7
  6
CONTINUOUS
 10
135.9826729352
 20
238.5126598396
 11
136.16795614
 21
237.9306029517
  0
LINE
  8
QUILTS
 62
7
  6
CONTINUOUS
 10
139.4833513437
 20
238.5800605044
 11
139.2980609061
 21
239.1621236082
  0
LINE
  8
QUILTS
 62
7
  6
CONTINUOUS
 10
140.5873099047
 20
240.0163187958
 11
140.4020266815
 21
240.5983756625
  0
LINE
  8
QUILTS
 62
7
  6
CONTINUOUS
 10
136.5946315802
 20
238.2648676394
 11
136.4973750558
 21
238.6301986678
  0
LINE
  8
QUILTS
 62
7
  6
CONTINUOUS
 10
138.871392723
 20
238.8278527328
 11
138.9686492474
 21
238.4625217044
  0
LINE
  8
QUILTS
 62
7
  6
CONTINUOUS
 10
139.975351284
 20
240.2641110241
 11
140.0726078084
 21
239.8987799957
  0
LINE
  8
QUILTS
 62
7
  6
CONTINUOUS
 10
80.3057320562
 20
245.1189552928
 11
80.823859729
 21
245.2378043649
  0
LINE
  8
QUILTS
 62
7
  6
CONTINUOUS
 10
79.7455128871
 20
250.1234703206
 11
79.2273808779
 21
250.0046192654
  0
LINE
  8
QUILTS
 62
7
  6
CONTINUOUS
 10
80.6984058877
 20
245.7651051864
 11
80.2750876667
 21
245.689390066
  0
LINE
  8
QUILTS
 62
7
  6
CONTINUOUS
 10
80.3287406958
 20
247.583804774
 11
80.7520545765
 21
247.6595179197
  0
LINE
  8
QUILTS
 62
7
  6
CONTINUOUS
 10
79.7732636518
 20
247.7985893347
 11
79.3499454308
 21
247.7228742144
  0
LINE
  8
QUILTS
 62
7
  6
CONTINUOUS
 10
79.4476528168
 20
249.5204564213
 11
79.8709666975
 21
249.596169567
  0
LINE
  8
QUILTS
 62
7
  6
CONTINUOUS
 10
131.1749334557
 20
245.0409411057
 11
130.8513656366
 21
245.1063433374
  0
LINE
  8
QUILTS
 62
7
  6
CONTINUOUS
 10
130.4400223121
 20
244.6072720972
 11
130.9435951888
 21
244.4369907328
  0
LINE
  8
QUILTS
 62
7
  6
CONTINUOUS
 10
137.6190558612
 20
237.3792430784
 11
137.3130765509
 21
237.5031391926
  0
LINE
  8
QUILTS
 62
7
  6
CONTINUOUS
 10
137.846968442
 20
239.7134772938
 11
138.1529477523
 21
239.5895811796
  0
LINE
  8
QUILTS
 62
7
  6
CONTINUOUS
 10
139.0297310906
 20
241.0816086998
 11
139.3357104009
 21
240.9577125857
  0
LINE
  8
QUILTS
 62
7
  6
CONTINUOUS
 10
136.8864011047
 20
237.1688744978
 11
137.3499813818
 21
236.9087308571
  0
LINE
  8
QUILTS
 62
7
  6
CONTINUOUS
 10
138.5796231499
 20
239.923845818
 11
138.1160356643
 21
240.1839957028
  0
LINE
  8
QUILTS
 62
7
  6
CONTINUOUS
 10
139.7623857984
 20
241.291977224
 11
139.2987983128
 21
241.5521271089
  0
LINE
  8
QUILTS
 62
7
  6
CONTINUOUS
 10
127.1552501454
 20
243.9355444111
 11
127.6952735584
 21
243.6209022121
  0
LINE
  8
QUILTS
 62
7
  6
CONTINUOUS
 10
128.8199520731
 20
245.5511986944
 11
130.4400223121
 21
244.6072720972
  0
LINE
  8
QUILTS
 62
7
  6
CONTINUOUS
 10
130.8513656366
 20
245.1063433374
 11
129.1412887487
 21
246.1027119015
  0
LINE
  8
QUILTS
 62
7
  6
CONTINUOUS
 10
131.1912452951
 20
241.5473572769
 11
131.6996613265
 21
241.1838491765
  0
LINE
  8
QUILTS
 62
7
  6
CONTINUOUS
 10
134.0722720591
 20
239.4874761928
 11
134.5806880905
 21
239.1239680925
  0
LINE
  8
QUILTS
 62
7
  6
CONTINUOUS
 10
132.781092562
 20
241.9799753791
 11
134.4758100808
 21
240.7682835603
  0
LINE
  8
QUILTS
 62
7
  6
CONTINUOUS
 10
134.6385663369
 20
241.1750256472
 11
133.1133182426
 21
242.2655499481
  0
LINE
  8
QUILTS
 62
7
  6
CONTINUOUS
 10
136.4923950956
 20
237.5094964504
 11
136.8864011047
 21
237.1688744978
  0
LINE
  8
QUILTS
 62
7
  6
CONTINUOUS
 10
137.3130765509
 20
237.5031391926
 11
136.7614623666
 21
237.9800149157
  0
LINE
  8
QUILTS
 62
7
  6
CONTINUOUS
 10
138.1529477523
 20
239.5895811796
 11
138.7045619367
 21
239.1127054565
  0
LINE
  8
QUILTS
 62
7
  6
CONTINUOUS
 10
138.9736291589
 20
239.5832238655
 11
138.5796231499
 21
239.923845818
  0
LINE
  8
QUILTS
 62
7
  6
CONTINUOUS
 10
140.0214859832
 20
239.5210975479
 11
140.4154992068
 21
239.1804693583
  0
LINE
  8
QUILTS
 62
7
  6
CONTINUOUS
 10
132.2289420413
 20
246.6430438187
 11
131.8324813898
 21
246.9971629187
  0
LINE
  8
QUILTS
 62
7
  6
CONTINUOUS
 10
131.6547074757
 20
246.4851266126
 11
131.8711630696
 21
246.2358866452
  0
LINE
  8
QUILTS
 62
7
  6
CONTINUOUS
 10
136.16795614
 20
237.9306029517
 11
136.4923950956
 21
237.5094964504
  0
LINE
  8
QUILTS
 62
7
  6
CONTINUOUS
 10
139.2980609061
 20
239.1621236082
 11
138.9736291589
 21
239.5832238655
  0
LINE
  8
QUILTS
 62
7
  6
CONTINUOUS
 10
140.4020266815
 20
240.5983756625
 11
140.0775877199
 21
241.0194821568
  0
LINE
  8
QUILTS
 62
7
  6
CONTINUOUS
 10
136.7614623666
 20
237.9800149157
 11
136.5946315802
 21
238.2648676394
  0
LINE
  8
QUILTS
 62
7
  6
CONTINUOUS
 10
138.7045619367
 20
239.1127054565
 11
138.871392723
 21
238.8278527328
  0
LINE
  8
QUILTS
 62
7
  6
CONTINUOUS
 10
139.8085204976
 20
240.5489637478
 11
139.975351284
 21
240.2641110241
  0
LINE
  8
QUILTS
 62
7
  6
CONTINUOUS
 10
129.9446305879
 20
247.4814951767
 11
131.6547074757
 21
246.4851266126
  0
LINE
  8
QUILTS
 62
7
  6
CONTINUOUS
 10
131.8324813898
 20
246.9971629187
 11
129.6723877379
 21
248.255731715
  0
LINE
  8
QUILTS
 62
7
  6
CONTINUOUS
 10
136.1329742233
 20
244.160653127
 11
135.4550887673
 21
244.6453287452
  0
LINE
  8
QUILTS
 62
7
  6
CONTINUOUS
 10
139.3357104009
 20
240.9577125857
 11
139.8085204976
 21
240.5489637478
  0
LINE
  8
QUILTS
 62
7
  6
CONTINUOUS
 10
140.0775877199
 20
241.0194821568
 11
139.7623857984
 21
241.291977224
  0
LINE
  8
0
 62
7
  6
CONTINUOUS
 10
175.0452475849
 20
188.5257803967
 11
173.9313012441
 21
182.2082767662
  0
LINE
  8
0
 62
7
  6
CONTINUOUS
 10
167.4263048954
 20
164.3359461846
 11
164.2188242419
 21
158.7804267284
  0
LINE
  8
0
 62
7
  6
CONTINUOUS
 10
151.9934301077
 20
144.210769348
 11
147.0792846456
 21
140.0873117032
  0
LINE
  8
0
 62
7
  6
CONTINUOUS
 10
130.608055686
 20
130.5776432296
 11
124.5799638832
 21
128.3835972439
  0
LINE
  8
0
 62
7
  6
CONTINUOUS
 10
105.8495734003
 20
270.9899736982
 11
99.4346120932
 21
270.9899736982
  0
LINE
  8
0
 62
7
  6
CONTINUOUS
 10
130.608055686
 20
265.4932545112
 11
124.5799638832
 21
267.6873004969
  0
LINE
  8
0
 62
7
  6
CONTINUOUS
 10
151.9934301077
 20
251.8601283928
 11
147.0792846456
 21
255.9835860375
  0
LINE
  8
0
 62
7
  6
CONTINUOUS
 10
167.4263048954
 20
231.7349515562
 11
164.2188242419
 21
237.2904710124
  0
LINE
  8
0
 62
7
  6
CONTINUOUS
 10
173.9313012441
 20
213.8626209745
 11
175.0452475849
 21
207.5451173441
  0
LINE
  8
0
 62
7
  6
CONTINUOUS
 10
30.2321249613
 20
73.3647908822
 11
30.2373196096
 21
73.2929015878
  0
LINE
  8
2_FEATURE
 62
7
  6
CONTINUOUS
 10
30.2321255001
 20
79.9470056106
 11
30.2321255001
 21
73.3646769102
  0
LINE
  8
0
 62
7
  6
CONTINUOUS
 10
30.2369968685
 20
80.0165231905
 11
30.2321249613
 21
79.9468916385
  0
POLYLINE
  8
0
 62
7
  6
CONTINUOUS
 66
1
 70
0
  0
VERTEX
  8
0
 62
7
  6
CONTINUOUS
 10
30.2373196096
 20
73.2929015878
  0
VERTEX
  8
0
 62
7
  6
CONTINUOUS
 10
30.2572957457
 20
73.2081407743
  0
VERTEX
  8
0
 62
7
  6
CONTINUOUS
 10
30.290468655
 20
73.1303880038
  0
VERTEX
  8
0
 62
7
  6
CONTINUOUS
 10
30.3345596948
 20
73.0615560435
  0
VERTEX
  8
0
 62
7
  6
CONTINUOUS
 10
30.3870674419
 20
73.0029188713
  0
VERTEX
  8
0
 62
7
  6
CONTINUOUS
 10
30.4454153941
 20
72.9551284304
  0
VERTEX
  8
0
 62
7
  6
CONTINUOUS
 10
30.507108275
 20
72.9182388857
  0
VERTEX
  8
0
 62
7
  6
CONTINUOUS
 10
30.5689938501
 20
72.8920768134
  0
VERTEX
  8
0
 62
7
  6
CONTINUOUS
 10
30.6258115871
 20
72.876078543
  0
SEQEND
  0
LINE
  8
0
 62
7
  6
CONTINUOUS
 10
37.7676028572
 20
73.362059214
 11
37.7694352038
 21
73.3192725873
  0
LINE
  8
2_FEATURE
 62
7
  6
CONTINUOUS
 10
37.7676015117
 20
79.9497301402
 11
37.7676015117
 21
73.3619523806
  0
LINE
  8
0
 62
7
  6
CONTINUOUS
 10
37.7694403845
 20
79.992470269
 11
37.7676028571
 21
79.9496233069
  0
POLYLINE
  8
0
 62
7
  6
CONTINUOUS
 66
1
 70
0
  0
VERTEX
  8
0
 62
7
  6
CONTINUOUS
 10
37.7694352038
 20
73.3192725873
  0
VERTEX
  8
0
 62
7
  6
CONTINUOUS
 10
37.8012311078
 20
73.1816935317
  0
VERTEX
  8
0
 62
7
  6
CONTINUOUS
 10
37.8658037045
 20
73.0642845957
  0
VERTEX
  8
0
 62
7
  6
CONTINUOUS
 10
37.9522787553
 20
72.9736982352
  0
VERTEX
  8
0
 62
7
  6
CONTINUOUS
 10
38.0489516939
 20
72.9118162294
  0
VERTEX
  8
0
 62
7
  6
CONTINUOUS
 10
38.1407320903
 20
72.877174479
  0
VERTEX
  8
0
 62
7
  6
CONTINUOUS
 10
38.208737646
 20
72.862386538
  0
SEQEND
  0
LINE
  8
1_AXIS
 62
7
  6
CONTINUOUS
 10
42.6420927467
 20
87.1558412604
 11
42.6420927467
 21
81.6558412604
  0
LINE
  8
1_AXIS
 62
7
  6
CONTINUOUS
 10
42.6420927467
 20
71.6558412604
 11
42.6420927467
 21
66.1558412604
  0
LINE
  8
2_FEATURE
 62
7
  6
CONTINUOUS
 10
53.031406805
 20
79.9551991448
 11
53.031406805
 21
73.356483376
  0
POLYLINE
  8
0
 62
7
  6
CONTINUOUS
 66
1
 70
0
  0
VERTEX
  8
0
 62
7
  6
CONTINUOUS
 10
53.0314098508
 20
73.3565318548
  0
VERTEX
  8
0
 62
7
  6
CONTINUOUS
 10
53.0321324555
 20
73.3834374512
  0
VERTEX
  8
0
 62
7
  6
CONTINUOUS
 10
53.0436607481
 20
73.2463863615
  0
VERTEX
  8
0
 62
7
  6
CONTINUOUS
 10
53.0909918495
 20
73.1194765244
  0
VERTEX
  8
0
 62
7
  6
CONTINUOUS
 10
53.1669055733
 20
73.0136639687
  0
VERTEX
  8
0
 62
7
  6
CONTINUOUS
 10
53.2122575175
 20
72.9708378642
  0
VERTEX
  8
0
 62
7
  6
CONTINUOUS
 10
53.3084341189
 20
72.9076130862
  0
VERTEX
  8
0
 62
7
  6
CONTINUOUS
 10
53.3999054436
 20
72.8714416932
  0
VERTEX
  8
0
 62
7
  6
CONTINUOUS
 10
53.4810366581
 20
72.8527537519
  0
VERTEX
  8
0
 62
7
  6
CONTINUOUS
 10
53.4962701872
 20
72.8501694633
  0
SEQEND
  0
POLYLINE
  8
0
 62
7
  6
CONTINUOUS
 66
1
 70
0
  0
VERTEX
  8
0
 62
7
  6
CONTINUOUS
 10
74.1825016808
 20
73.3488668819
  0
VERTEX
  8
0
 62
7
  6
CONTINUOUS
 10
74.1908206578
 20
73.2578562083
  0
VERTEX
  8
0
 62
7
  6
CONTINUOUS
 10
74.2472735122
 20
73.1021802613
  0
VERTEX
  8
0
 62
7
  6
CONTINUOUS
 10
74.3427865742
 20
72.9809053377
  0
VERTEX
  8
0
 62
7
  6
CONTINUOUS
 10
74.4566773741
 20
72.9007395158
  0
VERTEX
  8
0
 62
7
  6
CONTINUOUS
 10
74.4958161057
 20
72.8824626839
  0
SEQEND
  0
LINE
  8
2_FEATURE
 62
7
  6
CONTINUOUS
 10
74.1825011919
 20
79.9628269856
 11
74.1825011919
 21
73.3488555351
  0
LINE
  8
0
 62
7
  6
CONTINUOUS
 10
74.7804479725
 20
80.557486844
 11
74.7600747184
 21
80.5400168201
  0
POLYLINE
  8
0
 62
7
  6
CONTINUOUS
 66
1
 70
0
  0
VERTEX
  8
0
 62
7
  6
CONTINUOUS
 10
174.6498135505
 20
72.8742713396
  0
VERTEX
  8
0
 62
7
  6
CONTINUOUS
 10
174.7032104614
 20
72.8881010899
  0
VERTEX
  8
0
 62
7
  6
CONTINUOUS
 10
174.7609970887
 20
72.9104868271
  0
VERTEX
  8
0
 62
7
  6
CONTINUOUS
 10
174.7906047463
 20
72.9253213383
  0
VERTEX
  8
0
 62
7
  6
CONTINUOUS
 10
174.8492157509
 20
72.9626440338
  0
VERTEX
  8
0
 62
7
  6
CONTINUOUS
 10
174.9046247121
 20
73.0102306479
  0
VERTEX
  8
0
 62
7
  6
CONTINUOUS
 10
174.9545145214
 20
73.068077103
  0
VERTEX
  8
0
 62
7
  6
CONTINUOUS
 10
174.9964791955
 20
73.1356708702
  0
VERTEX
  8
0
 62
7
  6
CONTINUOUS
 10
175.0281212035
 20
73.2119273279
  0
VERTEX
  8
0
 62
7
  6
CONTINUOUS
 10
175.0471877785
 20
73.2951601725
  0
SEQEND
  0
LINE
  8
0
 62
7
  6
CONTINUOUS
 10
74.7592791978
 20
72.7720646669
 11
74.777396133
 21
72.7564198042
  0
LINE
  8
0
 62
7
  6
CONTINUOUS
 10
74.9314176471
 20
80.6330955837
 11
74.7804479725
 21
80.557486844
  0
POLYLINE
  8
0
 62
7
  6
CONTINUOUS
 66
1
 70
0
  0
VERTEX
  8
0
 62
7
  6
CONTINUOUS
 10
74.4957418036
 20
80.4291887267
  0
VERTEX
  8
0
 62
7
  6
CONTINUOUS
 10
74.4606996991
 20
80.4130037242
  0
VERTEX
  8
0
 62
7
  6
CONTINUOUS
 10
74.3454795336
 20
80.3332691507
  0
VERTEX
  8
0
 62
7
  6
CONTINUOUS
 10
74.2485836771
 20
80.2118119208
  0
VERTEX
  8
0
 62
7
  6
CONTINUOUS
 10
74.1910875164
 20
80.0552621895
  0
VERTEX
  8
0
 62
7
  6
CONTINUOUS
 10
74.182501681
 20
79.9628156051
  0
SEQEND
  0
LINE
  8
0
 62
7
  6
CONTINUOUS
 10
74.767888586
 20
80.543512889
 11
74.7541481771
 21
80.5373651759
  0
LINE
  8
0
 62
7
  6
CONTINUOUS
 10
74.7538771356
 20
80.5372518135
 11
74.4957519921
 21
80.4291944295
  0
POLYLINE
  8
0
 62
7
  6
CONTINUOUS
 66
1
 70
0
  0
VERTEX
  8
0
 62
7
  6
CONTINUOUS
 10
167.0744471283
 20
72.862216991
  0
VERTEX
  8
0
 62
7
  6
CONTINUOUS
 10
167.1429478334
 20
72.8770352862
  0
VERTEX
  8
0
 62
7
  6
CONTINUOUS
 10
167.2351697851
 20
72.9117850704
  0
VERTEX
  8
0
 62
7
  6
CONTINUOUS
 10
167.332001186
 20
72.9737762386
  0
VERTEX
  8
0
 62
7
  6
CONTINUOUS
 10
167.418497765
 20
73.06444275
  0
VERTEX
  8
0
 62
7
  6
CONTINUOUS
 10
167.4830252646
 20
73.1818772613
  0
VERTEX
  8
0
 62
7
  6
CONTINUOUS
 10
167.5147624509
 20
73.3194025971
  0
VERTEX
  8
0
 62
7
  6
CONTINUOUS
 10
167.516583957
 20
73.3620637787
  0
SEQEND
  0
POLYLINE
  8
0
 62
7
  6
CONTINUOUS
 66
1
 70
0
  0
VERTEX
  8
0
 62
7
  6
CONTINUOUS
 10
30.6258115871
 20
72.876078543
  0
VERTEX
  8
0
 62
7
  6
CONTINUOUS
 10
30.6684688243
 20
72.8684705951
  0
VERTEX
  8
0
 62
7
  6
CONTINUOUS
 10
30.6993732114
 20
72.8646134666
  0
VERTEX
  8
0
 62
7
  6
CONTINUOUS
 10
30.7383344798
 20
72.8604531123
  0
VERTEX
  8
0
 62
7
  6
CONTINUOUS
 10
30.7903387609
 20
72.8553151173
  0
SEQEND
  0
LINE
  8
0
 62
7
  6
CONTINUOUS
 10
74.4957519904
 20
72.882488092
 11
74.7538771357
 21
72.7744307073
  0
LINE
  8
0
 62
7
  6
CONTINUOUS
 10
74.7541572116
 20
72.77431357
 11
74.7644118347
 21
72.7698110873
  0
LINE
  8
0
 62
7
  6
CONTINUOUS
 10
74.777396133
 20
72.7564198042
 11
74.9285199713
 21
72.6794927457
  0
LINE
  8
0
 62
7
  6
CONTINUOUS
 10
150.7476594055
 20
72.674909061
 11
150.7477408917
 21
72.6749252298
  0
POLYLINE
  8
0
 62
7
  6
CONTINUOUS
 66
1
 70
0
  0
VERTEX
  8
0
 62
7
  6
CONTINUOUS
 10
150.7477408917
 20
72.6749252298
  0
VERTEX
  8
0
 62
7
  6
CONTINUOUS
 10
150.8469513131
 20
72.6939899537
  0
VERTEX
  8
0
 62
7
  6
CONTINUOUS
 10
150.9968010046
 20
72.7208014925
  0
SEQEND
  0
LINE
  8
0
 62
7
  6
CONTINUOUS
 10
150.6956714479
 20
72.665971801
 11
150.7476593817
 21
72.6749091805
  0
POLYLINE
  8
0
 62
7
  6
CONTINUOUS
 66
1
 70
0
  0
VERTEX
  8
0
 62
7
  6
CONTINUOUS
 10
151.7879207476
 20
72.8501704153
  0
VERTEX
  8
0
 62
7
  6
CONTINUOUS
 10
151.8007363714
 20
72.8523300939
  0
VERTEX
  8
0
 62
7
  6
CONTINUOUS
 10
151.8818690782
 20
72.8707330488
  0
VERTEX
  8
0
 62
7
  6
CONTINUOUS
 10
151.9736141353
 20
72.9065365982
  0
VERTEX
  8
0
 62
7
  6
CONTINUOUS
 10
152.0703226337
 20
72.9695060782
  0
VERTEX
  8
0
 62
7
  6
CONTINUOUS
 10
152.1159952335
 20
73.0122961943
  0
VERTEX
  8
0
 62
7
  6
CONTINUOUS
 10
152.1925229599
 20
73.118227826
  0
VERTEX
  8
0
 62
7
  6
CONTINUOUS
 10
152.2403264739
 20
73.2455017037
  0
VERTEX
  8
0
 62
7
  6
CONTINUOUS
 10
152.2520718372
 20
73.3831137051
  0
VERTEX
  8
0
 62
7
  6
CONTINUOUS
 10
152.2527772439
 20
73.3565294344
  0
SEQEND
  0
LINE
  8
0
 62
7
  6
CONTINUOUS
 10
150.9968010046
 20
72.7208014925
 11
151.124468141
 21
72.7421617146
  0
LINE
  8
0
 62
7
  6
CONTINUOUS
 10
151.1244780225
 20
72.7421633234
 11
151.7880078545
 21
72.8501841739
  0
LINE
  8
0
 62
7
  6
CONTINUOUS
 10
167.0106322743
 20
72.8530048435
 11
167.0744471283
 21
72.862216991
  0
POLYLINE
  8
0
 62
7
  6
CONTINUOUS
 66
1
 70
0
  0
VERTEX
  8
0
 62
7
  6
CONTINUOUS
 10
174.5862194516
 20
72.8647734715
  0
VERTEX
  8
0
 62
7
  6
CONTINUOUS
 10
174.6176359775
 20
72.8687441927
  0
VERTEX
  8
0
 62
7
  6
CONTINUOUS
 10
174.6621625568
 20
72.8769266738
  0
VERTEX
  8
0
 62
7
  6
CONTINUOUS
 10
174.7176716634
 20
72.8929417361
  0
VERTEX
  8
0
 62
7
  6
CONTINUOUS
 10
174.7767672669
 20
72.918082724
  0
VERTEX
  8
0
 62
7
  6
CONTINUOUS
 10
174.8368315401
 20
72.953778039
  0
VERTEX
  8
0
 62
7
  6
CONTINUOUS
 10
174.8945393349
 20
73.0004769
  0
VERTEX
  8
0
 62
7
  6
CONTINUOUS
 10
174.94709646
 20
73.0582677896
  0
VERTEX
  8
0
 62
7
  6
CONTINUOUS
 10
174.9917336709
 20
73.1266885489
  0
VERTEX
  8
0
 62
7
  6
CONTINUOUS
 10
175.0257003085
 20
73.2045800733
  0
VERTEX
  8
0
 62
7
  6
CONTINUOUS
 10
175.0464449136
 20
73.2900612133
  0
VERTEX
  8
0
 62
7
  6
CONTINUOUS
 10
175.0520605322
 20
73.364790882
  0
SEQEND
  0
POLYLINE
  8
0
 62
7
  6
CONTINUOUS
 66
1
 70
0
  0
VERTEX
  8
0
 62
7
  6
CONTINUOUS
 10
174.5804695158
 20
72.8641255926
  0
VERTEX
  8
0
 62
7
  6
CONTINUOUS
 10
174.6109827567
 20
72.8678175898
  0
VERTEX
  8
0
 62
7
  6
CONTINUOUS
 10
174.6498135505
 20
72.8742713396
  0
SEQEND
  0
LINE
  8
0
 62
7
  6
CONTINUOUS
 10
166.9562421089
 20
72.8466396981
 11
167.0106322743
 21
72.8530048435
  0
LINE
  8
0
 62
7
  6
CONTINUOUS
 10
165.3512654861
 20
72.668798254
 11
165.7717937149
 21
72.7170366405
  0
LINE
  8
0
 62
7
  6
CONTINUOUS
 10
165.7717937149
 20
72.7170366405
 11
166.9562562573
 21
72.8466410829
  0
LINE
  8
0
 62
7
  6
CONTINUOUS
 10
174.5411272137
 20
72.8599723533
 11
174.5862194516
 21
72.8647734715
  0
LINE
  8
0
 62
7
  6
CONTINUOUS
 10
165.2977224604
 20
72.6632452224
 11
165.3512615696
 21
72.6687979106
  0
LINE
  8
0
 62
7
  6
CONTINUOUS
 10
174.4892481517
 20
72.8548736651
 11
174.5473134244
 21
72.8606027028
  0
LINE
  8
0
 62
7
  6
CONTINUOUS
 10
172.4241131196
 20
72.6674485435
 11
173.1954922258
 21
72.7376991139
  0
LINE
  8
0
 62
7
  6
CONTINUOUS
 10
173.1954920868
 20
72.7376990878
 11
174.4954446346
 21
72.8554689036
  0
LINE
  8
1_AXIS
 62
7
  6
CONTINUOUS
 10
160.6420927467
 20
64.1558412604
 11
44.6420927467
 21
64.1558412604
  0
POLYLINE
  8
0
 62
7
  6
CONTINUOUS
 66
1
 70
0
  0
VERTEX
  8
0
 62
7
  6
CONTINUOUS
 10
32.8600722254
 20
72.6674486731
  0
VERTEX
  8
0
 62
7
  6
CONTINUOUS
 10
32.9137146397
 20
72.6630467984
  0
VERTEX
  8
0
 62
7
  6
CONTINUOUS
 10
33.0504946975
 20
72.6565500544
  0
VERTEX
  8
0
 62
7
  6
CONTINUOUS
 10
33.1125167437
 20
72.6558414014
  0
SEQEND
  0
LINE
  8
0
 62
7
  6
CONTINUOUS
 10
30.7903387609
 20
72.8553151173
 11
32.86007234
 21
72.6674485542
  0
LINE
  8
0
 62
7
  6
CONTINUOUS
 10
39.9329233195
 20
72.668797982
 11
39.9805804151
 21
72.6637804989
  0
POLYLINE
  8
0
 62
7
  6
CONTINUOUS
 66
1
 70
0
  0
VERTEX
  8
0
 62
7
  6
CONTINUOUS
 10
38.3279292368
 20
72.8466410828
  0
VERTEX
  8
0
 62
7
  6
CONTINUOUS
 10
39.7527690087
 20
72.6897881222
  0
VERTEX
  8
0
 62
7
  6
CONTINUOUS
 10
39.9329200106
 20
72.6687982579
  0
SEQEND
  0
LINE
  8
0
 62
7
  6
CONTINUOUS
 10
38.2717378975
 20
72.8532348492
 11
38.3279429423
 21
72.8466397197
  0
LINE
  8
0
 62
7
  6
CONTINUOUS
 10
38.208737646
 20
72.862386538
 11
38.2717378975
 21
72.8532348492
  0
LINE
  8
0
 62
7
  6
CONTINUOUS
 10
53.49617764
 20
72.8501841737
 11
54.2840391749
 21
72.7213770772
  0
LINE
  8
0
 62
7
  6
CONTINUOUS
 10
54.5365220766
 20
72.6749099808
 11
54.5834926429
 21
72.6667143932
  0
POLYLINE
  8
0
 62
7
  6
CONTINUOUS
 66
1
 70
0
  0
VERTEX
  8
0
 62
7
  6
CONTINUOUS
 10
54.2840391749
 20
72.7213770772
  0
VERTEX
  8
0
 62
7
  6
CONTINUOUS
 10
54.4342195323
 20
72.6945511651
  0
VERTEX
  8
0
 62
7
  6
CONTINUOUS
 10
54.5364455381
 20
72.6749250408
  0
SEQEND
  0
LINE
  8
0
 62
7
  6
CONTINUOUS
 10
54.5365220766
 20
72.6749099808
 11
54.5364455625
 21
72.6749251634
  0
LINE
  8
0
 62
7
  6
CONTINUOUS
 10
130.2024942104
 20
72.6558413685
 11
130.3527676666
 21
72.6785868771
  0
LINE
  8
0
 62
7
  6
CONTINUOUS
 10
150.5925307453
 20
72.6565048826
 11
150.6956714479
 21
72.665971801
  0
LINE
  8
0
 62
7
  6
CONTINUOUS
 10
150.5572843232
 20
72.6558413741
 11
150.5925307453
 21
72.6565048826
  0
POLYLINE
  8
0
 62
7
  6
CONTINUOUS
 66
1
 70
0
  0
VERTEX
  8
0
 62
7
  6
CONTINUOUS
 10
165.1329430859
 20
72.6558413665
  0
VERTEX
  8
0
 62
7
  6
CONTINUOUS
 10
165.1796816663
 20
72.6564413577
  0
VERTEX
  8
0
 62
7
  6
CONTINUOUS
 10
165.2977224604
 20
72.6632452224
  0
SEQEND
  0
POLYLINE
  8
0
 62
7
  6
CONTINUOUS
 66
1
 70
0
  0
VERTEX
  8
0
 62
7
  6
CONTINUOUS
 10
172.1716822587
 20
72.6558414034
  0
VERTEX
  8
0
 62
7
  6
CONTINUOUS
 10
172.2269155987
 20
72.6564046773
  0
VERTEX
  8
0
 62
7
  6
CONTINUOUS
 10
172.3636618311
 20
72.6625628257
  0
VERTEX
  8
0
 62
7
  6
CONTINUOUS
 10
172.4241131527
 20
72.6674486624
  0
SEQEND
  0
LINE
  8
0
 62
7
  6
CONTINUOUS
 10
54.6864968706
 20
72.6567132415
 11
54.7269113072
 21
72.6558413759
  0
POLYLINE
  8
0
 62
7
  6
CONTINUOUS
 66
1
 70
0
  0
VERTEX
  8
0
 62
7
  6
CONTINUOUS
 10
39.9805804151
 20
72.6637804989
  0
VERTEX
  8
0
 62
7
  6
CONTINUOUS
 10
40.0986518732
 20
72.6566007781
  0
VERTEX
  8
0
 62
7
  6
CONTINUOUS
 10
40.1512477958
 20
72.6558413668
  0
SEQEND
  0
LINE
  8
0
 62
7
  6
CONTINUOUS
 10
54.5834926429
 20
72.6667143932
 11
54.6864968706
 21
72.6567132415
  0
LINE
  8
0
 62
7
  6
CONTINUOUS
 10
74.9285199713
 20
72.6794927457
 11
75.0816919267
 21
72.6558413689
  0
LINE
  8
1_AXIS
 62
2
  6
CENTER
 10
102.6420927467
 20
62.1558412604
 11
102.6420927467
 21
91.1558412604
  0
LINE
  8
0
 62
7
  6
CONTINUOUS
 10
172.1712293108
 20
72.6558412604
 11
172.1716776766
 21
72.6558412971
  0
LINE
  8
0
 62
7
  6
CONTINUOUS
 10
130.2025063082
 20
72.6558412604
 11
75.0816791852
 21
72.6558412604
  0
LINE
  8
0
 62
7
  6
CONTINUOUS
 10
33.1129561835
 20
72.6558412604
 11
75.0678612924
 21
72.6558412604
  0
LINE
  8
0
 62
7
  6
CONTINUOUS
 10
130.2457836349
 20
72.6558412604
 11
172.1712293099
 21
72.6558412604
  0
LINE
  8
0
 62
7
  6
CONTINUOUS
 10
54.7269017695
 20
80.6558411455
 11
54.6916599262
 21
80.655177827
  0
POLYLINE
  8
0
 62
7
  6
CONTINUOUS
 66
1
 70
0
  0
VERTEX
  8
0
 62
7
  6
CONTINUOUS
 10
40.1512492898
 20
80.6558411529
  0
VERTEX
  8
0
 62
7
  6
CONTINUOUS
 10
40.1045088569
 20
80.6552412871
  0
VERTEX
  8
0
 62
7
  6
CONTINUOUS
 10
39.9864681399
 20
80.6484377588
  0
SEQEND
  0
POLYLINE
  8
0
 62
7
  6
CONTINUOUS
 66
1
 70
0
  0
VERTEX
  8
0
 62
7
  6
CONTINUOUS
 10
33.1127425297
 20
80.655841145
  0
VERTEX
  8
0
 62
7
  6
CONTINUOUS
 10
33.0572745218
 20
80.6552779325
  0
VERTEX
  8
0
 62
7
  6
CONTINUOUS
 10
32.9205283423
 20
80.6491200263
  0
VERTEX
  8
0
 62
7
  6
CONTINUOUS
 10
32.86007238
 20
80.6442338628
  0
SEQEND
  0
LINE
  8
1_AXIS
 62
7
  6
CONTINUOUS
 10
172.1712293108
 20
80.6558412604
 11
170.8232522071
 21
80.6558412604
  0
LINE
  8
1_AXIS
 62
7
  6
CONTINUOUS
 10
165.1329664042
 20
80.6558412604
 11
161.2516210257
 21
80.6558412604
  0
LINE
  8
1_AXIS
 62
7
  6
CONTINUOUS
 10
150.5573818673
 20
80.6558412604
 11
144.6108157493
 21
80.6558412604
  0
LINE
  8
1_AXIS
 62
7
  6
CONTINUOUS
 10
130.2025063082
 20
80.6558412604
 11
122.9079630865
 21
80.6558412604
  0
LINE
  8
1_AXIS
 62
7
  6
CONTINUOUS
 10
106.5234381252
 20
80.6558412604
 11
98.7607473683
 21
80.6558412604
  0
LINE
  8
1_AXIS
 62
7
  6
CONTINUOUS
 10
82.376222407
 20
80.6558412604
 11
75.0816791852
 21
80.6558412604
  0
LINE
  8
1_AXIS
 62
7
  6
CONTINUOUS
 10
60.6733697441
 20
80.6558412604
 11
54.7268036261
 21
80.6558412604
  0
LINE
  8
1_AXIS
 62
7
  6
CONTINUOUS
 10
44.0325644678
 20
80.6558412604
 11
40.1512190893
 21
80.6558412604
  0
LINE
  8
1_AXIS
 62
7
  6
CONTINUOUS
 10
34.4609332864
 20
80.6558412604
 11
33.1129561826
 21
80.6558412604
  0
LINE
  8
0
 62
7
  6
CONTINUOUS
 10
33.1129561835
 20
80.6558412604
 11
75.0678612927
 21
80.6558412604
  0
LINE
  8
0
 62
7
  6
CONTINUOUS
 10
75.0816791852
 20
80.6558412604
 11
130.2025063082
 21
80.6558412604
  0
LINE
  8
0
 62
7
  6
CONTINUOUS
 10
130.2457836341
 20
80.6558412604
 11
172.1712293099
 21
80.6558412604
  0
LINE
  8
0
 62
7
  6
CONTINUOUS
 10
150.5976833431
 20
80.6549695019
 11
150.5572736542
 21
80.6558411438
  0
LINE
  8
0
 62
7
  6
CONTINUOUS
 10
75.0816913938
 20
80.655841151
 11
74.9314176471
 21
80.6330955837
  0
LINE
  8
0
 62
7
  6
CONTINUOUS
 10
39.9864681399
 20
80.6484377588
 11
39.9329240546
 21
80.6428846264
  0
LINE
  8
0
 62
7
  6
CONTINUOUS
 10
54.6916599262
 20
80.655177827
 11
54.5885192189
 21
80.645711473
  0
LINE
  8
0
 62
7
  6
CONTINUOUS
 10
32.8600723579
 20
80.6442339698
 11
32.0886932782
 21
80.5739834069
  0
LINE
  8
0
 62
7
  6
CONTINUOUS
 10
32.0886934066
 20
80.573983433
 11
30.7949663939
 21
80.4568116333
  0
POLYLINE
  8
0
 62
7
  6
CONTINUOUS
 66
1
 70
0
  0
VERTEX
  8
0
 62
7
  6
CONTINUOUS
 10
165.3035998878
 20
80.6479025083
  0
VERTEX
  8
0
 62
7
  6
CONTINUOUS
 10
165.1855284756
 20
80.655081888
  0
VERTEX
  8
0
 62
7
  6
CONTINUOUS
 10
165.1329309595
 20
80.6558411529
  0
SEQEND
  0
POLYLINE
  8
0
 62
7
  6
CONTINUOUS
 66
1
 70
0
  0
VERTEX
  8
0
 62
7
  6
CONTINUOUS
 10
172.424113234
 20
80.6442338516
  0
VERTEX
  8
0
 62
7
  6
CONTINUOUS
 10
172.3704661057
 20
80.6486360722
  0
VERTEX
  8
0
 62
7
  6
CONTINUOUS
 10
172.2336860877
 20
80.6551325705
  0
VERTEX
  8
0
 62
7
  6
CONTINUOUS
 10
172.1714311774
 20
80.6558411459
  0
SEQEND
  0
LINE
  8
0
 62
7
  6
CONTINUOUS
 10
174.4902882385
 20
80.4567091547
 11
174.4273444544
 21
80.4626157912
  0
LINE
  8
0
 62
7
  6
CONTINUOUS
 10
150.7006875782
 20
80.6449689241
 11
150.5976833431
 21
80.6549695019
  0
LINE
  8
0
 62
7
  6
CONTINUOUS
 10
165.3512620494
 20
80.6428845542
 11
165.3035998878
 21
80.6479025083
  0
LINE
  8
0
 62
7
  6
CONTINUOUS
 10
130.3556651304
 20
80.6321898947
 11
130.2024934568
 21
80.6558411508
  0
POLYLINE
  8
0
 62
7
  6
CONTINUOUS
 66
1
 70
0
  0
VERTEX
  8
0
 62
7
  6
CONTINUOUS
 10
130.7885232263
 20
72.8825273721
  0
VERTEX
  8
0
 62
7
  6
CONTINUOUS
 10
130.8234809003
 20
72.8986774744
  0
VERTEX
  8
0
 62
7
  6
CONTINUOUS
 10
130.9386912913
 20
72.9783997879
  0
VERTEX
  8
0
 62
7
  6
CONTINUOUS
 10
131.0355962275
 20
73.0998595076
  0
VERTEX
  8
0
 62
7
  6
CONTINUOUS
 10
131.093096743
 20
73.2564131647
  0
VERTEX
  8
0
 62
7
  6
CONTINUOUS
 10
131.1016835153
 20
73.3488641153
  0
SEQEND
  0
LINE
  8
0
 62
7
  6
CONTINUOUS
 10
130.5162960088
 20
72.7681691235
 11
130.5300369448
 21
72.7743171876
  0
LINE
  8
0
 62
7
  6
CONTINUOUS
 10
130.5303083577
 20
72.7744307073
 11
130.788433504
 21
72.8824880924
  0
LINE
  8
0
 62
7
  6
CONTINUOUS
 10
54.536526395
 20
80.6367735239
 11
54.536444616
 21
80.636757297
  0
POLYLINE
  8
0
 62
7
  6
CONTINUOUS
 66
1
 70
0
  0
VERTEX
  8
0
 62
7
  6
CONTINUOUS
 10
54.536444616
 20
80.636757297
  0
VERTEX
  8
0
 62
7
  6
CONTINUOUS
 10
54.4372446062
 20
80.6176945114
  0
VERTEX
  8
0
 62
7
  6
CONTINUOUS
 10
54.287396009
 20
80.5908830137
  0
SEQEND
  0
LINE
  8
0
 62
7
  6
CONTINUOUS
 10
54.5885192189
 20
80.645711473
 11
54.5365264193
 21
80.636773402
  0
POLYLINE
  8
0
 62
7
  6
CONTINUOUS
 66
1
 70
0
  0
VERTEX
  8
0
 62
7
  6
CONTINUOUS
 10
53.4962630144
 20
80.4615118912
  0
VERTEX
  8
0
 62
7
  6
CONTINUOUS
 10
53.4834651242
 20
80.4593554738
  0
VERTEX
  8
0
 62
7
  6
CONTINUOUS
 10
53.4023170998
 20
80.4409495425
  0
VERTEX
  8
0
 62
7
  6
CONTINUOUS
 10
53.3106012357
 20
80.405161305
  0
VERTEX
  8
0
 62
7
  6
CONTINUOUS
 10
53.2138756695
 20
80.3421880358
  0
VERTEX
  8
0
 62
7
  6
CONTINUOUS
 10
53.1681953132
 20
80.299391876
  0
VERTEX
  8
0
 62
7
  6
CONTINUOUS
 10
53.0916649914
 20
80.1934565993
  0
VERTEX
  8
0
 62
7
  6
CONTINUOUS
 10
53.0438608563
 20
80.0661809132
  0
VERTEX
  8
0
 62
7
  6
CONTINUOUS
 10
53.0321152241
 20
79.9285675698
  0
VERTEX
  8
0
 62
7
  6
CONTINUOUS
 10
53.0314098509
 20
79.9551506699
  0
SEQEND
  0
LINE
  8
0
 62
7
  6
CONTINUOUS
 10
54.287396009
 20
80.5908830137
 11
54.1597174014
 21
80.5695208128
  0
LINE
  8
0
 62
7
  6
CONTINUOUS
 10
54.1597074709
 20
80.5695191974
 11
53.4961776416
 21
80.4614983474
  0
LINE
  8
0
 62
7
  6
CONTINUOUS
 10
38.2736999537
 20
80.4586962201
 11
38.2100194418
 21
80.4495129859
  0
LINE
  8
0
 62
7
  6
CONTINUOUS
 10
38.3279421241
 20
80.4650427117
 11
38.2736999537
 21
80.4586962201
  0
LINE
  8
0
 62
7
  6
CONTINUOUS
 10
39.9329199933
 20
80.642884262
 11
39.5124122469
 21
80.594648171
  0
LINE
  8
0
 62
7
  6
CONTINUOUS
 10
39.5124122469
 20
80.594648171
 11
38.3279292379
 21
80.4650414381
  0
POLYLINE
  8
0
 62
7
  6
CONTINUOUS
 66
1
 70
0
  0
VERTEX
  8
0
 62
7
  6
CONTINUOUS
 10
30.7430718506
 20
80.4517115472
  0
VERTEX
  8
0
 62
7
  6
CONTINUOUS
 10
30.7037243904
 20
80.4475578825
  0
VERTEX
  8
0
 62
7
  6
CONTINUOUS
 10
30.6732166285
 20
80.4438668366
  0
VERTEX
  8
0
 62
7
  6
CONTINUOUS
 10
30.6343854732
 20
80.4374138822
  0
SEQEND
  0
LINE
  8
0
 62
7
  6
CONTINUOUS
 10
30.7949663939
 20
80.4568116333
 11
30.7430718506
 21
80.4517115472
  0
LINE
  8
1_AXIS
 62
7
  6
CONTINUOUS
 10
160.6420927467
 20
89.1558412604
 11
44.6420927467
 21
89.1558412604
  0
POLYLINE
  8
0
 62
7
  6
CONTINUOUS
 66
1
 70
0
  0
VERTEX
  8
0
 62
7
  6
CONTINUOUS
 10
166.9562562566
 20
80.465041438
  0
VERTEX
  8
0
 62
7
  6
CONTINUOUS
 10
165.5314353103
 20
80.6218922427
  0
VERTEX
  8
0
 62
7
  6
CONTINUOUS
 10
165.3512654474
 20
80.6428842718
  0
SEQEND
  0
LINE
  8
0
 62
7
  6
CONTINUOUS
 10
167.012465434
 20
80.4584453903
 11
166.9562411163
 21
80.4650429311
  0
LINE
  8
0
 62
7
  6
CONTINUOUS
 10
167.0754525112
 20
80.4492951887
 11
167.012465434
 21
80.4584453903
  0
POLYLINE
  8
0
 62
7
  6
CONTINUOUS
 66
1
 70
0
  0
VERTEX
  8
0
 62
7
  6
CONTINUOUS
 10
174.6475630798
 20
80.4378614975
  0
VERTEX
  8
0
 62
7
  6
CONTINUOUS
 10
174.6099452047
 20
80.4440042211
  0
VERTEX
  8
0
 62
7
  6
CONTINUOUS
 10
174.5795513649
 20
80.4476590378
  0
VERTEX
  8
0
 62
7
  6
CONTINUOUS
 10
174.5400995468
 20
80.4518142912
  0
VERTEX
  8
0
 62
7
  6
CONTINUOUS
 10
174.4881606868
 20
80.4569130021
  0
VERTEX
  8
0
 62
7
  6
CONTINUOUS
 10
172.4241131264
 20
80.6442339775
  0
SEQEND
  0
LINE
  8
0
 62
7
  6
CONTINUOUS
 10
151.7880078534
 20
80.4614983471
 11
151.0001573847
 21
80.5903035394
  0
LINE
  8
0
 62
7
  6
CONTINUOUS
 10
150.7476630428
 20
80.6367726148
 11
150.7006875782
 21
80.6449689241
  0
POLYLINE
  8
0
 62
7
  6
CONTINUOUS
 66
1
 70
0
  0
VERTEX
  8
0
 62
7
  6
CONTINUOUS
 10
151.0001573847
 20
80.5903035394
  0
VERTEX
  8
0
 62
7
  6
CONTINUOUS
 10
150.8499759028
 20
80.6171295054
  0
VERTEX
  8
0
 62
7
  6
CONTINUOUS
 10
150.7477399543
 20
80.6367574769
  0
SEQEND
  0
LINE
  8
0
 62
7
  6
CONTINUOUS
 10
150.7476630428
 20
80.6367726148
 11
150.7477399306
 21
80.6367573581
  0
LINE
  8
0
 62
7
  6
CONTINUOUS
 10
130.7884335029
 20
80.4291944288
 11
130.5303083577
 21
80.5372518135
  0
LINE
  8
0
 62
7
  6
CONTINUOUS
 10
130.5300278859
 20
80.5373691173
 11
130.5197732106
 21
80.5418716819
  0
LINE
  8
0
 62
7
  6
CONTINUOUS
 10
130.3527676666
 20
72.6785868771
 11
130.5037373271
 21
72.7541955364
  0
POLYLINE
  8
0
 62
7
  6
CONTINUOUS
 66
1
 70
0
  0
VERTEX
  8
0
 62
7
  6
CONTINUOUS
 10
38.2100194418
 20
80.4495129859
  0
VERTEX
  8
0
 62
7
  6
CONTINUOUS
 10
38.1417394948
 20
80.4347847323
  0
VERTEX
  8
0
 62
7
  6
CONTINUOUS
 10
38.049531656
 20
80.4001501076
  0
VERTEX
  8
0
 62
7
  6
CONTINUOUS
 10
37.9525554894
 20
80.3382095272
  0
VERTEX
  8
0
 62
7
  6
CONTINUOUS
 10
37.865925414
 20
80.2475623578
  0
VERTEX
  8
0
 62
7
  6
CONTINUOUS
 10
37.8012733759
 20
80.1300983706
  0
VERTEX
  8
0
 62
7
  6
CONTINUOUS
 10
37.7694403845
 20
79.992470269
  0
SEQEND
  0
LINE
  8
0
 62
7
  6
CONTINUOUS
 10
130.5067892182
 20
80.555262821
 11
130.3556651304
 21
80.6321898947
  0
LINE
  8
0
 62
7
  6
CONTINUOUS
 10
130.5037373271
 20
72.7541955364
 11
130.5241106475
 21
72.7716656029
  0
POLYLINE
  8
0
 62
7
  6
CONTINUOUS
 66
1
 70
0
  0
VERTEX
  8
0
 62
7
  6
CONTINUOUS
 10
30.6343854732
 20
80.4374138822
  0
VERTEX
  8
0
 62
7
  6
CONTINUOUS
 10
30.580983135
 20
80.4235840701
  0
VERTEX
  8
0
 62
7
  6
CONTINUOUS
 10
30.5231920715
 20
80.4011975912
  0
VERTEX
  8
0
 62
7
  6
CONTINUOUS
 10
30.4935821441
 20
80.3863622366
  0
VERTEX
  8
0
 62
7
  6
CONTINUOUS
 10
30.4349684122
 20
80.349038005
  0
VERTEX
  8
0
 62
7
  6
CONTINUOUS
 10
30.37955869
 20
80.3014505683
  0
VERTEX
  8
0
 62
7
  6
CONTINUOUS
 10
30.3296690659
 20
80.2436039966
  0
VERTEX
  8
0
 62
7
  6
CONTINUOUS
 10
30.2877049243
 20
80.176010764
  0
VERTEX
  8
0
 62
7
  6
CONTINUOUS
 10
30.2560633423
 20
80.0997552096
  0
VERTEX
  8
0
 62
7
  6
CONTINUOUS
 10
30.2369968685
 20
80.0165231905
  0
SEQEND
  0
LINE
  8
0
 62
7
  6
CONTINUOUS
 10
174.7025429956
 20
80.423793155
 11
174.649082469
 21
80.4375585992
  0
LINE
  8
0
 62
7
  6
CONTINUOUS
 10
130.524906195
 20
80.5396179202
 11
130.5067892182
 21
80.555262821
  0
POLYLINE
  8
0
 62
7
  6
CONTINUOUS
 66
1
 70
0
  0
VERTEX
  8
0
 62
7
  6
CONTINUOUS
 10
131.1016835156
 20
79.962818439
  0
VERTEX
  8
0
 62
7
  6
CONTINUOUS
 10
131.0933640383
 20
80.0538311921
  0
VERTEX
  8
0
 62
7
  6
CONTINUOUS
 10
131.0369085044
 20
80.2095097336
  0
VERTEX
  8
0
 62
7
  6
CONTINUOUS
 10
130.9413886737
 20
80.3307868914
  0
VERTEX
  8
0
 62
7
  6
CONTINUOUS
 10
130.8275080488
 20
80.4109418094
  0
VERTEX
  8
0
 62
7
  6
CONTINUOUS
 10
130.7884502646
 20
80.4291857135
  0
SEQEND
  0
LINE
  8
0
 62
7
  6
CONTINUOUS
 10
131.1016843016
 20
79.9628278744
 11
131.1016843016
 21
73.3488546464
  0
LINE
  8
0
 62
7
  6
CONTINUOUS
 10
174.7619094255
 20
80.4007746106
 11
174.7009116477
 21
80.4243063921
  0
LINE
  8
0
 62
7
  6
CONTINUOUS
 10
152.2527786885
 20
79.9552005267
 11
152.2527786885
 21
73.3564819941
  0
POLYLINE
  8
0
 62
7
  6
CONTINUOUS
 66
1
 70
0
  0
VERTEX
  8
0
 62
7
  6
CONTINUOUS
 10
152.252777244
 20
79.9551530824
  0
VERTEX
  8
0
 62
7
  6
CONTINUOUS
 10
152.2520546139
 20
79.9282464764
  0
VERTEX
  8
0
 62
7
  6
CONTINUOUS
 10
152.2405264829
 20
80.0652965022
  0
VERTEX
  8
0
 62
7
  6
CONTINUOUS
 10
152.1931957466
 20
80.1922047585
  0
VERTEX
  8
0
 62
7
  6
CONTINUOUS
 10
152.1172841014
 20
80.2980139274
  0
VERTEX
  8
0
 62
7
  6
CONTINUOUS
 10
152.0719391983
 20
80.3408343125
  0
VERTEX
  8
0
 62
7
  6
CONTINUOUS
 10
151.9757793838
 20
80.4040547902
  0
VERTEX
  8
0
 62
7
  6
CONTINUOUS
 10
151.8842789627
 20
80.4402413233
  0
VERTEX
  8
0
 62
7
  6
CONTINUOUS
 10
151.8031598688
 20
80.4589265568
  0
VERTEX
  8
0
 62
7
  6
CONTINUOUS
 10
151.7879108319
 20
80.4615137177
  0
SEQEND
  0
LINE
  8
0
 62
7
  6
CONTINUOUS
 10
174.9071786207
 20
80.2988934204
 11
174.8515137648
 21
80.3473297094
  0
LINE
  8
1_AXIS
 62
7
  6
CONTINUOUS
 10
162.6420927467
 20
87.1558412604
 11
162.6420927467
 21
81.6558412604
  0
LINE
  8
1_AXIS
 62
7
  6
CONTINUOUS
 10
162.6420927467
 20
71.6558412604
 11
162.6420927467
 21
66.1558412604
  0
POLYLINE
  8
0
 62
7
  6
CONTINUOUS
 66
1
 70
0
  0
VERTEX
  8
0
 62
7
  6
CONTINUOUS
 10
167.516583957
 20
79.9496187423
  0
VERTEX
  8
0
 62
7
  6
CONTINUOUS
 10
167.5147515746
 20
79.9924068657
  0
VERTEX
  8
0
 62
7
  6
CONTINUOUS
 10
167.4829561857
 20
80.1299841878
  0
VERTEX
  8
0
 62
7
  6
CONTINUOUS
 10
167.41838577
 20
80.2473912068
  0
VERTEX
  8
0
 62
7
  6
CONTINUOUS
 10
167.3319146123
 20
80.3379768174
  0
VERTEX
  8
0
 62
7
  6
CONTINUOUS
 10
167.2352472181
 20
80.3998595007
  0
VERTEX
  8
0
 62
7
  6
CONTINUOUS
 10
167.143451254
 20
80.4345087262
  0
VERTEX
  8
0
 62
7
  6
CONTINUOUS
 10
167.0754525112
 20
80.4492951887
  0
SEQEND
  0
LINE
  8
0
 62
7
  6
CONTINUOUS
 10
167.5165839818
 20
79.9497309406
 11
167.5165839818
 21
73.3619515802
  0
POLYLINE
  8
0
 62
7
  6
CONTINUOUS
 66
1
 70
0
  0
VERTEX
  8
0
 62
7
  6
CONTINUOUS
 10
175.0520605322
 20
79.9468916383
  0
VERTEX
  8
0
 62
7
  6
CONTINUOUS
 10
175.0475406414
 20
80.013972298
  0
VERTEX
  8
0
 62
7
  6
CONTINUOUS
 10
175.0290603784
 20
80.0968016257
  0
VERTEX
  8
0
 62
7
  6
CONTINUOUS
 10
174.9979306375
 20
80.1731756567
  0
VERTEX
  8
0
 62
7
  6
CONTINUOUS
 10
174.9562210622
 20
80.2412775286
  0
VERTEX
  8
0
 62
7
  6
CONTINUOUS
 10
174.9062177029
 20
80.2998611763
  0
VERTEX
  8
0
 62
7
  6
CONTINUOUS
 10
174.8502918585
 20
80.3482413538
  0
VERTEX
  8
0
 62
7
  6
CONTINUOUS
 10
174.7907631171
 20
80.3862754258
  0
VERTEX
  8
0
 62
7
  6
CONTINUOUS
 10
174.760360013
 20
80.4014886252
  0
SEQEND
  0
LINE
  8
0
 62
7
  6
CONTINUOUS
 10
175.0520599934
 20
79.9470055673
 11
175.0520599934
 21
73.3646769534
  0
LINE
  8
0
 62
7
  6
CONTINUOUS
 10
175.0471877785
 20
73.2951601725
 11
175.0520595773
 21
73.3647911225
  0
ARC
  8
0
 62
7
  6
CONTINUOUS
 10
45.5113063329
 20
153.1806524208
 40
6.2
 50
104.7262619366
 51
111.838
  0
ARC
  8
0
 62
7
  6
CONTINUOUS
 10
45.5113063329
 20
153.1806524208
 40
6.2
 50
88.058871156
 51
102.7506054215
  0
ARC
  8
0
 62
7
  6
CONTINUOUS
 10
64.2979582445
 20
136.3458478823
 40
6.2
 50
124.7262619366
 51
131.838
  0
ARC
  8
0
 62
7
  6
CONTINUOUS
 10
64.2979582445
 20
136.3458478823
 40
6.2
 50
108.058871156
 51
122.7506054215
  0
ARC
  8
0
 62
7
  6
CONTINUOUS
 10
48.5480844939
 20
149.5615611374
 40
6.2
 50
337.2493945785
 51
351.941128844
  0
ARC
  8
0
 62
7
  6
CONTINUOUS
 10
48.5480844939
 20
149.5615611374
 40
6.2
 50
328.162
 51
335.2737380634
  0
ARC
  8
0
 62
7
  6
CONTINUOUS
 10
45.6535712902
 20
157.3782422867
 40
2.0
 50
35.5051234822
 51
88.058871156
  0
ARC
  8
0
 62
7
  6
CONTINUOUS
 10
62.9959832875
 20
140.3389495854
 40
2.0
 50
55.5051234822
 51
108.058871156
  0
ARC
  8
0
 62
7
  6
CONTINUOUS
 10
52.7066075884
 20
148.9727609395
 40
2.0
 50
351.941128844
 51
44.4948765178
  0
ARC
  8
0
 62
7
  6
CONTINUOUS
 10
41.739943726
 20
159.2104714762
 40
0.8
 50
212.5174152214
 51
291.838
  0
ARC
  8
0
 62
7
  6
CONTINUOUS
 10
58.6917170549
 20
140.722142374
 40
0.8
 50
232.5174152215
 51
311.838
  0
ARC
  8
0
 62
7
  6
CONTINUOUS
 10
53.831406805
 20
144.8004269121
 40
0.8
 50
148.162
 51
227.4825847785
  0
ARC
  8
0
 62
7
  6
CONTINUOUS
 10
33.6154704234
 20
175.4256073974
 40
6.2
 50
84.7262619366
 51
91.838
  0
ARC
  8
0
 62
7
  6
CONTINUOUS
 10
33.6154704234
 20
175.4256073974
 40
6.2
 50
68.058871156
 51
82.7506054215
  0
ARC
  8
0
 62
7
  6
CONTINUOUS
 10
30.0452638906
 20
195.6732547994
 40
6.2
 50
297.2493945785
 51
311.941128844
  0
ARC
  8
0
 62
7
  6
CONTINUOUS
 10
30.0452638906
 20
195.6732547994
 40
6.2
 50
288.162
 51
295.2737380634
  0
ARC
  8
0
 62
7
  6
CONTINUOUS
 10
35.2313063329
 20
170.9861347226
 40
6.2
 50
317.2493945785
 51
331.941128844
  0
ARC
  8
0
 62
7
  6
CONTINUOUS
 10
35.2313063329
 20
170.9861347226
 40
6.2
 50
308.162
 51
315.2737380634
  0
ARC
  8
0
 62
7
  6
CONTINUOUS
 10
35.1848160415
 20
179.3213941384
 40
2.0
 50
15.5051234822
 51
68.058871156
  0
ARC
  8
0
 62
7
  6
CONTINUOUS
 10
32.8524039269
 20
192.54916056
 40
2.0
 50
311.941128844
 51
4.4948765178
  0
ARC
  8
0
 62
7
  6
CONTINUOUS
 10
38.93765827
 20
169.0105448567
 40
2.0
 50
331.941128844
 51
24.4948765178
  0
ARC
  8
0
 62
7
  6
CONTINUOUS
 10
32.133868389
 20
182.3816658478
 40
0.8
 50
192.5174152214
 51
271.838
  0
ARC
  8
0
 62
7
  6
CONTINUOUS
 10
31.0321255001
 20
188.6299602636
 40
0.8
 50
108.162
 51
187.4825847785
  0
ARC
  8
0
 62
7
  6
CONTINUOUS
 10
38.5676015117
 20
164.7051293704
 40
0.8
 50
128.162
 51
207.4825847785
  0
ARC
  8
0
 62
7
  6
CONTINUOUS
 10
87.7094786762
 20
126.9517196645
 40
6.2
 50
144.7262619366
 51
151.838
  0
ARC
  8
0
 62
7
  6
CONTINUOUS
 10
87.7094786762
 20
126.9517196645
 40
6.2
 50
128.058871156
 51
142.7506054215
  0
ARC
  8
0
 62
7
  6
CONTINUOUS
 10
68.3893983928
 20
133.9836538112
 40
6.2
 50
357.2493945785
 51
11.941128844
  0
ARC
  8
0
 62
7
  6
CONTINUOUS
 10
68.3893983928
 20
133.9836538112
 40
6.2
 50
348.162
 51
355.2737380634
  0
ARC
  8
0
 62
7
  6
CONTINUOUS
 10
92.3620927467
 20
126.131338273
 40
6.2
 50
17.2493945785
 51
31.941128844
  0
ARC
  8
0
 62
7
  6
CONTINUOUS
 10
92.3620927467
 20
126.131338273
 40
6.2
 50
8.162
 51
15.2737380634
  0
ARC
  8
0
 62
7
  6
CONTINUOUS
 10
85.1203011998
 20
130.2587062075
 40
2.0
 50
75.5051234822
 51
128.058871156
  0
ARC
  8
0
 62
7
  6
CONTINUOUS
 10
72.4985133861
 20
134.852661275
 40
2.0
 50
11.941128844
 51
64.4948765178
  0
ARC
  8
0
 62
7
  6
CONTINUOUS
 10
95.9261797266
 20
128.353338273
 40
2.0
 50
31.941128844
 51
84.4948765178
  0
ARC
  8
0
 62
7
  6
CONTINUOUS
 10
80.9445543307
 20
129.1466438896
 40
0.8
 50
252.5174152215
 51
331.838
  0
ARC
  8
0
 62
7
  6
CONTINUOUS
 10
74.9825011919
 20
131.3166537672
 40
0.8
 50
168.162
 51
247.4825847786
  0
ARC
  8
0
 62
7
  6
CONTINUOUS
 10
99.4697505324
 20
125.8801519763
 40
0.8
 50
188.162
 51
267.4825847786
  0
ARC
  8
0
 62
7
  6
CONTINUOUS
 10
35.2313063329
 20
225.0847630182
 40
6.2
 50
44.7262619366
 51
51.838
  0
ARC
  8
0
 62
7
  6
CONTINUOUS
 10
35.2313063329
 20
225.0847630182
 40
6.2
 50
28.058871156
 51
42.7506054215
  0
ARC
  8
0
 62
7
  6
CONTINUOUS
 10
30.0452638906
 20
200.3976429414
 40
6.2
 50
64.7262619366
 51
71.838
  0
ARC
  8
0
 62
7
  6
CONTINUOUS
 10
30.0452638906
 20
200.3976429414
 40
6.2
 50
48.058871156
 51
62.7506054215
  0
ARC
  8
0
 62
7
  6
CONTINUOUS
 10
33.6154704234
 20
220.6452903434
 40
6.2
 50
277.2493945785
 51
291.941128844
  0
ARC
  8
0
 62
7
  6
CONTINUOUS
 10
33.6154704234
 20
220.6452903434
 40
6.2
 50
268.162
 51
275.2737380634
  0
ARC
  8
0
 62
7
  6
CONTINUOUS
 10
38.93765827
 20
227.060352884
 40
2.0
 50
335.5051234822
 51
28.058871156
  0
ARC
  8
0
 62
7
  6
CONTINUOUS
 10
32.8524039269
 20
203.5217371808
 40
2.0
 50
355.5051234822
 51
48.058871156
  0
ARC
  8
0
 62
7
  6
CONTINUOUS
 10
35.1848160415
 20
216.7495036024
 40
2.0
 50
291.941128844
 51
344.4948765178
  0
ARC
  8
0
 62
7
  6
CONTINUOUS
 10
38.5676015117
 20
231.3657683703
 40
0.8
 50
152.5174152214
 51
231.838
  0
ARC
  8
0
 62
7
  6
CONTINUOUS
 10
31.0321255001
 20
207.4409374772
 40
0.8
 50
172.5174152214
 51
251.838
  0
ARC
  8
0
 62
7
  6
CONTINUOUS
 10
32.133868389
 20
213.6892318929
 40
0.8
 50
88.162
 51
167.4825847785
  0
ARC
  8
0
 62
7
  6
CONTINUOUS
 10
48.5480844939
 20
246.5093366034
 40
6.2
 50
24.7262619366
 51
31.838
  0
ARC
  8
0
 62
7
  6
CONTINUOUS
 10
48.5480844939
 20
246.5093366034
 40
6.2
 50
8.058871156
 51
22.7506054215
  0
ARC
  8
0
 62
7
  6
CONTINUOUS
 10
64.2979582445
 20
259.7250498585
 40
6.2
 50
237.2493945785
 51
251.941128844
  0
ARC
  8
0
 62
7
  6
CONTINUOUS
 10
64.2979582445
 20
259.7250498585
 40
6.2
 50
228.162
 51
235.2737380634
  0
ARC
  8
0
 62
7
  6
CONTINUOUS
 10
45.5113063329
 20
242.89024532
 40
6.2
 50
257.2493945785
 51
271.941128844
  0
ARC
  8
0
 62
7
  6
CONTINUOUS
 10
45.5113063329
 20
242.89024532
 40
6.2
 50
248.162
 51
255.2737380634
  0
ARC
  8
0
 62
7
  6
CONTINUOUS
 10
52.7066075884
 20
247.0981368012
 40
2.0
 50
315.5051234822
 51
8.058871156
  0
ARC
  8
0
 62
7
  6
CONTINUOUS
 10
62.9959832875
 20
255.7319481554
 40
2.0
 50
251.941128844
 51
304.4948765178
  0
ARC
  8
0
 62
7
  6
CONTINUOUS
 10
45.6535712902
 20
238.6926554541
 40
2.0
 50
271.941128844
 51
324.4948765178
  0
ARC
  8
0
 62
7
  6
CONTINUOUS
 10
53.831406805
 20
251.2704708287
 40
0.8
 50
132.5174152214
 51
211.838
  0
ARC
  8
0
 62
7
  6
CONTINUOUS
 10
58.6917170549
 20
255.3487553668
 40
0.8
 50
48.162
 51
127.4825847785
  0
ARC
  8
0
 62
7
  6
CONTINUOUS
 10
41.739943726
 20
236.8604262645
 40
0.8
 50
68.162
 51
147.4825847785
  0
ARC
  8
0
 62
7
  6
CONTINUOUS
 10
78.5297515083
 20
198.0354488704
 40
4.0
 50
75.0
 51
285.0
  0
ARC
  8
0
 62
7
  6
CONTINUOUS
 10
92.3620927467
 20
269.9395594678
 40
6.2
 50
344.7262619366
 51
351.838
  0
ARC
  8
0
 62
7
  6
CONTINUOUS
 10
92.3620927467
 20
269.9395594678
 40
6.2
 50
328.058871156
 51
342.7506054215
  0
ARC
  8
0
 62
7
  6
CONTINUOUS
 10
68.3893983928
 20
262.0872439295
 40
6.2
 50
4.7262619366
 51
11.838
  0
ARC
  8
0
 62
7
  6
CONTINUOUS
 10
68.3893983928
 20
262.0872439295
 40
6.2
 50
348.058871156
 51
2.7506054215
  0
ARC
  8
0
 62
7
  6
CONTINUOUS
 10
87.7094786762
 20
269.1191780763
 40
6.2
 50
217.2493945785
 51
231.941128844
  0
ARC
  8
0
 62
7
  6
CONTINUOUS
 10
87.7094786762
 20
269.1191780763
 40
6.2
 50
208.162
 51
215.2737380634
  0
ARC
  8
0
 62
7
  6
CONTINUOUS
 10
95.9261797266
 20
267.7175594678
 40
2.0
 50
275.5051234822
 51
328.058871156
  0
ARC
  8
0
 62
7
  6
CONTINUOUS
 10
72.4985133861
 20
261.2182364658
 40
2.0
 50
295.5051234822
 51
348.058871156
  0
ARC
  8
0
 62
7
  6
CONTINUOUS
 10
85.1203011998
 20
265.8121915333
 40
2.0
 50
231.941128844
 51
284.4948765178
  0
ARC
  8
0
 62
7
  6
CONTINUOUS
 10
99.4697505324
 20
270.1907457645
 40
0.8
 50
92.5174152214
 51
171.838
  0
ARC
  8
0
 62
7
  6
CONTINUOUS
 10
74.9825011919
 20
264.7542439736
 40
0.8
 50
112.5174152214
 51
191.838
  0
ARC
  8
0
 62
7
  6
CONTINUOUS
 10
80.9445543307
 20
266.9242538512
 40
0.8
 50
28.162
 51
107.4825847785
  0
ARC
  8
0
 62
7
  6
CONTINUOUS
 10
112.9220927467
 20
126.131338273
 40
6.2
 50
164.7262619366
 51
171.838
  0
ARC
  8
0
 62
7
  6
CONTINUOUS
 10
112.9220927467
 20
126.131338273
 40
6.2
 50
148.058871156
 51
162.7506054215
  0
ARC
  8
0
 62
7
  6
CONTINUOUS
 10
136.8947871006
 20
133.9836538112
 40
6.2
 50
184.7262619366
 51
191.838
  0
ARC
  8
0
 62
7
  6
CONTINUOUS
 10
136.8947871006
 20
133.9836538112
 40
6.2
 50
168.058871156
 51
182.7506054215
  0
ARC
  8
0
 62
7
  6
CONTINUOUS
 10
117.5747068173
 20
126.9517196645
 40
6.2
 50
37.2493945785
 51
51.941128844
  0
ARC
  8
0
 62
7
  6
CONTINUOUS
 10
117.5747068173
 20
126.9517196645
 40
6.2
 50
28.162
 51
35.2737380634
  0
ARC
  8
0
 62
7
  6
CONTINUOUS
 10
109.3580057669
 20
128.353338273
 40
2.0
 50
95.5051234822
 51
148.058871156
  0
ARC
  8
0
 62
7
  6
CONTINUOUS
 10
132.7856721073
 20
134.852661275
 40
2.0
 50
115.5051234822
 51
168.058871156
  0
ARC
  8
0
 62
7
  6
CONTINUOUS
 10
120.1638842936
 20
130.2587062075
 40
2.0
 50
51.941128844
 51
104.4948765178
  0
ARC
  8
0
 62
7
  6
CONTINUOUS
 10
105.8144349611
 20
125.8801519763
 40
0.8
 50
272.5174152215
 51
351.838
  0
ARC
  8
0
 62
7
  6
CONTINUOUS
 10
130.3016843016
 20
131.3166537672
 40
0.8
 50
292.5174152215
 51
11.838
  0
ARC
  8
0
 62
7
  6
CONTINUOUS
 10
124.3396311627
 20
129.1466438896
 40
0.8
 50
208.162
 51
287.4825847786
  0
ARC
  8
0
 62
7
  6
CONTINUOUS
 10
102.6420927467
 20
173.9231076319
 40
4.0
 50
165.0
 51
15.0
  0
ARC
  8
0
 62
7
  6
CONTINUOUS
 10
159.7728791606
 20
153.1806524208
 40
6.2
 50
68.162
 51
75.2737380634
  0
ARC
  8
0
 62
7
  6
CONTINUOUS
 10
159.7728791606
 20
153.1806524208
 40
6.2
 50
77.2493945785
 51
91.941128844
  0
ARC
  8
0
 62
7
  6
CONTINUOUS
 10
156.7361009995
 20
149.5615611374
 40
6.2
 50
204.7262619366
 51
211.838
  0
ARC
  8
0
 62
7
  6
CONTINUOUS
 10
156.7361009995
 20
149.5615611374
 40
6.2
 50
188.058871156
 51
202.7506054215
  0
ARC
  8
0
 62
7
  6
CONTINUOUS
 10
140.986227249
 20
136.3458478823
 40
6.2
 50
57.2493945785
 51
71.941128844
  0
ARC
  8
0
 62
7
  6
CONTINUOUS
 10
140.986227249
 20
136.3458478823
 40
6.2
 50
48.162
 51
55.2737380634
  0
ARC
  8
0
 62
7
  6
CONTINUOUS
 10
159.6306142033
 20
157.3782422867
 40
2.0
 50
91.941128844
 51
144.4948765178
  0
ARC
  8
0
 62
7
  6
CONTINUOUS
 10
152.5775779051
 20
148.9727609395
 40
2.0
 50
135.5051234822
 51
188.058871156
  0
ARC
  8
0
 62
7
  6
CONTINUOUS
 10
142.288202206
 20
140.3389495854
 40
2.0
 50
71.941128844
 51
124.4948765178
  0
ARC
  8
0
 62
7
  6
CONTINUOUS
 10
163.5442417675
 20
159.2104714762
 40
0.8
 50
248.162
 51
327.4825847786
  0
ARC
  8
0
 62
7
  6
CONTINUOUS
 10
151.4527786885
 20
144.8004269121
 40
0.8
 50
312.5174152215
 51
31.838
  0
ARC
  8
0
 62
7
  6
CONTINUOUS
 10
146.5924684386
 20
140.722142374
 40
0.8
 50
228.162
 51
307.4825847786
  0
ARC
  8
0
 62
7
  6
CONTINUOUS
 10
171.6687150701
 20
175.4256073974
 40
6.2
 50
88.162
 51
95.2737380634
  0
ARC
  8
0
 62
7
  6
CONTINUOUS
 10
171.6687150701
 20
175.4256073974
 40
6.2
 50
97.2493945785
 51
111.941128844
  0
ARC
  8
0
 62
7
  6
CONTINUOUS
 10
175.2389216029
 20
195.6732547994
 40
6.2
 50
228.058871156
 51
242.7506054215
  0
ARC
  8
0
 62
7
  6
CONTINUOUS
 10
175.2389216029
 20
195.6732547994
 40
6.2
 50
244.7262619366
 51
251.838
  0
ARC
  8
0
 62
7
  6
CONTINUOUS
 10
170.0528791606
 20
170.9861347226
 40
6.2
 50
208.058871156
 51
222.7506054215
  0
ARC
  8
0
 62
7
  6
CONTINUOUS
 10
170.0528791606
 20
170.9861347226
 40
6.2
 50
224.7262619366
 51
231.838
  0
ARC
  8
0
 62
7
  6
CONTINUOUS
 10
170.099369452
 20
179.3213941384
 40
2.0
 50
111.941128844
 51
164.4948765178
  0
ARC
  8
0
 62
7
  6
CONTINUOUS
 10
172.4317815666
 20
192.54916056
 40
2.0
 50
175.5051234822
 51
228.058871156
  0
ARC
  8
0
 62
7
  6
CONTINUOUS
 10
166.3465272235
 20
169.0105448567
 40
2.0
 50
155.5051234822
 51
208.058871156
  0
ARC
  8
0
 62
7
  6
CONTINUOUS
 10
173.1503171045
 20
182.3816658478
 40
0.8
 50
268.162
 51
347.4825847786
  0
ARC
  8
0
 62
7
  6
CONTINUOUS
 10
174.2520599934
 20
188.6299602636
 40
0.8
 50
352.5174152215
 51
71.838
  0
ARC
  8
0
 62
7
  6
CONTINUOUS
 10
166.7165839818
 20
164.7051293704
 40
0.8
 50
332.5174152215
 51
51.838
  0
ARC
  8
0
 62
7
  6
CONTINUOUS
 10
102.6420927467
 20
198.0354488704
 40
68.005
 50
95.5051234822
 51
104.4948765178
  0
ARC
  8
0
 62
7
  6
CONTINUOUS
 10
102.6420927467
 20
198.0354488704
 40
68.005
 50
75.5051234822
 51
84.4948765178
  0
ARC
  8
0
 62
7
  6
CONTINUOUS
 10
102.6420927467
 20
198.0354488704
 40
68.005
 50
115.5051234822
 51
124.4948765178
  0
ARC
  8
0
 62
7
  6
CONTINUOUS
 10
102.6420927467
 20
198.0354488704
 40
68.005
 50
135.5051234822
 51
144.4948765178
  0
ARC
  8
0
 62
7
  6
CONTINUOUS
 10
102.6420927467
 20
198.0354488704
 40
68.005
 50
155.5051234822
 51
164.4948765178
  0
ARC
  8
0
 62
7
  6
CONTINUOUS
 10
102.6420927467
 20
198.0354488704
 40
68.005
 50
175.5051234822
 51
184.4948765178
  0
ARC
  8
0
 62
7
  6
CONTINUOUS
 10
102.6420927467
 20
198.0354488704
 40
68.005
 50
195.5051234822
 51
204.4948765178
  0
ARC
  8
0
 62
7
  6
CONTINUOUS
 10
102.6420927467
 20
198.0354488704
 40
68.005
 50
55.5051234822
 51
64.4948765178
  0
ARC
  8
0
 62
7
  6
CONTINUOUS
 10
102.6420927467
 20
198.0354488704
 40
68.005
 50
215.5051234822
 51
224.4948765178
  0
ARC
  8
0
 62
7
  6
CONTINUOUS
 10
102.6420927467
 20
198.0354488704
 40
68.005
 50
35.5051234822
 51
44.4948765178
  0
ARC
  8
0
 62
7
  6
CONTINUOUS
 10
102.6420927467
 20
198.0354488704
 40
68.005
 50
235.5051234822
 51
244.4948765178
  0
ARC
  8
0
 62
7
  6
CONTINUOUS
 10
102.6420927467
 20
198.0354488704
 40
68.005
 50
255.5051234822
 51
264.4948765178
  0
ARC
  8
0
 62
7
  6
CONTINUOUS
 10
102.6420927467
 20
198.0354488704
 40
68.005
 50
15.5051234822
 51
24.4948765178
  0
ARC
  8
0
 62
7
  6
CONTINUOUS
 10
102.6420927467
 20
198.0354488704
 40
68.005
 50
275.5051234822
 51
284.4948765178
  0
ARC
  8
0
 62
7
  6
CONTINUOUS
 10
102.6420927467
 20
198.0354488704
 40
68.005
 50
295.5051234822
 51
304.4948765178
  0
ARC
  8
0
 62
7
  6
CONTINUOUS
 10
102.6420927467
 20
198.0354488704
 40
68.005
 50
355.5051234822
 51
4.4948765178
  0
ARC
  8
0
 62
7
  6
CONTINUOUS
 10
102.6420927467
 20
198.0354488704
 40
68.005
 50
315.5051234822
 51
324.4948765178
  0
ARC
  8
0
 62
7
  6
CONTINUOUS
 10
102.6420927467
 20
198.0354488704
 40
68.005
 50
335.5051234822
 51
344.4948765178
  0
CIRCLE
  8
1_AXIS
 62
7
  6
CONTINUOUS
 10
102.6420927467
 20
198.0354488704
 40
60.0
  0
ARC
  8
0
 62
7
  6
CONTINUOUS
 10
102.6420927467
 20
222.1477901089
 40
4.0
 50
345.0
 51
195.0
  0
ARC
  8
0
 62
7
  6
CONTINUOUS
 10
126.7544339852
 20
198.0354488704
 40
4.0
 50
255.0
 51
105.0
  0
ARC
  8
0
 62
7
  6
CONTINUOUS
 10
112.9220927467
 20
269.9395594678
 40
6.2
 50
197.2493945785
 51
211.941128844
  0
ARC
  8
0
 62
7
  6
CONTINUOUS
 10
112.9220927467
 20
269.9395594678
 40
6.2
 50
188.162
 51
195.2737380634
  0
ARC
  8
0
 62
7
  6
CONTINUOUS
 10
136.8947871006
 20
262.0872439295
 40
6.2
 50
168.162
 51
175.2737380634
  0
ARC
  8
0
 62
7
  6
CONTINUOUS
 10
136.8947871006
 20
262.0872439295
 40
6.2
 50
177.2493945785
 51
191.941128844
  0
ARC
  8
0
 62
7
  6
CONTINUOUS
 10
117.5747068173
 20
269.1191780763
 40
6.2
 50
308.058871156
 51
322.7506054215
  0
ARC
  8
0
 62
7
  6
CONTINUOUS
 10
117.5747068173
 20
269.1191780763
 40
6.2
 50
324.7262619366
 51
331.838
  0
ARC
  8
0
 62
7
  6
CONTINUOUS
 10
109.3580057669
 20
267.7175594678
 40
2.0
 50
211.941128844
 51
264.4948765178
  0
ARC
  8
0
 62
7
  6
CONTINUOUS
 10
132.7856721073
 20
261.2182364658
 40
2.0
 50
191.941128844
 51
244.4948765178
  0
ARC
  8
0
 62
7
  6
CONTINUOUS
 10
120.1638842936
 20
265.8121915333
 40
2.0
 50
255.5051234822
 51
308.058871156
  0
CIRCLE
  8
0
 62
7
  6
CONTINUOUS
 10
102.6420927467
 20
263.0354488704
 40
0.8660254038
  0
ARC
  8
0
 62
7
  6
CONTINUOUS
 10
105.8144349611
 20
270.1907457645
 40
0.8
 50
8.162
 51
87.4825847785
  0
ARC
  8
0
 62
7
  6
CONTINUOUS
 10
130.3016843016
 20
264.7542439736
 40
0.8
 50
348.162
 51
67.4825847786
  0
ARC
  8
0
 62
7
  6
CONTINUOUS
 10
124.3396311627
 20
266.9242538512
 40
0.8
 50
72.5174152214
 51
151.838
  0
ARC
  8
0
 62
7
  6
CONTINUOUS
 10
170.0528791606
 20
225.0847630182
 40
6.2
 50
128.162
 51
135.2737380634
  0
ARC
  8
0
 62
7
  6
CONTINUOUS
 10
170.0528791606
 20
225.0847630182
 40
6.2
 50
137.2493945785
 51
151.941128844
  0
ARC
  8
0
 62
7
  6
CONTINUOUS
 10
175.2389216029
 20
200.3976429414
 40
6.2
 50
108.162
 51
115.2737380634
  0
ARC
  8
0
 62
7
  6
CONTINUOUS
 10
175.2389216029
 20
200.3976429414
 40
6.2
 50
117.2493945785
 51
131.941128844
  0
ARC
  8
0
 62
7
  6
CONTINUOUS
 10
171.6687150701
 20
220.6452903434
 40
6.2
 50
248.058871156
 51
262.7506054215
  0
ARC
  8
0
 62
7
  6
CONTINUOUS
 10
171.6687150701
 20
220.6452903434
 40
6.2
 50
264.7262619366
 51
271.838
  0
ARC
  8
0
 62
7
  6
CONTINUOUS
 10
166.3465272235
 20
227.060352884
 40
2.0
 50
151.941128844
 51
204.4948765178
  0
ARC
  8
0
 62
7
  6
CONTINUOUS
 10
172.4317815666
 20
203.5217371808
 40
2.0
 50
131.941128844
 51
184.4948765178
  0
ARC
  8
0
 62
7
  6
CONTINUOUS
 10
170.099369452
 20
216.7495036024
 40
2.0
 50
195.5051234822
 51
248.058871156
  0
ARC
  8
0
 62
7
  6
CONTINUOUS
 10
166.7165839818
 20
231.3657683703
 40
0.8
 50
308.162
 51
27.4825847786
  0
ARC
  8
0
 62
7
  6
CONTINUOUS
 10
174.2520599934
 20
207.4409374772
 40
0.8
 50
288.162
 51
7.4825847786
  0
ARC
  8
0
 62
7
  6
CONTINUOUS
 10
173.1503171045
 20
213.6892318929
 40
0.8
 50
12.5174152215
 51
91.838
  0
ARC
  8
0
 62
7
  6
CONTINUOUS
 10
156.7361009995
 20
246.5093366034
 40
6.2
 50
148.162
 51
155.2737380634
  0
ARC
  8
0
 62
7
  6
CONTINUOUS
 10
156.7361009995
 20
246.5093366034
 40
6.2
 50
157.2493945785
 51
171.941128844
  0
ARC
  8
0
 62
7
  6
CONTINUOUS
 10
140.986227249
 20
259.7250498585
 40
6.2
 50
288.058871156
 51
302.7506054215
  0
ARC
  8
0
 62
7
  6
CONTINUOUS
 10
140.986227249
 20
259.7250498585
 40
6.2
 50
304.7262619366
 51
311.838
  0
ARC
  8
0
 62
7
  6
CONTINUOUS
 10
159.7728791606
 20
242.89024532
 40
6.2
 50
268.058871156
 51
282.7506054215
  0
ARC
  8
0
 62
7
  6
CONTINUOUS
 10
159.7728791606
 20
242.89024532
 40
6.2
 50
284.7262619366
 51
291.838
  0
ARC
  8
0
 62
7
  6
CONTINUOUS
 10
152.5775779051
 20
247.0981368012
 40
2.0
 50
171.941128844
 51
224.4948765178
  0
ARC
  8
0
 62
7
  6
CONTINUOUS
 10
142.288202206
 20
255.7319481554
 40
2.0
 50
235.5051234822
 51
288.058871156
  0
ARC
  8
0
 62
7
  6
CONTINUOUS
 10
159.6306142033
 20
238.6926554541
 40
2.0
 50
215.5051234822
 51
268.058871156
  0
ARC
  8
0
 62
7
  6
CONTINUOUS
 10
151.4527786885
 20
251.2704708287
 40
0.8
 50
328.162
 51
47.4825847785
  0
ARC
  8
0
 62
7
  6
CONTINUOUS
 10
146.5924684386
 20
255.3487553668
 40
0.8
 50
52.5174152215
 51
131.838
  0
ARC
  8
0
 62
7
  6
CONTINUOUS
 10
163.5442417675
 20
236.8604262645
 40
0.8
 50
32.5174152215
 51
111.838
  0
ARC
  8
1_AXIS
 62
7
  6
CONTINUOUS
 10
160.6420927467
 20
87.1558412604
 40
2.0
 50
0.0
 51
90.0
  0
ARC
  8
1_AXIS
 62
7
  6
CONTINUOUS
 10
160.6420927467
 20
66.1558412604
 40
2.0
 50
270.0
 51
360.0
  0
ARC
  8
1_AXIS
 62
7
  6
CONTINUOUS
 10
44.6420927467
 20
87.1558412604
 40
2.0
 50
90.0
 51
180.0
  0
ARC
  8
1_AXIS
 62
7
  6
CONTINUOUS
 10
44.6420927467
 20
66.1558412604
 40
2.0
 50
180.0
 51
270.0
  0
ARC
  8
1_AXIS
 62
7
  6
CONTINUOUS
 10
163.6420927467
 20
81.6558412604
 40
1.0
 50
180.0
 51
270.0
  0
ARC
  8
1_AXIS
 62
7
  6
CONTINUOUS
 10
163.6420927467
 20
71.6558412604
 40
1.0
 50
90.0
 51
180.0
  0
ARC
  8
1_AXIS
 62
7
  6
CONTINUOUS
 10
41.6420927467
 20
81.6558412604
 40
1.0
 50
270.0
 51
360.0
  0
ARC
  8
1_AXIS
 62
7
  6
CONTINUOUS
 10
41.6420927467
 20
71.6558412604
 40
1.0
 50
0.0
 51
90.0
  0
ENDSEC
  0
EOF
