  0
SECTION
  2
HEADER
  9
$EXTMAX
 10
210.0
 20
297.0
 30
0.0
  9
$EXTMIN
 10
0.0
 20
0.0
 30
0.0
  9
$LIMMIN
 10
0.0
 20
0.0
  9
$LIMMAX
 10
210.0
 20
297.0
  9
$VIEWCTR
 10
105.0
 20
148.5
  9
$VIEWSIZE
 40
297.0
  9
$CLAYER
  8
0
  9
$LTSCALE
 40
19.36
  9
$CELTYPE
  6
BYLAYER
  9
$DIMSCALE
 40
1.0
  9
$DIMASZ
 40
3.5
  9
$DIMEXO
 40
1.0
  9
$DIMDLI
 40
13.376
  9
$DIMEXE
 40
2.0
  9
$DIMCEN
 40
3.168
  9
$DIMLFAC
 40
1.0
  9
$DIMBLK
  1
_FILLED
  9
$DIMALT
 70
0
  9
$DIMALTF
 40
0.0393700787
  9
$DIMTXT
 40
3.5
  9
$AUNITS
 70
0
  9
$PDMODE
 70
3
  9
$PDSIZE
 40
0.3125
  9
$TILEMODE
 70
1
  0
ENDSEC
  0
SECTION
  2
TABLES
  0
TABLE
  2
LTYPE
 70
6
  0
LTYPE
  2
BYBLOCK
 70
0
  3

 72
65
 73
0
 40
0.0
  0
LTYPE
  2
BYLAYER
 70
0
  3

 72
65
 73
0
 40
0.0
  0
LTYPE
  2
CONTINUOUS
 70
64
  3
Solid line
 72
65
 73
0
 40
0.0
  0
LTYPE
  2
CENTER
 70
64
  3
____ _ ____ _ ____ _ ____ _ ____ _ ____ _ ____
 72
65
 73
4
 40
0.6
 49
0.375
 49
-0.075
 49
0.075
 49
-0.075
  0
LTYPE
  2
HIDDEN
 70
64
  3
- - - - - - - - - - - - - - - - - - - -
 72
65
 73
2
 40
0.2
 49
0.1
 49
-0.1
  0
LTYPE
  2
PHANTOM
 70
64
  3
_____ _ _ _____ _ _ _____ _ _ _____
 72
65
 73
6
 40
0.8
 49
0.45
 49
-0.05
 49
0.1
 49
-0.05
 49
0.1
 49
-0.05
  0
LTYPE
  2
DOT
 70
64
  3
. . . . . . . . . . . . . . . . . . . .
 72
65
 73
2
 40
0.2
 49
0.1
 49
-0.1
  0
LTYPE
  2
DASHED
 70
64
  3
- - - - - - - - - - - - - - - - - - - -
 72
65
 73
2
 40
0.2
 49
0.1
 49
-0.1
  0
ENDTAB
  0
TABLE
  2
LAYER
 70
36
  0
LAYER
  2
0
 70
0
 62
7
  6
CONTINUOUS
  0
LAYER
  2
DEFAULT_1
 70
0
 62
7
  6
CENTER
  0
LAYER
  2
DEFAULT_2
 70
0
 62
8
  6
HIDDEN
  0
LAYER
  2
DEFAULT_3
 70
0
 62
7
  6
PHANTOM
  0
LAYER
  2
1_AXIS
 70
0
 62
7
  6
CONTINUOUS
  0
LAYER
  2
1_CSYS
 70
0
 62
7
  6
CONTINUOUS
  0
LAYER
  2
1_DATUM_PLANE
 70
0
 62
7
  6
CONTINUOUS
  0
LAYER
  2
2_FEATURE
 70
0
 62
7
  6
CONTINUOUS
  0
LAYER
  2
6_DIM
 70
0
 62
7
  6
CONTINUOUS
  0
LAYER
  2
AXES
 70
0
 62
7
  6
CONTINUOUS
  0
LAYER
  2
CSYS
 70
0
 62
7
  6
CONTINUOUS
  0
LAYER
  2
PITCH
 70
0
 62
7
  6
CONTINUOUS
  0
LAYER
  2
PLANES
 70
0
 62
7
  6
CONTINUOUS
  0
LAYER
  2
QUILTS
 70
0
 62
7
  6
CONTINUOUS
  0
LAYER
  2
SQ
 70
0
 62
7
  6
CONTINUOUS
  0
ENDTAB
  0
TABLE
  2
STYLE
 70
1
  0
STYLE
  2
STANDARD
 70
0
 40
0.0
 41
0.8
 50
0.0
 71
0
 42
0.2
  3
txt
  4

  0
STYLE
  2
TEXTSTYLE_1
 70
0
 40
0.0
 41
0.8
 50
0.0
 71
0
 42
0.2
  3
gdt
  4

  0
STYLE
  2
TEXTSTYLE_2
 70
0
 40
0.0
 41
0.6
 50
0.0
 71
0
 42
0.2
  3
txt
  4

  0
STYLE
  2
TEXTSTYLE_3
 70
0
 40
0.0
 41
1.0
 50
0.0
 71
0
 42
0.2
  3
ftb_____.ttf
  4

  0
STYLE
  2
TEXTSTYLE_4
 70
0
 40
0.0
 41
1.0
 50
0.0
 71
0
 42
0.2
  3
fti_____.ttf
  4

  0
STYLE
  2
TEXTSTYLE_5
 70
0
 40
0.0
 41
1.0
 50
0.0
 71
0
 42
0.2
  3
frutiger light.ttf
  4

  0
STYLE
  2
TEXTSTYLE_6
 70
0
 40
0.0
 41
0.7
 50
0.0
 71
0
 42
0.2
  3
txt
  4

  0
STYLE
  2
TEXTSTYLE_7
 70
0
 40
0.0
 41
0.5
 50
0.0
 71
0
 42
0.2
  3
txt
  4

  0
ENDTAB
  0
ENDSEC
  0
SECTION
  2
BLOCKS
  0
BLOCK
  8
0
 62
2
  6
CONTINUOUS
  2
UNI_LOGO2_BL1
 70
64
 10
173.5956734183
 20
35.5937998301
  0
TEXT
  8
0
 62
7
  6
CONTINUOUS
 10
164.6539584268
 20
30.6865562072
  7
TEXTSTYLE_4
 40
1.0655737705
  1
The brand for plastic modular belts and chains
 41
1.0
 72
0
  0
LINE
  8
0
 62
7
  6
CONTINUOUS
 10
149.5737418074
 20
36.1675703219
 11
149.5737418074
 21
34.0364227809
  0
LINE
  8
0
 62
7
  6
CONTINUOUS
 10
149.8628043005
 20
31.0454914852
 11
149.8628043005
 21
31.1422825445
  0
LINE
  8
0
 62
7
  6
CONTINUOUS
 10
149.5737418074
 20
31.1100188581
 11
149.6315543091
 21
30.9164367395
  0
LINE
  8
0
 62
7
  6
CONTINUOUS
 10
150.9671844304
 20
33.9544555678
 11
150.9671844304
 21
36.1675703219
  0
LINE
  8
0
 62
7
  6
CONTINUOUS
 10
151.8862417523
 20
32.1101932727
 11
151.8862417523
 21
30.5937998301
  0
LINE
  8
0
 62
7
  6
CONTINUOUS
 10
152.1753043074
 20
30.5937998301
 11
152.1753043074
 21
31.3358647082
  0
LINE
  8
0
 62
7
  6
CONTINUOUS
 10
152.1753043074
 20
31.4649194539
 11
152.1753043074
 21
32.1101932727
  0
LINE
  8
0
 62
7
  6
CONTINUOUS
 10
149.6315543091
 20
31.3036010218
 11
149.5737418074
 21
31.1100188581
  0
LINE
  8
0
 62
7
  6
CONTINUOUS
 10
149.9784292936
 20
30.8841730531
 11
149.8628043005
 21
31.0454914852
  0
LINE
  8
0
 62
7
  6
CONTINUOUS
 10
151.0768668626
 20
31.400392081
 11
151.1346793074
 21
31.3036010218
  0
LINE
  8
0
 62
7
  6
CONTINUOUS
 10
151.4237418626
 20
31.3036010218
 11
151.3659292523
 21
31.4326557675
  0
LINE
  8
0
 62
7
  6
CONTINUOUS
 10
152.852430332
 20
36.1675703219
 11
152.852430332
 21
34.3642916334
  0
LINE
  8
0
 62
7
  6
CONTINUOUS
 10
152.852430332
 20
33.0528162235
 11
152.852430332
 21
32.3970785186
  0
LINE
  8
0
 62
7
  6
CONTINUOUS
 10
153.2159293074
 20
31.2390736489
 11
153.2159293074
 21
30.5937998301
  0
LINE
  8
0
 62
7
  6
CONTINUOUS
 10
153.5049916972
 20
30.5937998301
 11
153.5049916972
 21
31.2390736489
  0
LINE
  8
0
 62
7
  6
CONTINUOUS
 10
149.8628043005
 20
31.1422825445
 11
149.9206168074
 21
31.2713373354
  0
LINE
  8
0
 62
7
  6
CONTINUOUS
 10
149.6315543091
 20
30.9164367395
 11
149.7471793074
 21
30.7873819712
  0
LINE
  8
0
 62
7
  6
CONTINUOUS
 10
153.1581166972
 20
31.3681283946
 11
153.2159293074
 21
31.2390736489
  0
LINE
  8
0
 62
7
  6
CONTINUOUS
 10
153.9674919177
 20
30.8841730531
 11
154.0253041972
 21
30.7551182848
  0
LINE
  8
0
 62
7
  6
CONTINUOUS
 10
153.5049916972
 20
31.2390736489
 11
153.4471794177
 21
31.400392081
  0
LINE
  8
0
 62
7
  6
CONTINUOUS
 10
153.9674919177
 20
31.4326557675
 11
153.9674919177
 21
31.3681283946
  0
LINE
  8
0
 62
7
  6
CONTINUOUS
 10
153.9674919177
 20
30.9809641124
 11
153.9674919177
 21
30.8841730531
  0
LINE
  8
0
 62
7
  6
CONTINUOUS
 10
154.245872955
 20
32.3970785186
 11
154.245872955
 21
36.1675703219
  0
LINE
  8
0
 62
7
  6
CONTINUOUS
 10
154.2565543074
 20
30.8519093441
 11
154.2565543074
 21
30.9164367395
  0
LINE
  8
0
 62
7
  6
CONTINUOUS
 10
154.5737418074
 20
36.1675703219
 11
154.5737418074
 21
32.3970785186
  0
LINE
  8
0
 62
7
  6
CONTINUOUS
 10
151.3659292523
 20
30.7873819712
 11
151.4237418626
 21
30.9164367395
  0
LINE
  8
0
 62
7
  6
CONTINUOUS
 10
155.759679528
 20
30.6905909007
 11
155.7018665869
 21
30.8519093441
  0
LINE
  8
0
 62
7
  6
CONTINUOUS
 10
155.412804528
 20
31.3681283946
 11
155.412804528
 21
31.2713373354
  0
LINE
  8
0
 62
7
  6
CONTINUOUS
 10
155.412804528
 20
31.1422825445
 11
155.412804528
 21
30.9487004259
  0
LINE
  8
0
 62
7
  6
CONTINUOUS
 10
155.7018665869
 20
30.8519093441
 11
155.7018665869
 21
31.3681283946
  0
LINE
  8
0
 62
7
  6
CONTINUOUS
 10
155.9671844304
 20
32.3970785186
 11
155.9671844304
 21
34.2003572071
  0
LINE
  8
0
 62
7
  6
CONTINUOUS
 10
155.9671844304
 20
35.511832617
 11
155.9671844304
 21
36.1675703219
  0
LINE
  8
0
 62
7
  6
CONTINUOUS
 10
156.279992028
 20
32.1101932727
 11
156.279992028
 21
31.9488748406
  0
LINE
  8
0
 62
7
  6
CONTINUOUS
 10
156.279992028
 20
31.626237886
 11
156.279992028
 21
30.5937998301
  0
LINE
  8
0
 62
7
  6
CONTINUOUS
 10
156.5690540869
 20
30.5937998301
 11
156.5690540869
 21
31.626237886
  0
LINE
  8
0
 62
7
  6
CONTINUOUS
 10
156.5690540869
 20
31.9488748406
 11
156.5690540869
 21
32.1101932727
  0
LINE
  8
0
 62
7
  6
CONTINUOUS
 10
151.1346793074
 20
30.9164367395
 11
151.0768668626
 21
30.8196456577
  0
LINE
  8
0
 62
7
  6
CONTINUOUS
 10
153.4471794177
 20
31.400392081
 11
153.3893668074
 21
31.4649194539
  0
LINE
  8
0
 62
7
  6
CONTINUOUS
 10
154.3143669177
 20
30.7873819712
 11
154.2565543074
 21
30.8519093441
  0
LINE
  8
0
 62
7
  6
CONTINUOUS
 10
155.4706168074
 20
30.6583272086
 11
155.5284290869
 21
30.5937998301
  0
LINE
  8
0
 62
7
  6
CONTINUOUS
 10
155.412804528
 20
30.7551182848
 11
155.4706168074
 21
30.6583272086
  0
LINE
  8
0
 62
7
  6
CONTINUOUS
 10
155.8174918074
 20
30.5937998301
 11
155.759679528
 21
30.6905909007
  0
LINE
  8
0
 62
7
  6
CONTINUOUS
 10
155.7018665869
 20
31.3681283946
 11
155.6440543074
 21
31.4649194539
  0
LINE
  8
0
 62
7
  6
CONTINUOUS
 10
157.0315543074
 20
31.626237886
 11
157.0315543074
 21
30.5937998301
  0
LINE
  8
0
 62
7
  6
CONTINUOUS
 10
157.320617028
 20
30.5937998301
 11
157.320617028
 21
31.3358647082
  0
LINE
  8
0
 62
7
  6
CONTINUOUS
 10
157.320617028
 20
31.4649194539
 11
157.320617028
 21
31.626237886
  0
LINE
  8
0
 62
7
  6
CONTINUOUS
 10
157.852430332
 20
34.6101932727
 11
157.852430332
 21
32.3970785186
  0
LINE
  8
0
 62
7
  6
CONTINUOUS
 10
149.7471793074
 20
31.4326557675
 11
149.6315543091
 21
31.3036010218
  0
LINE
  8
0
 62
7
  6
CONTINUOUS
 10
149.9206168074
 20
31.2713373354
 11
149.9784292936
 21
31.3358647082
  0
LINE
  8
0
 62
7
  6
CONTINUOUS
 10
149.7471793074
 20
30.7873819712
 11
149.8628043005
 21
30.7228545871
  0
LINE
  8
0
 62
7
  6
CONTINUOUS
 10
150.1518667936
 20
30.7873819712
 11
149.9784292936
 21
30.8841730531
  0
LINE
  8
0
 62
7
  6
CONTINUOUS
 10
155.3549915869
 20
31.4326557675
 11
155.412804528
 21
31.3681283946
  0
LINE
  8
0
 62
7
  6
CONTINUOUS
 10
158.3034290869
 20
31.3681283946
 11
158.361242028
 21
31.2068099625
  0
LINE
  8
0
 62
7
  6
CONTINUOUS
 10
158.6503040869
 20
31.2068099625
 11
158.5924918074
 21
31.3681283946
  0
LINE
  8
0
 62
7
  6
CONTINUOUS
 10
158.361242028
 20
31.2068099625
 11
158.361242028
 21
30.5937998301
  0
LINE
  8
0
 62
7
  6
CONTINUOUS
 10
158.6503040869
 20
30.5937998301
 11
158.6503040869
 21
31.2068099625
  0
LINE
  8
0
 62
7
  6
CONTINUOUS
 10
159.1128043074
 20
31.4326557675
 11
159.1128043074
 21
31.3681283946
  0
LINE
  8
0
 62
7
  6
CONTINUOUS
 10
159.245872955
 20
32.3970785186
 11
159.245872955
 21
34.5282260596
  0
LINE
  8
0
 62
7
  6
CONTINUOUS
 10
159.5737418074
 20
36.1675703219
 11
159.5737418074
 21
32.3970785186
  0
LINE
  8
0
 62
7
  6
CONTINUOUS
 10
154.2565543074
 20
30.9164367395
 11
154.3143669177
 21
31.0132277988
  0
LINE
  8
0
 62
7
  6
CONTINUOUS
 10
149.8628043005
 20
30.7228545871
 11
150.0362418212
 21
30.6583272086
  0
LINE
  8
0
 62
7
  6
CONTINUOUS
 10
151.3659292523
 20
31.4326557675
 11
151.1924917523
 21
31.5294468267
  0
LINE
  8
0
 62
7
  6
CONTINUOUS
 10
154.0253041972
 20
30.7551182848
 11
154.1987416972
 21
30.6583272086
  0
LINE
  8
0
 62
7
  6
CONTINUOUS
 10
153.0424918074
 20
31.4326557675
 11
153.1581166972
 21
31.3681283946
  0
LINE
  8
0
 62
7
  6
CONTINUOUS
 10
153.3893668074
 20
31.4649194539
 11
153.2737419177
 21
31.5294468267
  0
LINE
  8
0
 62
7
  6
CONTINUOUS
 10
159.1128043074
 20
30.8519093441
 11
159.228429528
 21
30.7228545871
  0
LINE
  8
0
 62
7
  6
CONTINUOUS
 10
159.4596793074
 20
30.7873819712
 11
159.401867028
 21
30.8519093441
  0
LINE
  8
0
 62
7
  6
CONTINUOUS
 10
159.1128043074
 20
31.3681283946
 11
159.228429528
 21
31.2390736489
  0
LINE
  8
0
 62
7
  6
CONTINUOUS
 10
158.5924918074
 20
31.3681283946
 11
158.534679528
 21
31.4649194539
  0
LINE
  8
0
 62
7
  6
CONTINUOUS
 10
160.9628038663
 20
30.7873819712
 11
160.9628038663
 21
30.8519093441
  0
LINE
  8
0
 62
7
  6
CONTINUOUS
 10
160.9671844304
 20
32.3970785186
 11
160.9671844304
 21
36.1675703219
  0
LINE
  8
0
 62
7
  6
CONTINUOUS
 10
154.0253041972
 20
31.4971831403
 11
153.9674919177
 21
31.4326557675
  0
LINE
  8
0
 62
7
  6
CONTINUOUS
 10
150.9034292799
 20
31.4649194539
 11
151.0768668626
 21
31.400392081
  0
LINE
  8
0
 62
7
  6
CONTINUOUS
 10
155.6440543074
 20
31.4649194539
 11
155.5284290869
 21
31.5294468267
  0
LINE
  8
0
 62
7
  6
CONTINUOUS
 10
159.4596793074
 20
31.3036010218
 11
159.401867028
 21
31.3681283946
  0
LINE
  8
0
 62
7
  6
CONTINUOUS
 10
160.615929528
 20
30.9164367395
 11
160.6737418074
 21
30.8519093441
  0
LINE
  8
0
 62
7
  6
CONTINUOUS
 10
160.9628038663
 20
30.8519093441
 11
160.8471793074
 21
30.9809641124
  0
LINE
  8
0
 62
7
  6
CONTINUOUS
 10
160.615929528
 20
31.4326557675
 11
160.6737418074
 21
31.3681283946
  0
LINE
  8
0
 62
7
  6
CONTINUOUS
 10
160.9628038663
 20
31.3681283946
 11
160.8471793074
 21
31.4971831403
  0
LINE
  8
0
 62
7
  6
CONTINUOUS
 10
154.2565543074
 20
31.3681283946
 11
154.3143669177
 21
31.4326557675
  0
LINE
  8
0
 62
7
  6
CONTINUOUS
 10
154.0831168074
 20
31.1100188581
 11
153.9674919177
 21
30.9809641124
  0
LINE
  8
0
 62
7
  6
CONTINUOUS
 10
155.412804528
 20
30.9487004259
 11
155.3549915869
 21
30.8841730531
  0
LINE
  8
0
 62
7
  6
CONTINUOUS
 10
155.3549915869
 20
30.6905909007
 11
155.412804528
 21
30.7551182848
  0
LINE
  8
0
 62
7
  6
CONTINUOUS
 10
154.1987416972
 20
30.6583272086
 11
154.3143669177
 21
30.6260635193
  0
LINE
  8
0
 62
7
  6
CONTINUOUS
 10
151.1924917523
 20
31.5294468267
 11
150.9612418074
 21
31.5939741996
  0
LINE
  8
0
 62
7
  6
CONTINUOUS
 10
154.5456166972
 20
30.7228545871
 11
154.3143669177
 21
30.7873819712
  0
LINE
  8
0
 62
7
  6
CONTINUOUS
 10
153.2737419177
 20
31.5294468267
 11
153.1003044177
 21
31.5939741996
  0
LINE
  8
0
 62
7
  6
CONTINUOUS
 10
155.5284290869
 20
31.5294468267
 11
155.3549915869
 21
31.5939741996
  0
LINE
  8
0
 62
7
  6
CONTINUOUS
 10
158.187804528
 20
31.4326557675
 11
158.3034290869
 21
31.3681283946
  0
LINE
  8
0
 62
7
  6
CONTINUOUS
 10
158.534679528
 20
31.4649194539
 11
158.4190543074
 21
31.5294468267
  0
LINE
  8
0
 62
7
  6
CONTINUOUS
 10
150.0362418212
 20
30.6583272086
 11
150.2096793212
 21
30.6260635193
  0
LINE
  8
0
 62
7
  6
CONTINUOUS
 10
150.498741835
 20
30.7228545871
 11
150.1518667936
 21
30.7873819712
  0
LINE
  8
0
 62
7
  6
CONTINUOUS
 10
152.9268669177
 20
31.4649194539
 11
153.0424918074
 21
31.4326557675
  0
LINE
  8
0
 62
7
  6
CONTINUOUS
 10
155.239367028
 20
31.4649194539
 11
155.3549915869
 21
31.4326557675
  0
LINE
  8
0
 62
7
  6
CONTINUOUS
 10
159.575304528
 20
30.7551182848
 11
159.4596793074
 21
30.7873819712
  0
LINE
  8
0
 62
7
  6
CONTINUOUS
 10
158.0721793074
 20
31.4649194539
 11
158.187804528
 21
31.4326557675
  0
LINE
  8
0
 62
7
  6
CONTINUOUS
 10
159.228429528
 20
30.7228545871
 11
159.401867028
 21
30.6583272086
  0
LINE
  8
0
 62
7
  6
CONTINUOUS
 10
158.4190543074
 20
31.5294468267
 11
158.2456168074
 21
31.5939741996
  0
LINE
  8
0
 62
7
  6
CONTINUOUS
 10
159.6331168074
 20
31.2390736489
 11
159.4596793074
 21
31.3036010218
  0
LINE
  8
0
 62
7
  6
CONTINUOUS
 10
160.442492028
 20
30.9809641124
 11
160.615929528
 21
30.9164367395
  0
LINE
  8
0
 62
7
  6
CONTINUOUS
 10
160.8471793074
 20
31.4971831403
 11
160.6737418074
 21
31.5617105132
  0
LINE
  8
0
 62
7
  6
CONTINUOUS
 10
159.228429528
 20
31.2390736489
 11
159.4596793074
 21
31.1422825445
  0
LINE
  8
0
 62
7
  6
CONTINUOUS
 10
160.8471793074
 20
30.9809641124
 11
160.615929528
 21
31.0777551716
  0
LINE
  8
0
 62
7
  6
CONTINUOUS
 10
159.401867028
 20
31.3681283946
 11
159.4596793074
 21
31.4326557675
  0
LINE
  8
0
 62
7
  6
CONTINUOUS
 10
149.8628043005
 20
31.4971831403
 11
149.7471793074
 21
31.4326557675
  0
LINE
  8
0
 62
7
  6
CONTINUOUS
 10
149.9784292936
 20
31.3358647082
 11
150.1518667936
 21
31.4326557675
  0
LINE
  8
0
 62
7
  6
CONTINUOUS
 10
152.2909293626
 20
31.5294468267
 11
152.1753043074
 21
31.4649194539
  0
LINE
  8
0
 62
7
  6
CONTINUOUS
 10
152.1753043074
 20
31.3358647082
 11
152.2909293626
 21
31.400392081
  0
LINE
  8
0
 62
7
  6
CONTINUOUS
 10
151.1924917523
 20
30.6905909007
 11
151.3659292523
 21
30.7873819712
  0
LINE
  8
0
 62
7
  6
CONTINUOUS
 10
150.2096793212
 20
30.6260635193
 11
150.5565542799
 21
30.5937998301
  0
LINE
  8
0
 62
7
  6
CONTINUOUS
 10
154.3143669177
 20
30.6260635193
 11
154.5456166972
 21
30.5937998301
  0
LINE
  8
0
 62
7
  6
CONTINUOUS
 10
152.6956168074
 20
31.4971831403
 11
152.9268669177
 21
31.4649194539
  0
LINE
  8
0
 62
7
  6
CONTINUOUS
 10
155.0081169177
 20
31.4971831403
 11
155.239367028
 21
31.4649194539
  0
LINE
  8
0
 62
7
  6
CONTINUOUS
 10
159.4596793074
 20
31.1422825445
 11
160.442492028
 21
30.9809641124
  0
LINE
  8
0
 62
7
  6
CONTINUOUS
 10
160.615929528
 20
31.0777551716
 11
159.6331168074
 21
31.2390736489
  0
LINE
  8
0
 62
7
  6
CONTINUOUS
 10
153.1003044177
 20
31.5939741996
 11
152.9268669177
 21
31.626237886
  0
LINE
  8
0
 62
7
  6
CONTINUOUS
 10
159.401867028
 20
30.6583272086
 11
159.575304528
 21
30.6260635193
  0
LINE
  8
0
 62
7
  6
CONTINUOUS
 10
158.2456168074
 20
31.5939741996
 11
158.0721793074
 21
31.626237886
  0
LINE
  8
0
 62
7
  6
CONTINUOUS
 10
160.5003043074
 20
31.4649194539
 11
160.615929528
 21
31.4326557675
  0
LINE
  8
0
 62
7
  6
CONTINUOUS
 10
160.6737418074
 20
30.8519093441
 11
160.615929528
 21
30.7873819712
  0
LINE
  8
0
 62
7
  6
CONTINUOUS
 10
159.228429528
 20
31.5294468267
 11
159.1128043074
 21
31.4326557675
  0
LINE
  8
0
 62
7
  6
CONTINUOUS
 10
154.1409294177
 20
31.5617105132
 11
154.0253041972
 21
31.4971831403
  0
LINE
  8
0
 62
7
  6
CONTINUOUS
 10
154.1987416972
 20
31.1745462761
 11
154.0831168074
 21
31.1100188581
  0
LINE
  8
0
 62
7
  6
CONTINUOUS
 10
154.3143669177
 20
31.0132277988
 11
154.4299918074
 21
31.0777551716
  0
LINE
  8
0
 62
7
  6
CONTINUOUS
 10
151.8862417523
 20
30.5937998301
 11
152.1753043074
 21
30.5937998301
  0
LINE
  8
0
 62
7
  6
CONTINUOUS
 10
153.2159293074
 20
30.5937998301
 11
153.5049916972
 21
30.5937998301
  0
LINE
  8
0
 62
7
  6
CONTINUOUS
 10
154.5456166972
 20
30.5937998301
 11
154.8924916972
 21
30.5937998301
  0
LINE
  8
0
 62
7
  6
CONTINUOUS
 10
155.5284290869
 20
30.5937998301
 11
155.8174918074
 21
30.5937998301
  0
LINE
  8
0
 62
7
  6
CONTINUOUS
 10
156.279992028
 20
30.5937998301
 11
156.5690540869
 21
30.5937998301
  0
LINE
  8
0
 62
7
  6
CONTINUOUS
 10
157.0315543074
 20
30.5937998301
 11
157.320617028
 21
30.5937998301
  0
LINE
  8
0
 62
7
  6
CONTINUOUS
 10
158.361242028
 20
30.5937998301
 11
158.6503040869
 21
30.5937998301
  0
LINE
  8
0
 62
7
  6
CONTINUOUS
 10
159.922179528
 20
30.5937998301
 11
160.269054528
 21
30.5937998301
  0
LINE
  8
0
 62
7
  6
CONTINUOUS
 10
160.269054528
 20
30.7228545871
 11
159.922179528
 21
30.7228545871
  0
LINE
  8
0
 62
7
  6
CONTINUOUS
 10
154.8924916972
 20
30.7228545871
 11
154.5456166972
 21
30.7228545871
  0
LINE
  8
0
 62
7
  6
CONTINUOUS
 10
159.401867028
 20
30.8519093441
 11
159.1128043074
 21
30.8519093441
  0
LINE
  8
0
 62
7
  6
CONTINUOUS
 10
151.4237418626
 20
30.9164367395
 11
151.1346793074
 21
30.9164367395
  0
LINE
  8
0
 62
7
  6
CONTINUOUS
 10
150.498741835
 20
31.4971831403
 11
150.9034292799
 21
31.4649194539
  0
LINE
  8
0
 62
7
  6
CONTINUOUS
 10
150.9612418074
 20
31.5939741996
 11
150.5565542799
 21
31.626237886
  0
LINE
  8
0
 62
7
  6
CONTINUOUS
 10
159.575304528
 20
30.6260635193
 11
159.922179528
 21
30.5937998301
  0
LINE
  8
0
 62
7
  6
CONTINUOUS
 10
159.922179528
 20
30.7228545871
 11
159.575304528
 21
30.7551182848
  0
LINE
  8
0
 62
7
  6
CONTINUOUS
 10
155.3549915869
 20
31.5939741996
 11
155.0081169177
 21
31.626237886
  0
LINE
  8
0
 62
7
  6
CONTINUOUS
 10
160.1534293074
 20
31.4971831403
 11
160.5003043074
 21
31.4649194539
  0
LINE
  8
0
 62
7
  6
CONTINUOUS
 10
160.5003043074
 20
31.5939741996
 11
160.1534293074
 21
31.626237886
  0
LINE
  8
0
 62
7
  6
CONTINUOUS
 10
157.840929528
 20
31.4971831403
 11
158.0721793074
 21
31.4649194539
  0
LINE
  8
0
 62
7
  6
CONTINUOUS
 10
160.6737418074
 20
31.5617105132
 11
160.5003043074
 21
31.5939741996
  0
LINE
  8
0
 62
7
  6
CONTINUOUS
 10
160.8471793074
 20
30.6905909007
 11
160.9628038663
 21
30.7873819712
  0
LINE
  8
0
 62
7
  6
CONTINUOUS
 10
155.3549915869
 20
30.8841730531
 11
155.1815540869
 21
30.7873819712
  0
LINE
  8
0
 62
7
  6
CONTINUOUS
 10
157.4362415869
 20
31.5294468267
 11
157.320617028
 21
31.4649194539
  0
LINE
  8
0
 62
7
  6
CONTINUOUS
 10
157.320617028
 20
31.3358647082
 11
157.4362415869
 21
31.400392081
  0
LINE
  8
0
 62
7
  6
CONTINUOUS
 10
150.0362418212
 20
31.5617105132
 11
149.8628043005
 21
31.4971831403
  0
LINE
  8
0
 62
7
  6
CONTINUOUS
 10
152.4643666972
 20
31.5939741996
 11
152.2909293626
 21
31.5294468267
  0
LINE
  8
0
 62
7
  6
CONTINUOUS
 10
152.2909293626
 20
31.400392081
 11
152.4643666972
 21
31.4649194539
  0
LINE
  8
0
 62
7
  6
CONTINUOUS
 10
151.0768668626
 20
30.8196456577
 11
150.9034292799
 21
30.7551182848
  0
LINE
  8
0
 62
7
  6
CONTINUOUS
 10
160.5003043074
 20
30.7551182848
 11
160.269054528
 21
30.7228545871
  0
LINE
  8
0
 62
7
  6
CONTINUOUS
 10
154.8924916972
 20
30.5937998301
 11
155.1815540869
 21
30.6260635193
  0
LINE
  8
0
 62
7
  6
CONTINUOUS
 10
160.269054528
 20
30.5937998301
 11
160.615929528
 21
30.6260635193
  0
LINE
  8
0
 62
7
  6
CONTINUOUS
 10
150.5565542799
 20
30.5937998301
 11
150.9612418074
 21
30.6260635193
  0
LINE
  8
0
 62
7
  6
CONTINUOUS
 10
150.9034292799
 20
30.7551182848
 11
150.498741835
 21
30.7228545871
  0
LINE
  8
0
 62
7
  6
CONTINUOUS
 10
154.7768668074
 20
31.1422825445
 11
155.412804528
 21
31.1422825445
  0
LINE
  8
0
 62
7
  6
CONTINUOUS
 10
155.412804528
 20
31.2713373354
 11
154.7768668074
 21
31.2713373354
  0
LINE
  8
0
 62
7
  6
CONTINUOUS
 10
151.1346793074
 20
31.3036010218
 11
151.4237418626
 21
31.3036010218
  0
LINE
  8
0
 62
7
  6
CONTINUOUS
 10
153.9674919177
 20
31.3681283946
 11
154.2565543074
 21
31.3681283946
  0
LINE
  8
0
 62
7
  6
CONTINUOUS
 10
160.6737418074
 20
31.3681283946
 11
160.9628038663
 21
31.3681283946
  0
LINE
  8
0
 62
7
  6
CONTINUOUS
 10
154.6612419177
 20
31.4971831403
 11
155.0081169177
 21
31.4971831403
  0
LINE
  8
0
 62
7
  6
CONTINUOUS
 10
159.8065543074
 20
31.4971831403
 11
160.1534293074
 21
31.4971831403
  0
LINE
  8
0
 62
7
  6
CONTINUOUS
 10
160.1534293074
 20
31.626237886
 11
159.8065543074
 21
31.626237886
  0
LINE
  8
0
 62
7
  6
CONTINUOUS
 10
158.0721793074
 20
31.626237886
 11
157.840929528
 21
31.626237886
  0
LINE
  8
0
 62
7
  6
CONTINUOUS
 10
157.320617028
 20
31.626237886
 11
157.0315543074
 21
31.626237886
  0
LINE
  8
0
 62
7
  6
CONTINUOUS
 10
156.5690540869
 20
31.626237886
 11
156.279992028
 21
31.626237886
  0
LINE
  8
0
 62
7
  6
CONTINUOUS
 10
155.0081169177
 20
31.626237886
 11
154.6612419177
 21
31.626237886
  0
LINE
  8
0
 62
7
  6
CONTINUOUS
 10
152.9268669177
 20
31.626237886
 11
152.6956168074
 21
31.626237886
  0
LINE
  8
0
 62
7
  6
CONTINUOUS
 10
156.279992028
 20
31.9488748406
 11
156.5690540869
 21
31.9488748406
  0
LINE
  8
0
 62
7
  6
CONTINUOUS
 10
156.5690540869
 20
32.1101932727
 11
156.279992028
 21
32.1101932727
  0
LINE
  8
0
 62
7
  6
CONTINUOUS
 10
152.1753043074
 20
32.1101932727
 11
151.8862417523
 21
32.1101932727
  0
LINE
  8
0
 62
7
  6
CONTINUOUS
 10
151.2130860697
 20
32.3970785186
 11
151.6256574183
 21
32.3970785186
  0
LINE
  8
0
 62
7
  6
CONTINUOUS
 10
152.852430332
 20
32.3970785186
 11
154.245872955
 21
32.3970785186
  0
LINE
  8
0
 62
7
  6
CONTINUOUS
 10
154.5737418074
 20
32.3970785186
 11
155.9671844304
 21
32.3970785186
  0
LINE
  8
0
 62
7
  6
CONTINUOUS
 10
157.852430332
 20
32.3970785186
 11
159.245872955
 21
32.3970785186
  0
LINE
  8
0
 62
7
  6
CONTINUOUS
 10
159.5737418074
 20
32.3970785186
 11
160.9671844304
 21
32.3970785186
  0
LINE
  8
0
 62
7
  6
CONTINUOUS
 10
157.6096790869
 20
31.5939741996
 11
157.4362415869
 21
31.5294468267
  0
LINE
  8
0
 62
7
  6
CONTINUOUS
 10
155.1815540869
 20
30.6260635193
 11
155.3549915869
 21
30.6905909007
  0
LINE
  8
0
 62
7
  6
CONTINUOUS
 10
160.615929528
 20
30.6260635193
 11
160.8471793074
 21
30.6905909007
  0
LINE
  8
0
 62
7
  6
CONTINUOUS
 10
160.615929528
 20
30.7873819712
 11
160.5003043074
 21
30.7551182848
  0
LINE
  8
0
 62
7
  6
CONTINUOUS
 10
159.575304528
 20
31.4649194539
 11
159.8065543074
 21
31.4971831403
  0
LINE
  8
0
 62
7
  6
CONTINUOUS
 10
157.6096790869
 20
31.4649194539
 11
157.840929528
 21
31.4971831403
  0
LINE
  8
0
 62
7
  6
CONTINUOUS
 10
154.5456166972
 20
31.1100188581
 11
154.7768668074
 21
31.1422825445
  0
LINE
  8
0
 62
7
  6
CONTINUOUS
 10
157.840929528
 20
31.626237886
 11
157.6096790869
 21
31.5939741996
  0
LINE
  8
0
 62
7
  6
CONTINUOUS
 10
154.4299918074
 20
31.4649194539
 11
154.6612419177
 21
31.4971831403
  0
LINE
  8
0
 62
7
  6
CONTINUOUS
 10
159.8065543074
 20
31.626237886
 11
159.4596793074
 21
31.5939741996
  0
LINE
  8
0
 62
7
  6
CONTINUOUS
 10
154.7768668074
 20
31.2713373354
 11
154.4299918074
 21
31.2390736489
  0
LINE
  8
0
 62
7
  6
CONTINUOUS
 10
150.5565542799
 20
31.626237886
 11
150.2096793212
 21
31.5939741996
  0
LINE
  8
0
 62
7
  6
CONTINUOUS
 10
154.6612419177
 20
31.626237886
 11
154.2565543074
 21
31.5939741996
  0
LINE
  8
0
 62
7
  6
CONTINUOUS
 10
152.0327582009
 20
33.5446195022
 11
151.3770204959
 21
33.5446195022
  0
LINE
  8
0
 62
7
  6
CONTINUOUS
 10
157.4362415869
 20
31.400392081
 11
157.6096790869
 21
31.4649194539
  0
LINE
  8
0
 62
7
  6
CONTINUOUS
 10
159.4596793074
 20
31.4326557675
 11
159.575304528
 21
31.4649194539
  0
LINE
  8
0
 62
7
  6
CONTINUOUS
 10
159.4596793074
 20
31.5939741996
 11
159.228429528
 21
31.5294468267
  0
LINE
  8
0
 62
7
  6
CONTINUOUS
 10
155.1815540869
 20
30.7873819712
 11
154.8924916972
 21
30.7228545871
  0
LINE
  8
0
 62
7
  6
CONTINUOUS
 10
152.4643666972
 20
31.4649194539
 11
152.6956168074
 21
31.4971831403
  0
LINE
  8
0
 62
7
  6
CONTINUOUS
 10
152.6956168074
 20
31.626237886
 11
152.4643666972
 21
31.5939741996
  0
LINE
  8
0
 62
7
  6
CONTINUOUS
 10
150.2674918074
 20
31.4649194539
 11
150.498741835
 21
31.4971831403
  0
LINE
  8
0
 62
7
  6
CONTINUOUS
 10
156.7868565615
 20
35.0200293383
 11
157.4425942664
 21
35.0200293383
  0
LINE
  8
0
 62
7
  6
CONTINUOUS
 10
154.4299918074
 20
31.0777551716
 11
154.5456166972
 21
31.1100188581
  0
LINE
  8
0
 62
7
  6
CONTINUOUS
 10
154.4299918074
 20
31.2390736489
 11
154.1987416972
 21
31.1745462761
  0
LINE
  8
0
 62
7
  6
CONTINUOUS
 10
154.3143669177
 20
31.4326557675
 11
154.4299918074
 21
31.4649194539
  0
LINE
  8
0
 62
7
  6
CONTINUOUS
 10
150.9612418074
 20
30.6260635193
 11
151.1924917523
 21
30.6905909007
  0
LINE
  8
0
 62
7
  6
CONTINUOUS
 10
154.2565543074
 20
31.5939741996
 11
154.1409294177
 21
31.5617105132
  0
LINE
  8
0
 62
7
  6
CONTINUOUS
 10
150.2096793212
 20
31.5939741996
 11
150.0362418212
 21
31.5617105132
  0
LINE
  8
0
 62
7
  6
CONTINUOUS
 10
160.9671844304
 20
36.1675703219
 11
159.5737418074
 21
36.1675703219
  0
LINE
  8
0
 62
7
  6
CONTINUOUS
 10
157.6065286927
 20
36.1675703219
 11
157.1939573441
 21
36.1675703219
  0
LINE
  8
0
 62
7
  6
CONTINUOUS
 10
155.9671844304
 20
36.1675703219
 11
154.5737418074
 21
36.1675703219
  0
LINE
  8
0
 62
7
  6
CONTINUOUS
 10
154.245872955
 20
36.1675703219
 11
152.852430332
 21
36.1675703219
  0
LINE
  8
0
 62
7
  6
CONTINUOUS
 10
150.9671844304
 20
36.1675703219
 11
149.5737418074
 21
36.1675703219
  0
LINE
  8
0
 62
7
  6
CONTINUOUS
 10
150.1518667936
 20
31.4326557675
 11
150.2674918074
 21
31.4649194539
  0
CIRCLE
  8
0
 62
7
  6
CONTINUOUS
 10
160.2704631189
 20
38.5036358957
 40
2.0901639344
  0
ARC
  8
0
 62
7
  6
CONTINUOUS
 10
151.2130860697
 20
34.0364227809
 40
1.6393442623
 50
180.0
 51
270.0
  0
ARC
  8
0
 62
7
  6
CONTINUOUS
 10
157.6065286927
 20
34.5282260596
 40
1.6393442623
 50
0.0
 51
90.0
  0
ARC
  8
0
 62
7
  6
CONTINUOUS
 10
151.6256574183
 20
33.8724883547
 40
1.4754098361
 50
270.0
 51
326.2510114041
  0
ARC
  8
0
 62
7
  6
CONTINUOUS
 10
157.1939573441
 20
34.6921604858
 40
1.4754098361
 50
90.0
 51
146.2510114041
  0
ARC
  8
0
 62
7
  6
CONTINUOUS
 10
152.0327582009
 20
34.3642916334
 40
0.8196721311
 50
270.0
 51
360.0
  0
ARC
  8
0
 62
7
  6
CONTINUOUS
 10
156.7868565615
 20
34.2003572071
 40
0.8196721311
 50
90.0
 51
180.0
  0
ARC
  8
0
 62
7
  6
CONTINUOUS
 10
151.3770204959
 20
33.9544555678
 40
0.4098360656
 50
180.0
 51
270.0
  0
ARC
  8
0
 62
7
  6
CONTINUOUS
 10
157.4425942664
 20
34.6101932727
 40
0.4098360656
 50
0.0
 51
90.0
  0
SOLID
  8
0
 62
7
  6
CONTINUOUS
 10
156.279992028
 20
31.9488752009
 11
156.279992028
 21
32.1101936845
 12
156.5690540869
 22
31.9488752009
 13
156.5690540869
 23
32.1101936845
  0
SOLID
  8
0
 62
7
  6
CONTINUOUS
 10
150.5565542799
 20
31.6262382337
 11
150.9612418074
 21
31.5939740028
 12
150.2096793212
 22
31.5939740028
 13
150.2096793212
 23
31.5939740028
  0
SOLID
  8
0
 62
7
  6
CONTINUOUS
 10
150.0362418212
 20
31.5617111435
 11
150.2096793212
 21
31.5939740028
 12
150.9612418074
 22
31.5939740028
 13
150.9612418074
 23
31.5939740028
  0
SOLID
  8
0
 62
7
  6
CONTINUOUS
 10
150.9612418074
 20
31.5939740028
 11
151.1924917523
 21
31.5294468402
 12
150.0362418212
 22
31.5617111435
 13
150.0362418212
 23
31.5617111435
  0
SOLID
  8
0
 62
7
  6
CONTINUOUS
 10
149.8628043005
 20
31.49718259
 11
150.0362418212
 21
31.5617111435
 12
151.1924917523
 22
31.5294468402
 13
151.1924917523
 23
31.5294468402
  0
SOLID
  8
0
 62
7
  6
CONTINUOUS
 10
149.8628043005
 20
31.49718259
 11
151.1924917523
 21
31.5294468402
 12
150.498741835
 22
31.49718259
 13
150.498741835
 23
31.49718259
  0
SOLID
  8
0
 62
7
  6
CONTINUOUS
 10
150.498741835
 20
31.49718259
 11
151.1924917523
 21
31.5294468402
 12
150.9034292799
 22
31.4649197501
 13
150.9034292799
 23
31.4649197501
  0
SOLID
  8
0
 62
7
  6
CONTINUOUS
 10
151.1924917523
 20
31.5294468402
 11
151.3659292523
 21
31.4326554468
 12
150.9034292799
 22
31.4649197501
 13
150.9034292799
 23
31.4649197501
  0
SOLID
  8
0
 62
7
  6
CONTINUOUS
 10
151.0768668626
 20
31.4003926599
 11
150.9034292799
 21
31.4649197501
 12
151.3659292523
 22
31.4326554468
 13
151.3659292523
 23
31.4326554468
  0
SOLID
  8
0
 62
7
  6
CONTINUOUS
 10
151.0768668626
 20
31.4003926599
 11
151.3659292523
 21
31.4326554468
 12
151.1346793074
 22
31.3036013776
 13
151.1346793074
 23
31.3036013776
  0
SOLID
  8
0
 62
7
  6
CONTINUOUS
 10
151.3659292523
 20
31.4326554468
 11
151.4237418626
 21
31.3036013776
 12
151.1346793074
 22
31.3036013776
 13
151.1346793074
 23
31.3036013776
  0
SOLID
  8
0
 62
7
  6
CONTINUOUS
 10
152.4643666972
 20
31.5939739754
 11
152.6956168074
 21
31.6262382787
 12
152.9268669177
 22
31.6262382787
 13
152.9268669177
 23
31.6262382787
  0
SOLID
  8
0
 62
7
  6
CONTINUOUS
 10
152.9268669177
 20
31.6262382787
 11
153.1003044177
 21
31.5939739754
 12
152.4643666972
 22
31.5939739754
 13
152.4643666972
 23
31.5939739754
  0
SOLID
  8
0
 62
7
  6
CONTINUOUS
 10
152.2909293626
 20
31.5294468852
 11
152.4643666972
 21
31.5939739754
 12
153.1003044177
 22
31.5939739754
 13
153.1003044177
 23
31.5939739754
  0
SOLID
  8
0
 62
7
  6
CONTINUOUS
 10
153.1003044177
 20
31.5939739754
 11
153.2737419177
 21
31.5294468852
 12
152.2909293626
 22
31.5294468852
 13
152.2909293626
 23
31.5294468852
  0
SOLID
  8
0
 62
7
  6
CONTINUOUS
 10
153.2737419177
 20
31.5294468852
 11
152.6956168074
 21
31.4971825369
 12
152.2909293626
 22
31.5294468852
 13
152.2909293626
 23
31.5294468852
  0
SOLID
  8
0
 62
7
  6
CONTINUOUS
 10
152.1753043074
 20
31.4649197951
 11
152.2909293626
 21
31.5294468852
 12
152.6956168074
 22
31.4971825369
 13
152.6956168074
 23
31.4971825369
  0
SOLID
  8
0
 62
7
  6
CONTINUOUS
 10
152.6956168074
 20
31.4971825369
 11
152.4643666972
 21
31.4649197951
 12
152.1753043074
 22
31.4649197951
 13
152.1753043074
 23
31.4649197951
  0
SOLID
  8
0
 62
7
  6
CONTINUOUS
 10
152.6956168074
 20
31.4971825369
 11
153.2737419177
 21
31.5294468852
 12
152.9268669177
 22
31.4649197951
 13
152.9268669177
 23
31.4649197951
  0
SOLID
  8
0
 62
7
  6
CONTINUOUS
 10
153.2737419177
 20
31.5294468852
 11
153.3893668074
 21
31.4649197951
 12
152.9268669177
 22
31.4649197951
 13
152.9268669177
 23
31.4649197951
  0
SOLID
  8
0
 62
7
  6
CONTINUOUS
 10
153.0424918074
 20
31.4326554468
 11
152.9268669177
 21
31.4649197951
 12
153.3893668074
 22
31.4649197951
 13
153.3893668074
 23
31.4649197951
  0
SOLID
  8
0
 62
7
  6
CONTINUOUS
 10
153.3893668074
 20
31.4649197951
 11
153.4471794177
 21
31.4003927049
 12
153.0424918074
 22
31.4326554468
 13
153.0424918074
 23
31.4326554468
  0
SOLID
  8
0
 62
7
  6
CONTINUOUS
 10
153.1581166972
 20
31.3681283566
 11
153.0424918074
 21
31.4326554468
 12
153.4471794177
 22
31.4003927049
 13
153.4471794177
 23
31.4003927049
  0
SOLID
  8
0
 62
7
  6
CONTINUOUS
 10
153.1581166972
 20
31.3681283566
 11
153.4471794177
 21
31.4003927049
 12
153.2159293074
 22
31.2390742213
 13
153.2159293074
 23
31.2390742213
  0
SOLID
  8
0
 62
7
  6
CONTINUOUS
 10
153.4471794177
 20
31.4003927049
 11
153.5049916972
 21
31.2390742213
 12
153.2159293074
 22
31.2390742213
 13
153.2159293074
 23
31.2390742213
  0
SOLID
  8
0
 62
7
  6
CONTINUOUS
 10
152.4643666972
 20
31.4649197951
 11
152.2909293626
 21
31.4003927049
 12
152.1753043074
 22
31.4649197951
 13
152.1753043074
 23
31.4649197951
  0
SOLID
  8
0
 62
7
  6
CONTINUOUS
 10
152.2909293626
 20
31.4003927049
 11
152.1753043074
 21
31.3358640533
 12
152.1753043074
 22
31.4649197951
 13
152.1753043074
 23
31.4649197951
  0
SOLID
  8
0
 62
7
  6
CONTINUOUS
 10
152.1753043074
 20
31.3358640533
 11
151.8862417523
 21
30.5938002869
 12
152.1753043074
 22
31.4649197951
 13
152.1753043074
 23
31.4649197951
  0
SOLID
  8
0
 62
7
  6
CONTINUOUS
 10
152.1753043074
 20
31.4649197951
 11
151.8862417523
 21
30.5938002869
 12
152.1753043074
 22
32.1101937295
 13
152.1753043074
 23
32.1101937295
  0
SOLID
  8
0
 62
7
  6
CONTINUOUS
 10
151.8862417523
 20
30.5938002869
 11
151.8862417523
 21
32.1101937295
 12
152.1753043074
 22
32.1101937295
 13
152.1753043074
 23
32.1101937295
  0
SOLID
  8
0
 62
7
  6
CONTINUOUS
 10
152.1753043074
 20
31.3358640533
 11
152.1753043074
 21
30.5938002869
 12
151.8862417523
 22
30.5938002869
 13
151.8862417523
 23
30.5938002869
  0
SOLID
  8
0
 62
7
  6
CONTINUOUS
 10
153.2159293074
 20
30.5938002869
 11
153.2159293074
 21
31.2390742213
 12
153.5049916972
 22
31.2390742213
 13
153.5049916972
 23
31.2390742213
  0
SOLID
  8
0
 62
7
  6
CONTINUOUS
 10
153.5049916972
 20
31.2390742213
 11
153.5049916972
 21
30.5938002869
 12
153.2159293074
 22
30.5938002869
 13
153.2159293074
 23
30.5938002869
  0
SOLID
  8
0
 62
7
  6
CONTINUOUS
 10
154.2565543074
 20
31.5939738288
 11
154.6612419177
 21
31.6262385959
 12
155.0081169177
 22
31.6262385959
 13
155.0081169177
 23
31.6262385959
  0
SOLID
  8
0
 62
7
  6
CONTINUOUS
 10
155.0081169177
 20
31.6262385959
 11
155.3549915869
 21
31.5939738288
 12
154.2565543074
 22
31.5939738288
 13
154.2565543074
 23
31.5939738288
  0
SOLID
  8
0
 62
7
  6
CONTINUOUS
 10
154.1409294177
 20
31.5617111435
 11
154.2565543074
 21
31.5939738288
 12
155.3549915869
 22
31.5939738288
 13
155.3549915869
 23
31.5939738288
  0
SOLID
  8
0
 62
7
  6
CONTINUOUS
 10
155.3549915869
 20
31.5939738288
 11
155.5284290869
 21
31.5294468402
 12
154.1409294177
 22
31.5617111435
 13
154.1409294177
 23
31.5617111435
  0
SOLID
  8
0
 62
7
  6
CONTINUOUS
 10
154.0253041972
 20
31.4971826249
 11
154.1409294177
 21
31.5617111435
 12
155.5284290869
 22
31.5294468402
 13
155.5284290869
 23
31.5294468402
  0
SOLID
  8
0
 62
7
  6
CONTINUOUS
 10
154.0253041972
 20
31.4971826249
 11
155.5284290869
 21
31.5294468402
 12
154.6612419177
 22
31.4971826249
 13
154.6612419177
 23
31.4971826249
  0
SOLID
  8
0
 62
7
  6
CONTINUOUS
 10
154.6612419177
 20
31.4971826249
 11
155.5284290869
 21
31.5294468402
 12
155.0081169177
 22
31.4971826249
 13
155.0081169177
 23
31.4971826249
  0
SOLID
  8
0
 62
7
  6
CONTINUOUS
 10
155.0081169177
 20
31.4971826249
 11
155.5284290869
 21
31.5294468402
 12
155.239367028
 22
31.4649194065
 13
155.239367028
 23
31.4649194065
  0
SOLID
  8
0
 62
7
  6
CONTINUOUS
 10
155.5284290869
 20
31.5294468402
 11
155.6440543074
 21
31.4649194065
 12
155.239367028
 22
31.4649194065
 13
155.239367028
 23
31.4649194065
  0
SOLID
  8
0
 62
7
  6
CONTINUOUS
 10
153.9674919177
 20
31.4326554138
 11
154.0253041972
 21
31.4971826249
 12
154.6612419177
 22
31.4971826249
 13
154.6612419177
 23
31.4971826249
  0
SOLID
  8
0
 62
7
  6
CONTINUOUS
 10
155.3549915869
 20
31.4326554138
 11
155.239367028
 21
31.4649194065
 12
155.6440543074
 22
31.4649194065
 13
155.6440543074
 23
31.4649194065
  0
SOLID
  8
0
 62
7
  6
CONTINUOUS
 10
155.3549915869
 20
31.4326554138
 11
155.6440543074
 21
31.4649194065
 12
155.412804528
 22
31.3681282026
 13
155.412804528
 23
31.3681282026
  0
SOLID
  8
0
 62
7
  6
CONTINUOUS
 10
155.6440543074
 20
31.4649194065
 11
155.7018665869
 21
31.3681282026
 12
155.412804528
 22
31.3681282026
 13
155.412804528
 23
31.3681282026
  0
SOLID
  8
0
 62
7
  6
CONTINUOUS
 10
155.412804528
 20
31.2713369632
 11
155.412804528
 21
31.3681282026
 12
155.7018665869
 22
31.3681282026
 13
155.7018665869
 23
31.3681282026
  0
SOLID
  8
0
 62
7
  6
CONTINUOUS
 10
155.412804528
 20
31.2713369632
 11
155.7018665869
 21
31.3681282026
 12
155.412804528
 22
31.1422827828
 13
155.412804528
 23
31.1422827828
  0
SOLID
  8
0
 62
7
  6
CONTINUOUS
 10
155.412804528
 20
31.1422827828
 11
155.7018665869
 21
31.3681282026
 12
155.412804528
 22
30.9487004259
 13
155.412804528
 23
30.9487004259
  0
SOLID
  8
0
 62
7
  6
CONTINUOUS
 10
155.7018665869
 20
31.3681282026
 11
155.7018665869
 21
30.8519086025
 12
155.412804528
 22
30.9487004259
 13
155.412804528
 23
30.9487004259
  0
SOLID
  8
0
 62
7
  6
CONTINUOUS
 10
157.6096790869
 20
31.5939736268
 11
157.840929528
 21
31.6262383465
 12
158.0721793074
 22
31.6262383465
 13
158.0721793074
 23
31.6262383465
  0
SOLID
  8
0
 62
7
  6
CONTINUOUS
 10
158.0721793074
 20
31.6262383465
 11
158.2456168074
 21
31.5939736268
 12
157.6096790869
 22
31.5939736268
 13
157.6096790869
 23
31.5939736268
  0
SOLID
  8
0
 62
7
  6
CONTINUOUS
 10
157.4362415869
 20
31.5294472848
 11
157.6096790869
 21
31.5939736268
 12
158.2456168074
 22
31.5939736268
 13
158.2456168074
 23
31.5939736268
  0
SOLID
  8
0
 62
7
  6
CONTINUOUS
 10
158.2456168074
 20
31.5939736268
 11
158.4190543074
 21
31.5294472848
 12
157.4362415869
 22
31.5294472848
 13
157.4362415869
 23
31.5294472848
  0
SOLID
  8
0
 62
7
  6
CONTINUOUS
 10
158.4190543074
 20
31.5294472848
 11
157.840929528
 21
31.4971825369
 12
157.4362415869
 22
31.5294472848
 13
157.4362415869
 23
31.5294472848
  0
SOLID
  8
0
 62
7
  6
CONTINUOUS
 10
157.320617028
 20
31.4649199103
 11
157.4362415869
 21
31.5294472848
 12
157.840929528
 22
31.4971825369
 13
157.840929528
 23
31.4971825369
  0
SOLID
  8
0
 62
7
  6
CONTINUOUS
 10
157.840929528
 20
31.4971825369
 11
157.6096790869
 21
31.4649199103
 12
157.320617028
 22
31.4649199103
 13
157.320617028
 23
31.4649199103
  0
SOLID
  8
0
 62
7
  6
CONTINUOUS
 10
157.840929528
 20
31.4971825369
 11
158.4190543074
 21
31.5294472848
 12
158.0721793074
 22
31.4649199103
 13
158.0721793074
 23
31.4649199103
  0
SOLID
  8
0
 62
7
  6
CONTINUOUS
 10
158.4190543074
 20
31.5294472848
 11
158.534679528
 21
31.4649199103
 12
158.0721793074
 22
31.4649199103
 13
158.0721793074
 23
31.4649199103
  0
SOLID
  8
0
 62
7
  6
CONTINUOUS
 10
158.187804528
 20
31.4326554468
 11
158.0721793074
 21
31.4649199103
 12
158.534679528
 22
31.4649199103
 13
158.534679528
 23
31.4649199103
  0
SOLID
  8
0
 62
7
  6
CONTINUOUS
 10
158.187804528
 20
31.4326554468
 11
158.534679528
 21
31.4649199103
 12
158.3034290869
 22
31.3681288486
 13
158.3034290869
 23
31.3681288486
  0
SOLID
  8
0
 62
7
  6
CONTINUOUS
 10
158.534679528
 20
31.4649199103
 11
158.5924918074
 21
31.3681288486
 12
158.3034290869
 22
31.3681288486
 13
158.3034290869
 23
31.3681288486
  0
SOLID
  8
0
 62
7
  6
CONTINUOUS
 10
158.361242028
 20
31.2068093799
 11
158.3034290869
 21
31.3681288486
 12
158.5924918074
 22
31.3681288486
 13
158.5924918074
 23
31.3681288486
  0
SOLID
  8
0
 62
7
  6
CONTINUOUS
 10
158.5924918074
 20
31.3681288486
 11
158.6503040869
 21
31.2068093799
 12
158.361242028
 22
31.2068093799
 13
158.361242028
 23
31.2068093799
  0
SOLID
  8
0
 62
7
  6
CONTINUOUS
 10
157.6096790869
 20
31.4649199103
 11
157.4362415869
 21
31.4003926599
 12
157.320617028
 22
31.4649199103
 13
157.320617028
 23
31.4649199103
  0
SOLID
  8
0
 62
7
  6
CONTINUOUS
 10
157.4362415869
 20
31.4003926599
 11
157.320617028
 21
31.3358640533
 12
157.320617028
 22
31.4649199103
 13
157.320617028
 23
31.4649199103
  0
SOLID
  8
0
 62
7
  6
CONTINUOUS
 10
157.320617028
 20
31.3358640533
 11
157.0315543074
 21
30.5938003547
 12
157.320617028
 22
31.4649199103
 13
157.320617028
 23
31.4649199103
  0
SOLID
  8
0
 62
7
  6
CONTINUOUS
 10
157.320617028
 20
31.4649199103
 11
157.0315543074
 21
30.5938003547
 12
157.320617028
 22
31.6262383465
 13
157.320617028
 23
31.6262383465
  0
SOLID
  8
0
 62
7
  6
CONTINUOUS
 10
157.0315543074
 20
30.5938003547
 11
157.0315543074
 21
31.6262383465
 12
157.320617028
 22
31.6262383465
 13
157.320617028
 23
31.6262383465
  0
SOLID
  8
0
 62
7
  6
CONTINUOUS
 10
157.320617028
 20
31.3358640533
 11
157.320617028
 21
30.5938003547
 12
157.0315543074
 22
30.5938003547
 13
157.0315543074
 23
30.5938003547
  0
SOLID
  8
0
 62
7
  6
CONTINUOUS
 10
158.361242028
 20
30.5938003547
 11
158.361242028
 21
31.2068093799
 12
158.6503040869
 22
31.2068093799
 13
158.6503040869
 23
31.2068093799
  0
SOLID
  8
0
 62
7
  6
CONTINUOUS
 10
158.6503040869
 20
31.2068093799
 11
158.6503040869
 21
30.5938003547
 12
158.361242028
 22
30.5938003547
 13
158.361242028
 23
30.5938003547
  0
SOLID
  8
0
 62
7
  6
CONTINUOUS
 10
159.4596793074
 20
31.5939739474
 11
159.8065543074
 21
31.6262381969
 12
160.1534293074
 22
31.6262381969
 13
160.1534293074
 23
31.6262381969
  0
SOLID
  8
0
 62
7
  6
CONTINUOUS
 10
160.1534293074
 20
31.6262381969
 11
160.5003043074
 21
31.5939739474
 12
159.4596793074
 22
31.5939739474
 13
159.4596793074
 23
31.5939739474
  0
SOLID
  8
0
 62
7
  6
CONTINUOUS
 10
159.228429528
 20
31.5294468402
 11
159.4596793074
 21
31.5939739474
 12
160.5003043074
 22
31.5939739474
 13
160.5003043074
 23
31.5939739474
  0
SOLID
  8
0
 62
7
  6
CONTINUOUS
 10
159.228429528
 20
31.5294468402
 11
160.5003043074
 21
31.5939739304
 12
160.6737418074
 22
31.5617111435
 13
160.6737418074
 23
31.5617111435
  0
SOLID
  8
0
 62
7
  6
CONTINUOUS
 10
159.228429528
 20
31.5294468402
 11
160.6737418074
 21
31.5617111435
 12
159.8065543074
 22
31.4971825592
 13
159.8065543074
 23
31.4971825592
  0
SOLID
  8
0
 62
7
  6
CONTINUOUS
 10
159.8065543074
 20
31.4971825592
 11
160.6737418074
 21
31.5617111435
 12
160.1534293074
 22
31.4971825592
 13
160.1534293074
 23
31.4971825592
  0
SOLID
  8
0
 62
7
  6
CONTINUOUS
 10
160.6737418074
 20
31.5617111435
 11
160.8471793074
 21
31.4971825592
 12
160.1534293074
 22
31.4971825592
 13
160.1534293074
 23
31.4971825592
  0
SOLID
  8
0
 62
7
  6
CONTINUOUS
 10
160.5003043074
 20
31.4649197501
 11
160.1534293074
 21
31.4971825592
 12
160.8471793074
 22
31.4971825592
 13
160.8471793074
 23
31.4971825592
  0
SOLID
  8
0
 62
7
  6
CONTINUOUS
 10
159.1128043074
 20
31.4326555427
 11
159.228429528
 21
31.5294468402
 12
159.8065543074
 22
31.4971825592
 13
159.8065543074
 23
31.4971825592
  0
SOLID
  8
0
 62
7
  6
CONTINUOUS
 10
160.5003043074
 20
31.4649197501
 11
160.8471793074
 21
31.4971825592
 12
160.615929528
 22
31.4326555427
 13
160.615929528
 23
31.4326555427
  0
SOLID
  8
0
 62
7
  6
CONTINUOUS
 10
160.615929528
 20
31.4326555427
 11
160.8471793074
 21
31.4971825592
 12
160.6737418074
 22
31.3681283005
 13
160.6737418074
 23
31.3681283005
  0
SOLID
  8
0
 62
7
  6
CONTINUOUS
 10
160.8471793074
 20
31.4971825592
 11
160.9628038663
 21
31.3681283005
 12
160.6737418074
 22
31.3681283005
 13
160.6737418074
 23
31.3681283005
  0
SOLID
  8
0
 62
7
  6
CONTINUOUS
 10
150.2674918074
 20
31.4649197501
 11
149.7471793074
 21
31.4326554237
 12
150.498741835
 22
31.4971824493
 13
150.498741835
 23
31.4971824493
  0
SOLID
  8
0
 62
7
  6
CONTINUOUS
 10
149.7471793074
 20
31.4326554237
 11
149.8628043005
 21
31.4971824493
 12
150.498741835
 22
31.4971824493
 13
150.498741835
 23
31.4971824493
  0
SOLID
  8
0
 62
7
  6
CONTINUOUS
 10
150.2674918074
 20
31.4649197501
 11
150.1518667936
 21
31.4326554237
 12
149.7471793074
 22
31.4326554237
 13
149.7471793074
 23
31.4326554237
  0
SOLID
  8
0
 62
7
  6
CONTINUOUS
 10
149.6315543091
 20
31.3036012664
 11
149.7471793074
 21
31.4326554237
 12
150.1518667936
 22
31.4326554237
 13
150.1518667936
 23
31.4326554237
  0
SOLID
  8
0
 62
7
  6
CONTINUOUS
 10
153.9674919177
 20
31.4326554237
 11
154.6612419177
 21
31.4971825369
 12
154.4299918074
 22
31.4649197501
 13
154.4299918074
 23
31.4649197501
  0
SOLID
  8
0
 62
7
  6
CONTINUOUS
 10
154.4299918074
 20
31.4649197501
 11
154.3143669177
 21
31.4326554237
 12
153.9674919177
 22
31.4326554237
 13
153.9674919177
 23
31.4326554237
  0
SOLID
  8
0
 62
7
  6
CONTINUOUS
 10
153.9674919177
 20
31.3681283335
 11
153.9674919177
 21
31.4326554237
 12
154.3143669177
 22
31.4326554237
 13
154.3143669177
 23
31.4326554237
  0
SOLID
  8
0
 62
7
  6
CONTINUOUS
 10
154.3143669177
 20
31.4326554237
 11
154.2565543074
 21
31.3681283335
 12
153.9674919177
 22
31.3681283335
 13
153.9674919177
 23
31.3681283335
  0
SOLID
  8
0
 62
7
  6
CONTINUOUS
 10
159.1128043074
 20
31.4326555528
 11
159.8065543074
 21
31.4971825369
 12
159.575304528
 22
31.4649197501
 13
159.575304528
 23
31.4649197501
  0
SOLID
  8
0
 62
7
  6
CONTINUOUS
 10
159.575304528
 20
31.4649197501
 11
159.4596793074
 21
31.4326555528
 12
159.1128043074
 22
31.4326555528
 13
159.1128043074
 23
31.4326555528
  0
SOLID
  8
0
 62
7
  6
CONTINUOUS
 10
159.1128043074
 20
31.3681284626
 11
159.1128043074
 21
31.4326555528
 12
159.4596793074
 22
31.4326555528
 13
159.4596793074
 23
31.4326555528
  0
SOLID
  8
0
 62
7
  6
CONTINUOUS
 10
159.4596793074
 20
31.4326555528
 11
159.401867028
 21
31.3681284626
 12
159.1128043074
 22
31.3681284626
 13
159.1128043074
 23
31.3681284626
  0
SOLID
  8
0
 62
7
  6
CONTINUOUS
 10
159.228429528
 20
31.2390741763
 11
159.1128043074
 21
31.3681284626
 12
159.401867028
 22
31.3681284626
 13
159.401867028
 23
31.3681284626
  0
SOLID
  8
0
 62
7
  6
CONTINUOUS
 10
149.6315543091
 20
31.3036012664
 11
150.1518667936
 21
31.4326554468
 12
149.9784292936
 22
31.3358640533
 13
149.9784292936
 23
31.3358640533
  0
SOLID
  8
0
 62
7
  6
CONTINUOUS
 10
149.9784292936
 20
31.3358640533
 11
149.9206168074
 21
31.2713369632
 12
149.6315543091
 22
31.3036012664
 13
149.6315543091
 23
31.3036012664
  0
SOLID
  8
0
 62
7
  6
CONTINUOUS
 10
149.5737418074
 20
31.1100184796
 11
149.6315543091
 21
31.3036012664
 12
149.9206168074
 22
31.2713369632
 13
149.9206168074
 23
31.2713369632
  0
SOLID
  8
0
 62
7
  6
CONTINUOUS
 10
154.4299918074
 20
31.2390741763
 11
154.7768668074
 21
31.271336924
 12
155.412804528
 22
31.271336924
 13
155.412804528
 23
31.271336924
  0
SOLID
  8
0
 62
7
  6
CONTINUOUS
 10
154.4299918074
 20
31.2390741763
 11
155.412804528
 21
31.271336924
 12
154.1987416972
 22
31.1745462761
 13
154.1987416972
 23
31.1745462761
  0
SOLID
  8
0
 62
7
  6
CONTINUOUS
 10
154.1987416972
 20
31.1745462761
 11
155.412804528
 21
31.271336924
 12
154.7768668074
 22
31.1422827436
 13
154.7768668074
 23
31.1422827436
  0
SOLID
  8
0
 62
7
  6
CONTINUOUS
 10
155.412804528
 20
31.271336924
 11
155.412804528
 21
31.1422827436
 12
154.7768668074
 22
31.1422827436
 13
154.7768668074
 23
31.1422827436
  0
SOLID
  8
0
 62
7
  6
CONTINUOUS
 10
159.228429528
 20
31.2390745501
 11
159.401867028
 21
31.3681283566
 12
159.4596793074
 22
31.3036012664
 13
159.4596793074
 23
31.3036012664
  0
SOLID
  8
0
 62
7
  6
CONTINUOUS
 10
159.4596793074
 20
31.3036012664
 11
159.6331168074
 21
31.2390745501
 12
159.228429528
 22
31.2390745501
 13
159.228429528
 23
31.2390745501
  0
SOLID
  8
0
 62
7
  6
CONTINUOUS
 10
159.4596793074
 20
31.1422827828
 11
159.228429528
 21
31.2390745501
 12
159.6331168074
 22
31.2390745501
 13
159.6331168074
 23
31.2390745501
  0
SOLID
  8
0
 62
7
  6
CONTINUOUS
 10
159.6331168074
 20
31.2390745501
 11
160.615929528
 21
31.0777556927
 12
159.4596793074
 22
31.1422827828
 13
159.4596793074
 23
31.1422827828
  0
SOLID
  8
0
 62
7
  6
CONTINUOUS
 10
160.442492028
 20
30.9809646623
 11
159.4596793074
 21
31.1422827828
 12
160.615929528
 22
31.0777556927
 13
160.615929528
 23
31.0777556927
  0
SOLID
  8
0
 62
7
  6
CONTINUOUS
 10
160.615929528
 20
31.0777556927
 11
160.8471793074
 21
30.9809646623
 12
160.442492028
 22
30.9809646623
 13
160.442492028
 23
30.9809646623
  0
SOLID
  8
0
 62
7
  6
CONTINUOUS
 10
160.615929528
 20
30.9164372091
 11
160.442492028
 21
30.9809646623
 12
160.8471793074
 22
30.9809646623
 13
160.8471793074
 23
30.9809646623
  0
SOLID
  8
0
 62
7
  6
CONTINUOUS
 10
160.615929528
 20
30.9164372091
 11
160.8471793074
 21
30.9809646623
 12
160.6737418074
 22
30.8519089441
 13
160.6737418074
 23
30.8519089441
  0
SOLID
  8
0
 62
7
  6
CONTINUOUS
 10
160.8471793074
 20
30.9809646623
 11
160.9628038663
 21
30.8519089441
 12
160.6737418074
 22
30.8519089441
 13
160.6737418074
 23
30.8519089441
  0
SOLID
  8
0
 62
7
  6
CONTINUOUS
 10
160.615929528
 20
30.7873818593
 11
160.6737418074
 21
30.8519089441
 12
160.9628038663
 22
30.8519089441
 13
160.9628038663
 23
30.8519089441
  0
SOLID
  8
0
 62
7
  6
CONTINUOUS
 10
160.9628038663
 20
30.8519089441
 11
160.9628038663
 21
30.7873818593
 12
160.615929528
 22
30.7873818593
 13
160.615929528
 23
30.7873818593
  0
SOLID
  8
0
 62
7
  6
CONTINUOUS
 10
160.5003043074
 20
30.7551187255
 11
160.615929528
 21
30.7873818593
 12
160.9628038663
 22
30.7873818593
 13
160.9628038663
 23
30.7873818593
  0
SOLID
  8
0
 62
7
  6
CONTINUOUS
 10
160.5003043074
 20
30.7551187255
 11
160.9628038663
 21
30.7873818593
 12
160.269054528
 22
30.7228547745
 13
160.269054528
 23
30.7228547745
  0
SOLID
  8
0
 62
7
  6
CONTINUOUS
 10
160.9628038663
 20
30.7873818593
 11
160.8471793074
 21
30.6905916353
 12
160.269054528
 22
30.7228547745
 13
160.269054528
 23
30.7228547745
  0
SOLID
  8
0
 62
7
  6
CONTINUOUS
 10
160.8471793074
 20
30.6905916353
 11
159.401867028
 21
30.658327332
 12
160.269054528
 22
30.7228547745
 13
160.269054528
 23
30.7228547745
  0
SOLID
  8
0
 62
7
  6
CONTINUOUS
 10
160.269054528
 20
30.7228547745
 11
159.401867028
 21
30.658327332
 12
159.922179528
 22
30.7228547745
 13
159.922179528
 23
30.7228547745
  0
SOLID
  8
0
 62
7
  6
CONTINUOUS
 10
159.401867028
 20
30.658327332
 11
159.228429528
 21
30.7228547745
 12
159.922179528
 22
30.7228547745
 13
159.922179528
 23
30.7228547745
  0
SOLID
  8
0
 62
7
  6
CONTINUOUS
 10
159.401867028
 20
30.658327332
 11
160.8471793074
 21
30.6905916353
 12
159.575304528
 22
30.6260629858
 13
159.575304528
 23
30.6260629858
  0
SOLID
  8
0
 62
7
  6
CONTINUOUS
 10
160.8471793074
 20
30.6905916353
 11
160.615929528
 21
30.6260629858
 12
159.575304528
 22
30.6260629858
 13
159.575304528
 23
30.6260629858
  0
SOLID
  8
0
 62
7
  6
CONTINUOUS
 10
159.922179528
 20
30.5938006049
 11
159.575304528
 21
30.6260629858
 12
160.615929528
 22
30.6260629858
 13
160.615929528
 23
30.6260629858
  0
SOLID
  8
0
 62
7
  6
CONTINUOUS
 10
160.615929528
 20
30.6260629858
 11
160.269054528
 21
30.5938006049
 12
159.922179528
 22
30.5938006049
 13
159.922179528
 23
30.5938006049
  0
SOLID
  8
0
 62
7
  6
CONTINUOUS
 10
149.5737418074
 20
31.1100184796
 11
149.9206168074
 21
31.2713369632
 12
149.8628043005
 22
31.1422827828
 13
149.8628043005
 23
31.1422827828
  0
SOLID
  8
0
 62
7
  6
CONTINUOUS
 10
149.8628043005
 20
31.1422827828
 11
149.8628043005
 21
31.0454914852
 12
149.5737418074
 22
31.1100184796
 13
149.5737418074
 23
31.1100184796
  0
SOLID
  8
0
 62
7
  6
CONTINUOUS
 10
149.6315543091
 20
30.9164372091
 11
149.5737418074
 21
31.1100184796
 12
149.8628043005
 22
31.0454914852
 13
149.8628043005
 23
31.0454914852
  0
SOLID
  8
0
 62
7
  6
CONTINUOUS
 10
149.8628043005
 20
31.0454914852
 11
149.9784292936
 21
30.8841729058
 12
149.6315543091
 22
30.9164372091
 13
149.6315543091
 23
30.9164372091
  0
SOLID
  8
0
 62
7
  6
CONTINUOUS
 10
149.7471793074
 20
30.7873813202
 11
149.6315543091
 21
30.9164372091
 12
149.9784292936
 22
30.8841729058
 13
149.9784292936
 23
30.8841729058
  0
SOLID
  8
0
 62
7
  6
CONTINUOUS
 10
149.9784292936
 20
30.8841729058
 11
150.1518667936
 21
30.7873813202
 12
149.7471793074
 22
30.7873813202
 13
149.7471793074
 23
30.7873813202
  0
SOLID
  8
0
 62
7
  6
CONTINUOUS
 10
149.8628043005
 20
30.7228547004
 11
149.7471793074
 21
30.7873813202
 12
150.1518667936
 22
30.7873813202
 13
150.1518667936
 23
30.7873813202
  0
SOLID
  8
0
 62
7
  6
CONTINUOUS
 10
150.1518667936
 20
30.7873813202
 11
150.498741835
 21
30.7228547004
 12
149.8628043005
 22
30.7228547004
 13
149.8628043005
 23
30.7228547004
  0
SOLID
  8
0
 62
7
  6
CONTINUOUS
 10
150.0362418212
 20
30.658327332
 11
149.8628043005
 21
30.7228547004
 12
150.498741835
 22
30.7228547004
 13
150.498741835
 23
30.7228547004
  0
SOLID
  8
0
 62
7
  6
CONTINUOUS
 10
154.0831168074
 20
31.1100184386
 11
154.1987416972
 21
31.1745462761
 12
154.7768668074
 22
31.1422827828
 13
154.7768668074
 23
31.1422827828
  0
SOLID
  8
0
 62
7
  6
CONTINUOUS
 10
154.7768668074
 20
31.1422827828
 11
154.5456166972
 21
31.1100184386
 12
154.0831168074
 22
31.1100184386
 13
154.0831168074
 23
31.1100184386
  0
SOLID
  8
0
 62
7
  6
CONTINUOUS
 10
153.9674919177
 20
30.9809642992
 11
154.0831168074
 21
31.1100184386
 12
154.5456166972
 22
31.1100184386
 13
154.5456166972
 23
31.1100184386
  0
SOLID
  8
0
 62
7
  6
CONTINUOUS
 10
154.3143669177
 20
31.0132277988
 11
153.9674919177
 21
30.9809642992
 12
154.4299918074
 22
31.0777556927
 13
154.4299918074
 23
31.0777556927
  0
SOLID
  8
0
 62
7
  6
CONTINUOUS
 10
153.9674919177
 20
30.9809642992
 11
154.5456166972
 21
31.1100184796
 12
154.4299918074
 22
31.0777556927
 13
154.4299918074
 23
31.0777556927
  0
SOLID
  8
0
 62
7
  6
CONTINUOUS
 10
154.3143669177
 20
31.0132277988
 11
154.2565543074
 21
30.9164372091
 12
153.9674919177
 22
30.9809642992
 13
153.9674919177
 23
30.9809642992
  0
SOLID
  8
0
 62
7
  6
CONTINUOUS
 10
153.9674919177
 20
30.8841729058
 11
153.9674919177
 21
30.9809642992
 12
154.2565543074
 22
30.9164372091
 13
154.2565543074
 23
30.9164372091
  0
SOLID
  8
0
 62
7
  6
CONTINUOUS
 10
154.2565543074
 20
30.9164372091
 11
154.2565543074
 21
30.8519086025
 12
153.9674919177
 22
30.8841729058
 13
153.9674919177
 23
30.8841729058
  0
SOLID
  8
0
 62
7
  6
CONTINUOUS
 10
154.0253041972
 20
30.7551187255
 11
153.9674919177
 21
30.8841729058
 12
154.2565543074
 22
30.8519086025
 13
154.2565543074
 23
30.8519086025
  0
SOLID
  8
0
 62
7
  6
CONTINUOUS
 10
155.412804528
 20
30.9487004259
 11
155.7018665869
 21
30.8519086025
 12
155.3549915869
 22
30.8841729058
 13
155.3549915869
 23
30.8841729058
  0
SOLID
  8
0
 62
7
  6
CONTINUOUS
 10
155.1815540869
 20
30.7873815123
 11
155.3549915869
 21
30.8841729058
 12
155.7018665869
 22
30.8519086025
 13
155.7018665869
 23
30.8519086025
  0
SOLID
  8
0
 62
7
  6
CONTINUOUS
 10
155.1815540869
 20
30.7873815123
 11
155.7018665869
 21
30.8519086025
 12
155.412804528
 22
30.7551187255
 13
155.412804528
 23
30.7551187255
  0
SOLID
  8
0
 62
7
  6
CONTINUOUS
 10
155.7018665869
 20
30.8519086025
 11
155.759679528
 21
30.6905916353
 12
155.412804528
 22
30.7551187255
 13
155.412804528
 23
30.7551187255
  0
SOLID
  8
0
 62
7
  6
CONTINUOUS
 10
155.4706168074
 20
30.658327332
 11
155.412804528
 21
30.7551187255
 12
155.759679528
 22
30.6905916353
 13
155.759679528
 23
30.6905916353
  0
SOLID
  8
0
 62
7
  6
CONTINUOUS
 10
155.4706168074
 20
30.658327332
 11
155.759679528
 21
30.6905916353
 12
155.5284290869
 22
30.5938002079
 13
155.5284290869
 23
30.5938002079
  0
SOLID
  8
0
 62
7
  6
CONTINUOUS
 10
155.759679528
 20
30.6905916353
 11
155.8174918074
 21
30.5938002079
 12
155.5284290869
 22
30.5938002079
 13
155.5284290869
 23
30.5938002079
  0
SOLID
  8
0
 62
7
  6
CONTINUOUS
 10
151.0768668626
 20
30.8196456577
 11
151.1346793074
 21
30.9164373395
 12
151.4237418626
 22
30.9164373395
 13
151.4237418626
 23
30.9164373395
  0
SOLID
  8
0
 62
7
  6
CONTINUOUS
 10
151.4237418626
 20
30.9164373395
 11
151.3659292523
 21
30.7873815123
 12
151.0768668626
 22
30.8196456577
 13
151.0768668626
 23
30.8196456577
  0
SOLID
  8
0
 62
7
  6
CONTINUOUS
 10
150.9034292799
 20
30.7551187255
 11
151.0768668626
 21
30.8196456577
 12
151.3659292523
 22
30.7873815123
 13
151.3659292523
 23
30.7873815123
  0
SOLID
  8
0
 62
7
  6
CONTINUOUS
 10
150.9034292799
 20
30.7551187255
 11
151.3659292523
 21
30.7873815123
 12
150.498741835
 22
30.7228544222
 13
150.498741835
 23
30.7228544222
  0
SOLID
  8
0
 62
7
  6
CONTINUOUS
 10
151.3659292523
 20
30.7873815123
 11
151.1924917523
 21
30.6905916353
 12
150.498741835
 22
30.7228544222
 13
150.498741835
 23
30.7228544222
  0
SOLID
  8
0
 62
7
  6
CONTINUOUS
 10
150.0362418212
 20
30.658327332
 11
150.498741835
 21
30.7228544222
 12
151.1924917523
 22
30.6905916353
 13
151.1924917523
 23
30.6905916353
  0
SOLID
  8
0
 62
7
  6
CONTINUOUS
 10
150.0362418212
 20
30.658327332
 11
151.1924917523
 21
30.6905916353
 12
150.2096793212
 22
30.6260631011
 13
150.2096793212
 23
30.6260631011
  0
SOLID
  8
0
 62
7
  6
CONTINUOUS
 10
151.1924917523
 20
30.6905916353
 11
150.9612418074
 21
30.6260631011
 12
150.2096793212
 22
30.6260631011
 13
150.2096793212
 23
30.6260631011
  0
SOLID
  8
0
 62
7
  6
CONTINUOUS
 10
150.5565542799
 20
30.5938002419
 11
150.2096793212
 21
30.6260631011
 12
150.9612418074
 22
30.6260631011
 13
150.9612418074
 23
30.6260631011
  0
SOLID
  8
0
 62
7
  6
CONTINUOUS
 10
154.0253041972
 20
30.7551187255
 11
154.2565543074
 21
30.8519086025
 12
154.3143669177
 22
30.7873815123
 13
154.3143669177
 23
30.7873815123
  0
SOLID
  8
0
 62
7
  6
CONTINUOUS
 10
154.3143669177
 20
30.7873815123
 11
154.5456166972
 21
30.7228544222
 12
154.0253041972
 22
30.7551187255
 13
154.0253041972
 23
30.7551187255
  0
SOLID
  8
0
 62
7
  6
CONTINUOUS
 10
154.1987416972
 20
30.658327332
 11
154.0253041972
 21
30.7551187255
 12
154.5456166972
 22
30.7228544222
 13
154.5456166972
 23
30.7228544222
  0
SOLID
  8
0
 62
7
  6
CONTINUOUS
 10
154.8924916972
 20
30.7228544637
 11
155.1815540869
 21
30.7873815123
 12
155.412804528
 22
30.7551187255
 13
155.412804528
 23
30.7551187255
  0
SOLID
  8
0
 62
7
  6
CONTINUOUS
 10
155.412804528
 20
30.7551187255
 11
155.3549915869
 21
30.6905916353
 12
154.8924916972
 22
30.7228544637
 13
154.8924916972
 23
30.7228544637
  0
SOLID
  8
0
 62
7
  6
CONTINUOUS
 10
155.3549915869
 20
30.6905916353
 11
154.1987416972
 21
30.658327332
 12
154.8924916972
 22
30.7228544637
 13
154.8924916972
 23
30.7228544637
  0
SOLID
  8
0
 62
7
  6
CONTINUOUS
 10
154.1987416972
 20
30.658327332
 11
154.5456166972
 21
30.7228544637
 12
154.8924916972
 22
30.7228544637
 13
154.8924916972
 23
30.7228544637
  0
SOLID
  8
0
 62
7
  6
CONTINUOUS
 10
154.1987416972
 20
30.658327332
 11
155.3549915869
 21
30.6905916353
 12
154.3143669177
 22
30.6260630541
 13
154.3143669177
 23
30.6260630541
  0
SOLID
  8
0
 62
7
  6
CONTINUOUS
 10
155.3549915869
 20
30.6905916353
 11
155.1815540869
 21
30.6260630541
 12
154.3143669177
 22
30.6260630541
 13
154.3143669177
 23
30.6260630541
  0
SOLID
  8
0
 62
7
  6
CONTINUOUS
 10
154.5456166972
 20
30.5938002188
 11
154.3143669177
 21
30.6260630541
 12
155.1815540869
 22
30.6260630541
 13
155.1815540869
 23
30.6260630541
  0
SOLID
  8
0
 62
7
  6
CONTINUOUS
 10
155.1815540869
 20
30.6260630541
 11
154.8924916972
 21
30.5938002188
 12
154.5456166972
 22
30.5938002188
 13
154.5456166972
 23
30.5938002188
  0
SOLID
  8
0
 62
7
  6
CONTINUOUS
 10
159.575304528
 20
30.7551187255
 11
159.228429528
 21
30.7228544637
 12
159.4596793074
 22
30.7873815123
 13
159.4596793074
 23
30.7873815123
  0
SOLID
  8
0
 62
7
  6
CONTINUOUS
 10
159.4596793074
 20
30.7873815123
 11
159.228429528
 21
30.7228544637
 12
159.401867028
 22
30.851908644
 13
159.401867028
 23
30.851908644
  0
SOLID
  8
0
 62
7
  6
CONTINUOUS
 10
159.228429528
 20
30.7228544637
 11
159.1128043074
 21
30.851908644
 12
159.401867028
 22
30.851908644
 13
159.401867028
 23
30.851908644
  0
SOLID
  8
0
 62
7
  6
CONTINUOUS
 10
159.575304528
 20
30.7551187255
 11
159.922179528
 21
30.7228544637
 12
159.228429528
 22
30.7228544637
 13
159.228429528
 23
30.7228544637
  0
SOLID
  8
0
 62
7
  6
CONTINUOUS
 10
156.279992028
 20
30.5938002419
 11
156.279992028
 21
31.6262382337
 12
156.5690540869
 22
30.5938002419
 13
156.5690540869
 23
31.6262382337
  0
ENDBLK
  8
0
  6
BYBLOCK
 62
0
  0
BLOCK
  8
0
 62
2
  6
CONTINUOUS
  2
AMMEAAL_LOGO_BL0
 70
64
 10
32.1213064866
 20
19.8534310916
  0
TEXT
  8
0
 62
7
  6
CONTINUOUS
 10
18.3860103289
 20
19.2268451992
  7
TEXTSTYLE_3
 40
2.7338706658
  1
Ammeraal Beltech
 41
1.0
 51
15.0
 72
0
  0
TEXT
  8
0
 62
7
  6
CONTINUOUS
 10
29.1868111546
 20
16.9533085264
  7
TEXTSTYLE_4
 40
1.0935482663
  1
Innovation & Service in Belting
 41
1.0
 72
0
  0
LINE
  8
0
 62
7
  6
CONTINUOUS
 10
12.3614696776
 20
19.9934385078
 11
13.1396216709
 21
23.6543558055
  0
LINE
  8
0
 62
7
  6
CONTINUOUS
 10
23.2347899607
 20
27.3177497171
 11
13.6274394139
 21
24.1961322958
  0
LINE
  8
0
 62
7
  6
CONTINUOUS
 10
12.5867530099
 20
19.3000877048
 11
20.093828271
 21
12.5406867788
  0
LINE
  8
0
 62
7
  6
CONTINUOUS
 10
12.8492874206
 20
20.5352149982
 11
23.6575567857
 21
24.0470345971
  0
LINE
  8
0
 62
7
  6
CONTINUOUS
 10
23.6533516486
 20
13.6972460334
 11
15.2078919798
 21
21.3015720751
  0
LINE
  8
0
 62
7
  6
CONTINUOUS
 10
24.1731743684
 20
26.4728246013
 11
23.1966148312
 21
21.8784731989
  0
LINE
  8
0
 62
7
  6
CONTINUOUS
 10
22.4968128835
 20
18.5861638851
 11
21.810364672
 21
15.3566789607
  0
LINE
  8
0
 62
7
  6
CONTINUOUS
 10
24.8542704669
 20
14.087448211
 11
25.8105020025
 21
18.5861638851
  0
LINE
  8
0
 62
7
  6
CONTINUOUS
 10
26.5103039502
 20
21.8784731989
 11
26.9545457526
 21
23.9684665583
  0
LINE
  8
0
 62
7
  6
CONTINUOUS
 10
20.8069293463
 20
12.3891124661
 11
24.3664527239
 21
13.5456717207
  0
LINE
  8
0
 62
7
  6
CONTINUOUS
 10
23.9478910361
 20
27.1661754044
 11
26.7292624203
 21
24.6618173613
  0
ARC
  8
0
 62
7
  6
CONTINUOUS
 10
13.8527227462
 20
23.5027814928
 40
0.7290321776
 50
108.0
 51
168.0
  0
ARC
  8
0
 62
7
  6
CONTINUOUS
 10
23.4600732931
 20
26.624398914
 40
0.7290321776
 50
348.0
 51
108.0
  0
ARC
  8
0
 62
7
  6
CONTINUOUS
 10
26.2414446773
 20
24.120040871
 40
0.7290321776
 50
348.0
 51
48.0
  0
ARC
  8
0
 62
7
  6
CONTINUOUS
 10
20.581646014
 20
13.0824632691
 40
0.7290321776
 50
228.0
 51
288.0
  0
ARC
  8
0
 62
7
  6
CONTINUOUS
 10
13.0745707529
 20
19.8418641951
 40
0.7290321776
 50
108.0
 51
228.0
  0
ARC
  8
0
 62
7
  6
CONTINUOUS
 10
24.1411693916
 20
14.2390225237
 40
0.7290321776
 50
228.0
 51
348.0
  0
ENDBLK
  8
0
  6
BYBLOCK
 62
0
  0
ENDSEC
  0
SECTION
  2
ENTITIES
  0
TEXT
  8
0
 62
5
  6
CONTINUOUS
 10
96.0
 20
25.636
  7
TEXTSTYLE_2
 40
2.8
  1
Scale :
 41
0.6
 51
0.000019
 72
0
  0
TEXT
  8
0
 62
5
  6
CONTINUOUS
 10
116.0
 20
25.636
  7
TEXTSTYLE_2
 40
2.8
  1
Belt type:
 41
0.6
 51
0.000019
 72
0
  0
INSERT
  8
0
 62
2
  6
CONTINUOUS
  2
AMMEAAL_LOGO_BL0
 10
32.1213064866
 20
19.8534310916
  0
INSERT
  8
0
 62
2
  6
CONTINUOUS
  2
UNI_LOGO2_BL1
 10
173.5956734183
 20
35.5937998301
  0
LINE
  8
0
 62
2
  6
CONTINUOUS
 10
10.0
 20
30.0
 11
200.0
 21
30.0
  0
LINE
  8
0
 62
2
  6
CONTINUOUS
 10
10.0
 20
30.0
 11
10.0
 21
10.0
  0
LINE
  8
0
 62
2
  6
CONTINUOUS
 10
10.0
 20
10.0
 11
200.0
 21
10.0
  0
LINE
  8
0
 62
2
  6
CONTINUOUS
 10
95.0
 20
30.0
 11
95.0
 21
10.0
  0
LINE
  8
0
 62
2
  6
CONTINUOUS
 10
115.0
 20
30.0
 11
115.0
 21
10.0
  0
LINE
  8
0
 62
2
  6
CONTINUOUS
 10
200.0
 20
30.0
 11
200.0
 21
10.0
  0
TEXT
  8
0
 62
5
  6
CONTINUOUS
 10
13.0
 20
23.303
  7
TEXTSTYLE_5
 40
1.52
  1
                                                                     Ammeraal Beltech Modular A/S
 41
1.0
 72
0
  0
TEXT
  8
0
 62
5
  6
CONTINUOUS
 10
13.0
 20
20.595
  7
TEXTSTYLE_5
 40
1.5
  1
                                                                      Hjulmagervej 21,  7100 Vejle,  DK
 41
1.0
 72
0
  0
TEXT
  8
0
 62
5
  6
CONTINUOUS
 10
13.0
 20
17.881
  7
TEXTSTYLE_5
 40
1.495
  1
                                                                      tel: 
 41
1.0
 72
0
  0
TEXT
  8
0
 62
5
  6
CONTINUOUS
 10
57.9869465649
 20
17.881
  7
TEXTSTYLE_5
 40
1.51
  1
+45 75723100     fax: +45 75723348
 41
1.0
 72
0
  0
TEXT
  8
0
 62
5
  6
CONTINUOUS
 10
13.0
 20
15.177
  7
TEXTSTYLE_5
 40
1.5
  1
                                                                      admin@unichains.dk  www.unichains.com
 41
1.0
 72
0
  0
TEXT
  8
0
 62
5
  6
CONTINUOUS
 10
99.75
 20
13.75
  7
TEXTSTYLE_6
 40
5.0
  1
1:1
 41
0.7
 72
1
 11
105.0
 21
13.75
  0
TEXT
  8
0
 62
5
  6
CONTINUOUS
 10
118.0
 20
13.75
  7
TEXTSTYLE_7
 40
7.5
  1
Sprocket Z15 60X60 SQ
 41
0.431547619
 72
0
  0
LINE
  8
0
 62
7
  6
CONTINUOUS
 10
210.0
 20
0.0
 11
0.0
 21
0.0
  0
LINE
  8
0
 62
7
  6
CONTINUOUS
 10
10.0
 20
10.0
 11
200.0
 21
10.0
  0
LINE
  8
0
 62
7
  6
CONTINUOUS
 10
10.0
 20
30.0
 11
200.0
 21
30.0
  0
LINE
  8
0
 62
7
  6
CONTINUOUS
 10
0.0
 20
0.0
 11
0.0
 21
297.0
  0
LINE
  8
0
 62
7
  6
CONTINUOUS
 10
10.0
 20
10.0
 11
10.0
 21
287.0
  0
LINE
  8
0
 62
7
  6
CONTINUOUS
 10
200.0
 20
287.0
 11
200.0
 21
10.0
  0
LINE
  8
0
 62
7
  6
CONTINUOUS
 10
210.0
 20
0.0
 11
210.0
 21
297.0
  0
LINE
  8
0
 62
7
  6
CONTINUOUS
 10
10.0
 20
287.0
 11
200.0
 21
287.0
  0
LINE
  8
0
 62
7
  6
CONTINUOUS
 10
0.0
 20
297.0
 11
210.0
 21
297.0
  0
LINE
  8
0
 62
7
  6
CONTINUOUS
 10
40.4466376396
 20
205.217251389
 11
41.1191680315
 21
198.818552134
  0
LINE
  8
0
 62
7
  6
CONTINUOUS
 10
44.4138189832
 20
230.1650620374
 11
42.4256206128
 21
224.0460166441
  0
LINE
  8
0
 62
7
  6
CONTINUOUS
 10
58.1852082344
 20
251.3424231111
 11
53.8800586622
 21
246.561070118
  0
LINE
  8
0
 62
7
  6
CONTINUOUS
 10
79.3796070826
 20
265.0875764904
 11
73.5019057807
 21
262.4706552671
  0
LINE
  8
0
 62
7
  6
CONTINUOUS
 10
116.8749265039
 20
149.6888491865
 11
110.5815785613
 21
148.3511567864
  0
LINE
  8
0
 62
7
  6
CONTINUOUS
 10
91.6490992033
 20
148.3511567864
 11
85.3557512607
 21
149.6888491865
  0
LINE
  8
0
 62
7
  6
CONTINUOUS
 10
68.0600707413
 20
157.3893822856
 11
62.8548998312
 21
161.1711603173
  0
LINE
  8
0
 62
7
  6
CONTINUOUS
 10
46.9696258988
 20
180.812694271
 11
50.1865984385
 21
175.2407343857
  0
LINE
  8
QUILTS
 62
7
  6
CONTINUOUS
 10
53.2992848332
 20
211.6101543713
 11
53.2797825226
 21
211.0896861931
  0
LINE
  8
QUILTS
 62
7
  6
CONTINUOUS
 10
53.2017732987
 20
209.0078139645
 11
53.1822709923
 21
208.487345898
  0
LINE
  8
QUILTS
 62
7
  6
CONTINUOUS
 10
55.3162408973
 20
225.0988161995
 11
55.3666665951
 21
225.5258821949
  0
LINE
  8
QUILTS
 62
7
  6
CONTINUOUS
 10
53.6458121771
 20
214.8116394669
 11
53.5932837593
 21
214.3982969431
  0
LINE
  8
QUILTS
 62
7
  6
CONTINUOUS
 10
53.4750948755
 20
213.4682767079
 11
53.409434372
 21
212.951598701
  0
LINE
  8
QUILTS
 62
7
  6
CONTINUOUS
 10
54.7709910678
 20
225.7552176324
 11
54.6831388107
 21
225.230939947
  0
LINE
  8
QUILTS
 62
7
  6
CONTINUOUS
 10
52.4962770839
 20
217.659883734
 11
52.4011092427
 21
217.1478190543
  0
LINE
  8
QUILTS
 62
7
  6
CONTINUOUS
 10
52.9240690527
 20
217.0506263399
 11
53.0192368939
 21
217.5626910196
  0
LINE
  8
QUILTS
 62
7
  6
CONTINUOUS
 10
54.0651568069
 20
217.3683055363
 11
53.9699889656
 21
216.8562408567
  0
LINE
  8
QUILTS
 62
7
  6
CONTINUOUS
 10
55.0704014008
 20
226.5329055899
 11
54.7709910678
 21
225.7552176324
  0
LINE
  8
QUILTS
 62
7
  6
CONTINUOUS
 10
55.3666665951
 20
225.5258821949
 11
55.666076928
 21
226.3035701524
  0
LINE
  8
QUILTS
 62
7
  6
CONTINUOUS
 10
58.6948806794
 20
225.5839587998
 11
58.4703230368
 21
225.0006931098
  0
LINE
  8
QUILTS
 62
7
  6
CONTINUOUS
 10
54.0154205533
 20
214.3446509313
 11
54.1734831696
 21
214.7445819522
  0
LINE
  8
QUILTS
 62
7
  6
CONTINUOUS
 10
53.7907426702
 20
215.108234709
 11
53.6458121771
 21
214.8116394669
  0
LINE
  8
QUILTS
 62
7
  6
CONTINUOUS
 10
58.1678919303
 20
233.0594420049
 11
57.8793526161
 21
232.5050323512
  0
LINE
  8
QUILTS
 62
7
  6
CONTINUOUS
 10
56.6771051065
 20
230.1949914224
 11
56.2442966854
 21
229.3633779993
  0
LINE
  8
QUILTS
 62
7
  6
CONTINUOUS
 10
55.3568117386
 20
226.980737017
 11
55.0704014008
 21
226.5329055899
  0
LINE
  8
QUILTS
 62
7
  6
CONTINUOUS
 10
60.2666188498
 20
236.3226494636
 11
58.8783822223
 21
234.2435152529
  0
LINE
  8
QUILTS
 62
7
  6
CONTINUOUS
 10
59.7562840931
 20
234.4088554536
 11
60.8553051978
 21
236.0548373647
  0
LINE
  8
QUILTS
 62
7
  6
CONTINUOUS
 10
62.0939384448
 20
235.2278027112
 11
60.9949173401
 21
233.5818208001
  0
LINE
  8
QUILTS
 62
7
  6
CONTINUOUS
 10
61.525760054
 20
233.2273774481
 11
62.6247811588
 21
234.8733593592
  0
LINE
  8
QUILTS
 62
7
  6
CONTINUOUS
 10
55.666076928
 20
226.3035701524
 11
55.9150611349
 21
226.654191002
  0
LINE
  8
QUILTS
 62
7
  6
CONTINUOUS
 10
71.2318104805
 20
245.1260353296
 11
71.4940815834
 21
245.4668299754
  0
LINE
  8
QUILTS
 62
7
  6
CONTINUOUS
 10
72.1174871181
 20
245.0093177639
 11
71.6912624649
 21
244.5399864308
  0
LINE
  8
QUILTS
 62
7
  6
CONTINUOUS
 10
71.2315375923
 20
245.8017150604
 11
70.7233352258
 21
245.2681146482
  0
LINE
  8
QUILTS
 62
7
  6
CONTINUOUS
 10
60.6443094821
 20
236.6967298541
 11
60.2666188498
 21
236.3226494636
  0
LINE
  8
QUILTS
 62
7
  6
CONTINUOUS
 10
67.2703513472
 20
244.4851956301
 11
65.4658266556
 21
242.7549671374
  0
LINE
  8
QUILTS
 62
7
  6
CONTINUOUS
 10
66.3587182421
 20
242.726794607
 11
67.7873008633
 21
244.0965593804
  0
LINE
  8
QUILTS
 62
7
  6
CONTINUOUS
 10
68.8180753679
 20
243.0215233069
 11
67.3894927467
 21
241.6517585335
  0
LINE
  8
QUILTS
 62
7
  6
CONTINUOUS
 10
67.8312531603
 20
241.1910288799
 11
69.2598357815
 21
242.5607936534
  0
LINE
  8
QUILTS
 62
7
  6
CONTINUOUS
 10
71.7234019959
 20
246.1873280643
 11
71.2315375923
 21
245.8017150604
  0
LINE
  8
QUILTS
 62
7
  6
CONTINUOUS
 10
71.4940815834
 20
245.4668299754
 11
71.985945987
 21
245.8524429792
  0
LINE
  8
QUILTS
 62
7
  6
CONTINUOUS
 10
70.7729005199
 20
244.3607218247
 11
71.1827872102
 21
244.6820657494
  0
LINE
  8
QUILTS
 62
7
  6
CONTINUOUS
 10
73.0192363356
 20
245.7162732214
 11
72.1174871181
 21
245.0093177639
  0
LINE
  8
QUILTS
 62
7
  6
CONTINUOUS
 10
72.3800312011
 20
244.6744325616
 11
73.2817804186
 21
245.3813880191
  0
LINE
  8
QUILTS
 62
7
  6
CONTINUOUS
 10
60.8553051978
 20
236.0548373647
 11
61.1173085619
 21
236.255655249
  0
LINE
  8
QUILTS
 62
7
  6
CONTINUOUS
 10
73.263089488
 20
249.2806068057
 11
72.8340703712
 21
248.9852906798
  0
LINE
  8
QUILTS
 62
7
  6
CONTINUOUS
 10
74.5210614866
 20
250.1090930451
 11
74.0832557135
 21
249.8269669708
  0
LINE
  8
QUILTS
 62
7
  6
CONTINUOUS
 10
67.7199218742
 20
244.7688727239
 11
67.2703513472
 21
244.4851956301
  0
LINE
  8
QUILTS
 62
7
  6
CONTINUOUS
 10
72.2809005209
 20
246.4892183258
 11
71.7234019959
 21
246.1873280643
  0
LINE
  8
QUILTS
 62
7
  6
CONTINUOUS
 10
67.7873008633
 20
244.0965593804
 11
68.0864931853
 21
244.2360496664
  0
LINE
  8
QUILTS
 62
7
  6
CONTINUOUS
 10
71.985945987
 20
245.8524429792
 11
72.3794890854
 21
246.0257950825
  0
LINE
  8
QUILTS
 62
7
  6
CONTINUOUS
 10
94.6734297158
 20
254.974933931
 11
95.0740784049
 21
255.1311637293
  0
LINE
  8
QUILTS
 62
7
  6
CONTINUOUS
 10
95.0094373499
 20
255.6591361913
 11
94.505395619
 21
255.4902477113
  0
LINE
  8
QUILTS
 62
7
  6
CONTINUOUS
 10
53.5932837593
 20
214.3982969431
 11
53.6462895399
 21
213.9715429163
  0
LINE
  8
QUILTS
 62
7
  6
CONTINUOUS
 10
54.0684263339
 20
213.9178969045
 11
54.0154205533
 21
214.3446509313
  0
LINE
  8
QUILTS
 62
7
  6
CONTINUOUS
 10
54.6831388107
 20
225.230939947
 11
54.7319923675
 21
224.7656513786
  0
LINE
  8
QUILTS
 62
7
  6
CONTINUOUS
 10
56.2213127414
 20
210.0413072064
 11
56.2057108941
 21
209.6249326936
  0
LINE
  8
QUILTS
 62
7
  6
CONTINUOUS
 10
56.6309443749
 20
209.6089988945
 11
56.6465462222
 21
210.0253734073
  0
LINE
  8
QUILTS
 62
7
  6
CONTINUOUS
 10
56.6894512953
 20
211.1704031312
 11
56.7089536058
 21
211.6908713094
  0
LINE
  8
QUILTS
 62
7
  6
CONTINUOUS
 10
59.1538508907
 20
225.2956353309
 11
59.1408513239
 21
224.965779913
  0
LINE
  8
QUILTS
 62
7
  6
CONTINUOUS
 10
59.8243787408
 20
225.260721025
 11
59.8373782989
 21
225.5905764463
  0
LINE
  8
QUILTS
 62
7
  6
CONTINUOUS
 10
62.7064189587
 20
235.5703645879
 11
62.7336311173
 21
235.8026990032
  0
LINE
  8
QUILTS
 62
7
  6
CONTINUOUS
 10
56.7865290196
 20
212.5224305693
 11
56.8521895231
 21
213.0391085762
  0
LINE
  8
QUILTS
 62
7
  6
CONTINUOUS
 10
57.0885672906
 20
214.8991490465
 11
57.1542277566
 21
215.4158267578
  0
LINE
  8
QUILTS
 62
7
  6
CONTINUOUS
 10
59.7365269208
 20
224.7364444487
 11
59.8243787408
 21
225.260721025
  0
LINE
  8
QUILTS
 62
7
  6
CONTINUOUS
 10
57.3169320426
 20
216.2342074301
 11
57.4120998838
 21
216.7462721097
  0
LINE
  8
QUILTS
 62
7
  6
CONTINUOUS
 10
62.1789942376
 20
235.5467683796
 11
62.0939384448
 21
235.2278027112
  0
LINE
  8
QUILTS
 62
7
  6
CONTINUOUS
 10
64.0369439222
 20
234.3062165235
 11
63.9518881295
 21
233.9872508551
  0
LINE
  8
QUILTS
 62
7
  6
CONTINUOUS
 10
56.5090341602
 20
209.196607906
 11
56.6309443749
 21
209.6089988945
  0
LINE
  8
QUILTS
 62
7
  6
CONTINUOUS
 10
69.4900867476
 20
243.2237156033
 11
69.566836496
 21
243.4446890366
  0
LINE
  8
QUILTS
 62
7
  6
CONTINUOUS
 10
59.1408513239
 20
224.965779913
 11
58.841440991
 21
224.1880919555
  0
LINE
  8
QUILTS
 62
7
  6
CONTINUOUS
 10
59.4371165878
 20
223.9587564912
 11
59.7365269208
 21
224.7364444487
  0
LINE
  8
QUILTS
 62
7
  6
CONTINUOUS
 10
60.1107895157
 20
225.7085535612
 11
60.3353471584
 21
226.2918192512
  0
LINE
  8
QUILTS
 62
7
  6
CONTINUOUS
 10
64.4248872712
 20
233.5461762087
 11
64.6256303245
 21
234.0384043883
  0
LINE
  8
QUILTS
 62
7
  6
CONTINUOUS
 10
70.7233352258
 20
245.2681146482
 11
70.6250157969
 21
245.0558552186
  0
LINE
  8
QUILTS
 62
7
  6
CONTINUOUS
 10
71.1334910516
 20
244.9137759
 11
71.2318104805
 21
245.1260353296
  0
LINE
  8
QUILTS
 62
7
  6
CONTINUOUS
 10
71.6912624649
 20
244.5399864308
 11
71.4946254834
 21
244.1154690427
  0
LINE
  8
QUILTS
 62
7
  6
CONTINUOUS
 10
72.0194425456
 20
244.1213799572
 11
72.1177600982
 21
244.3336379157
  0
LINE
  8
QUILTS
 62
7
  6
CONTINUOUS
 10
68.9700142188
 20
243.3145901441
 11
68.8180753679
 21
243.0215233069
  0
LINE
  8
QUILTS
 62
7
  6
CONTINUOUS
 10
70.516175821
 20
241.7020361952
 11
70.3642369701
 21
241.4089693581
  0
LINE
  8
QUILTS
 62
7
  6
CONTINUOUS
 10
60.6795739152
 20
227.0550634853
 11
60.9681132294
 21
227.6094731391
  0
LINE
  8
QUILTS
 62
7
  6
CONTINUOUS
 10
62.1703601887
 20
229.9195130104
 11
62.60316916
 21
230.751127491
  0
LINE
  8
QUILTS
 62
7
  6
CONTINUOUS
 10
56.2057108941
 20
209.6249326936
 11
55.9774922906
 21
209.2165251556
  0
LINE
  8
QUILTS
 62
7
  6
CONTINUOUS
 10
73.6758693394
 20
244.2033806021
 11
73.3972546676
 21
243.7145941055
  0
LINE
  8
QUILTS
 62
7
  6
CONTINUOUS
 10
59.1507058129
 20
223.510923955
 11
59.4371165878
 21
223.9587564912
  0
LINE
  8
QUILTS
 62
7
  6
CONTINUOUS
 10
63.9518881295
 20
233.9872508551
 11
62.8528670247
 21
232.341268944
  0
LINE
  8
QUILTS
 62
7
  6
CONTINUOUS
 10
63.0366506438
 20
231.467041998
 11
64.4248872712
 21
233.5461762087
  0
LINE
  8
QUILTS
 62
7
  6
CONTINUOUS
 10
54.1734831696
 20
214.7445819522
 11
54.3052815394
 21
214.9378414155
  0
LINE
  8
QUILTS
 62
7
  6
CONTINUOUS
 10
70.7308083328
 20
240.8761462468
 11
71.0331253821
 21
241.3133998985
  0
LINE
  8
QUILTS
 62
7
  6
CONTINUOUS
 10
58.841440991
 20
224.1880919555
 11
58.5924567841
 21
223.8374711059
  0
LINE
  8
QUILTS
 62
7
  6
CONTINUOUS
 10
72.1177600982
 20
244.3336379157
 11
72.3800312011
 21
244.6744325616
  0
LINE
  8
QUILTS
 62
7
  6
CONTINUOUS
 10
73.6597986817
 20
243.3797089912
 11
74.0040493684
 21
243.7847741945
  0
LINE
  8
QUILTS
 62
7
  6
CONTINUOUS
 10
54.0412073618
 20
215.3914184482
 11
53.7907426702
 21
215.108234709
  0
LINE
  8
QUILTS
 62
7
  6
CONTINUOUS
 10
70.3642369701
 20
241.4089693581
 11
68.9356543489
 21
240.0392045846
  0
LINE
  8
QUILTS
 62
7
  6
CONTINUOUS
 10
68.9262836411
 20
239.145917754
 11
70.7308083328
 21
240.8761462468
  0
LINE
  8
QUILTS
 62
7
  6
CONTINUOUS
 10
55.7050756284
 20
227.2931364061
 11
55.3568117386
 21
226.980737017
  0
LINE
  8
QUILTS
 62
7
  6
CONTINUOUS
 10
94.505395619
 20
255.4902477113
 11
94.027205577
 21
255.110169667
  0
LINE
  8
QUILTS
 62
7
  6
CONTINUOUS
 10
73.3972546676
 20
243.7145941055
 11
72.9053921403
 21
243.3289825727
  0
LINE
  8
QUILTS
 62
7
  6
CONTINUOUS
 10
73.1679361544
 20
242.9940974583
 11
73.6597986817
 21
243.3797089912
  0
LINE
  8
QUILTS
 62
7
  6
CONTINUOUS
 10
74.5615478992
 20
244.0866644487
 11
74.9714308369
 21
244.4080054315
  0
LINE
  8
QUILTS
 62
7
  6
CONTINUOUS
 10
62.6247811588
 20
234.8733593592
 11
62.8867845228
 21
235.0741772436
  0
LINE
  8
QUILTS
 62
7
  6
CONTINUOUS
 10
55.9150611349
 20
226.654191002
 11
56.2258984653
 21
226.8693787011
  0
LINE
  8
QUILTS
 62
7
  6
CONTINUOUS
 10
75.669096528
 20
244.8667197274
 11
76.0981156448
 21
245.1620358533
  0
LINE
  8
QUILTS
 62
7
  6
CONTINUOUS
 10
76.7916577623
 20
245.6240443754
 11
77.2294635353
 21
245.9061704498
  0
LINE
  8
QUILTS
 62
7
  6
CONTINUOUS
 10
62.9105786886
 20
235.6845512192
 11
62.7064189587
 21
235.5703645879
  0
LINE
  8
QUILTS
 62
7
  6
CONTINUOUS
 10
69.2598357815
 20
242.5607936534
 11
69.5590281035
 21
242.7002839394
  0
LINE
  8
QUILTS
 62
7
  6
CONTINUOUS
 10
72.7743911739
 20
242.8207438914
 11
73.1679361544
 21
242.9940974583
  0
LINE
  8
QUILTS
 62
7
  6
CONTINUOUS
 10
96.3536637912
 20
253.2514572861
 11
95.953010369
 21
253.0952269083
  0
LINE
  8
QUILTS
 62
7
  6
CONTINUOUS
 10
61.1411027277
 20
236.8660292247
 11
60.6443094821
 21
236.6967298541
  0
LINE
  8
QUILTS
 62
7
  6
CONTINUOUS
 10
96.017651433
 20
252.5672543723
 11
96.5216978959
 21
252.7361434411
  0
LINE
  8
QUILTS
 62
7
  6
CONTINUOUS
 10
69.7140899672
 20
243.2911124854
 11
69.4900867476
 21
243.2237156033
  0
LINE
  8
QUILTS
 62
7
  6
CONTINUOUS
 10
53.6462895399
 20
213.9715429163
 11
53.8179616799
 21
213.634713461
  0
LINE
  8
QUILTS
 62
7
  6
CONTINUOUS
 10
55.4025205851
 20
224.7307382086
 11
55.3162408973
 21
225.0988161995
  0
LINE
  8
QUILTS
 62
7
  6
CONTINUOUS
 10
56.130606185
 20
210.461665021
 11
56.2213127414
 21
210.0413072064
  0
LINE
  8
QUILTS
 62
7
  6
CONTINUOUS
 10
56.6465462222
 20
210.0253734073
 11
56.5558396937
 21
210.4457312209
  0
LINE
  8
QUILTS
 62
7
  6
CONTINUOUS
 10
64.6256303245
 20
234.0384043883
 11
64.5915808329
 21
234.5621471264
  0
LINE
  8
QUILTS
 62
7
  6
CONTINUOUS
 10
70.6250157969
 20
245.0558552186
 11
70.5923342421
 21
244.7598759888
  0
LINE
  8
QUILTS
 62
7
  6
CONTINUOUS
 10
71.0331253821
 20
241.3133998985
 11
71.112998124
 21
241.8321350609
  0
LINE
  8
QUILTS
 62
7
  6
CONTINUOUS
 10
74.0040493684
 20
243.7847741945
 11
74.1187086193
 21
244.1450225254
  0
LINE
  8
QUILTS
 62
7
  6
CONTINUOUS
 10
56.284716025
 20
208.8922939214
 11
56.5090341602
 21
209.196607906
  0
LINE
  8
QUILTS
 62
7
  6
CONTINUOUS
 10
94.2986374486
 20
254.6075151478
 11
94.6734297158
 21
254.974933931
  0
LINE
  8
QUILTS
 62
7
  6
CONTINUOUS
 10
58.8024423254
 20
223.1985256884
 11
59.1507058129
 21
223.510923955
  0
LINE
  8
QUILTS
 62
7
  6
CONTINUOUS
 10
96.6379912275
 20
253.5006228953
 11
96.3536637912
 21
253.2514572861
  0
LINE
  8
QUILTS
 62
7
  6
CONTINUOUS
 10
96.5216978959
 20
252.7361434411
 11
96.9998879345
 21
253.1162215131
  0
LINE
  8
QUILTS
 62
7
  6
CONTINUOUS
 10
54.2785399301
 20
215.5712664085
 11
54.0412073618
 21
215.3914184482
  0
LINE
  8
QUILTS
 62
7
  6
CONTINUOUS
 10
58.5924567841
 20
223.8374711059
 11
58.2816193842
 21
223.6222834335
  0
LINE
  8
QUILTS
 62
7
  6
CONTINUOUS
 10
56.2518975989
 20
227.529089537
 11
55.7050756284
 21
227.2931364061
  0
LINE
  8
QUILTS
 62
7
  6
CONTINUOUS
 10
53.8179616799
 20
213.634713461
 11
54.002765868
 21
213.4012191932
  0
LINE
  8
QUILTS
 62
7
  6
CONTINUOUS
 10
55.9296908473
 20
210.7819127672
 11
56.130606185
 21
210.461665021
  0
LINE
  8
QUILTS
 62
7
  6
CONTINUOUS
 10
54.2400984739
 20
213.5810674493
 11
54.0684263339
 21
213.9178969045
  0
LINE
  8
QUILTS
 62
7
  6
CONTINUOUS
 10
56.5558396937
 20
210.4457312209
 11
56.4573322499
 21
210.6579020015
  0
LINE
  8
QUILTS
 62
7
  6
CONTINUOUS
 10
54.7319923675
 20
224.7656513786
 11
54.9794044333
 21
224.2239176645
  0
LINE
  8
QUILTS
 62
7
  6
CONTINUOUS
 10
68.9731372316
 20
243.612351853
 11
68.9700142188
 21
243.3145901441
  0
LINE
  8
QUILTS
 62
7
  6
CONTINUOUS
 10
70.5192987822
 20
241.9997979579
 11
70.516175821
 21
241.7020361952
  0
LINE
  8
QUILTS
 62
7
  6
CONTINUOUS
 10
71.4946254834
 20
244.1154690427
 11
71.4619440206
 21
243.8194896956
  0
LINE
  8
QUILTS
 62
7
  6
CONTINUOUS
 10
71.9867591145
 20
243.8253992564
 11
72.0194425456
 21
244.1213799572
  0
LINE
  8
QUILTS
 62
7
  6
CONTINUOUS
 10
73.7248925637
 20
244.6473502409
 11
73.6758693394
 21
244.2033806021
  0
LINE
  8
QUILTS
 62
7
  6
CONTINUOUS
 10
87.39779915
 20
251.3872472404
 11
89.8183262212
 21
255.8332886017
  0
LINE
  8
QUILTS
 62
7
  6
CONTINUOUS
 10
91.4397705588
 20
256.904264741
 11
90.9723863028
 21
256.0517822515
  0
LINE
  8
QUILTS
 62
7
  6
CONTINUOUS
 10
91.1387404066
 20
255.2171348474
 11
91.6061246043
 21
256.0696176292
  0
LINE
  8
QUILTS
 62
7
  6
CONTINUOUS
 10
89.2592024677
 20
255.895890414
 11
86.7384617445
 21
251.4214309729
  0
LINE
  8
0
 62
7
  6
CONTINUOUS
 10
97.2516355771
 20
246.9217998799
 11
62.5526353162
 21
212.2227996191
  0
LINE
  8
QUILTS
 62
7
  6
CONTINUOUS
 10
55.9540895217
 20
208.5919634423
 11
56.284716025
 21
208.8922939214
  0
LINE
  8
QUILTS
 62
7
  6
CONTINUOUS
 10
54.3052815394
 20
214.9378414155
 11
54.5426141078
 21
215.1176893759
  0
LINE
  8
QUILTS
 62
7
  6
CONTINUOUS
 10
60.3353471584
 20
226.2918192512
 11
59.6518193045
 21
225.9968770301
  0
LINE
  8
QUILTS
 62
7
  6
CONTINUOUS
 10
59.1049972644
 20
225.760923926
 11
58.6948806794
 21
225.5839587998
  0
LINE
  8
QUILTS
 62
7
  6
CONTINUOUS
 10
59.8373782989
 20
225.5905764463
 11
60.1107895157
 21
225.7085535612
  0
LINE
  8
QUILTS
 62
7
  6
CONTINUOUS
 10
58.4703230368
 20
225.0006931098
 11
59.1538508907
 21
225.2956353309
  0
LINE
  8
QUILTS
 62
7
  6
CONTINUOUS
 10
58.2556203201
 20
222.9625725709
 11
58.8024423254
 21
223.1985256884
  0
LINE
  8
0
 62
7
  6
CONTINUOUS
 10
62.5526353162
 20
204.4953930088
 11
97.2516355771
 21
169.7963927479
  0
LINE
  8
QUILTS
 62
7
  6
CONTINUOUS
 10
56.4573322499
 20
210.6579020015
 11
56.1501084899
 21
210.9821330503
  0
LINE
  8
QUILTS
 62
7
  6
CONTINUOUS
 10
54.424902662
 20
213.3475731815
 11
54.2400984739
 21
213.5810674493
  0
LINE
  8
QUILTS
 62
7
  6
CONTINUOUS
 10
59.6518193045
 20
225.9968770301
 11
59.5281134857
 21
226.2677444434
  0
LINE
  8
QUILTS
 62
7
  6
CONTINUOUS
 10
62.1177326106
 20
235.8381766869
 11
62.1789942376
 21
235.5467683796
  0
LINE
  8
QUILTS
 62
7
  6
CONTINUOUS
 10
63.9756822333
 20
234.5976248721
 11
64.0369439222
 21
234.3062165235
  0
LINE
  8
QUILTS
 62
7
  6
CONTINUOUS
 10
96.805992669
 20
253.8427238096
 11
96.6379912275
 21
253.5006228953
  0
LINE
  8
QUILTS
 62
7
  6
CONTINUOUS
 10
96.9998879345
 20
253.1162215131
 11
97.2583589443
 21
253.576576144
  0
LINE
  8
QUILTS
 62
7
  6
CONTINUOUS
 10
55.9774922906
 20
209.2165251556
 11
55.6507662098
 21
209.0202882503
  0
LINE
  8
QUILTS
 62
7
  6
CONTINUOUS
 10
55.6185666111
 20
211.0020503002
 11
55.9296908473
 21
210.7819127672
  0
LINE
  8
QUILTS
 62
7
  6
CONTINUOUS
 10
54.9794044333
 20
224.2239176645
 11
55.3016687612
 21
223.8766051053
  0
LINE
  8
QUILTS
 62
7
  6
CONTINUOUS
 10
55.6255059365
 20
224.4216481153
 11
55.4025205851
 21
224.7307382086
  0
LINE
  8
QUILTS
 62
7
  6
CONTINUOUS
 10
58.8820121911
 20
226.0700139122
 11
59.1049972644
 21
225.760923926
  0
LINE
  8
QUILTS
 62
7
  6
CONTINUOUS
 10
62.7336311173
 20
235.8026990032
 11
62.5532655531
 21
236.2988863475
  0
LINE
  8
QUILTS
 62
7
  6
CONTINUOUS
 10
64.5915808329
 20
234.5621471264
 11
64.4112152378
 21
235.0583344914
  0
LINE
  8
QUILTS
 62
7
  6
CONTINUOUS
 10
70.5923342421
 20
244.7598759888
 11
70.6416285244
 21
244.5281643672
  0
LINE
  8
QUILTS
 62
7
  6
CONTINUOUS
 10
69.566836496
 20
243.4446890366
 11
69.4978951401
 21
243.9681207006
  0
LINE
  8
QUILTS
 62
7
  6
CONTINUOUS
 10
71.112998124
 20
241.8321350609
 11
71.0440567423
 21
242.3555667517
  0
LINE
  8
0
 62
7
  6
CONTINUOUS
 10
84.8338481622
 20
152.760222709
 11
84.8506354801
 21
152.5458972765
  0
LINE
  8
0
 62
7
  6
CONTINUOUS
 10
96.8102748546
 20
266.3342650266
 11
96.7492936168
 21
266.1281133987
  0
LINE
  8
0
 62
7
  6
CONTINUOUS
 10
63.6273577825
 20
164.1892767619
 11
63.5555197535
 21
163.9866527192
  0
LINE
  8
0
 62
7
  6
CONTINUOUS
 10
120.7630926989
 20
263.0730756383
 11
120.623534145
 21
262.909550059
  0
LINE
  8
0
 62
7
  6
CONTINUOUS
 10
48.9028799025
 20
183.2556938855
 11
48.7548379746
 21
183.0998067704
  0
LINE
  8
0
 62
7
  6
CONTINUOUS
 10
141.3186354141
 20
250.3513421639
 11
141.1246304859
 21
250.2587176914
  0
LINE
  8
QUILTS
 62
7
  6
CONTINUOUS
 10
56.7089536058
 20
211.6908713094
 11
56.4924363966
 21
211.5947443946
  0
LINE
  8
QUILTS
 62
7
  6
CONTINUOUS
 10
55.7375723385
 20
208.4958367223
 11
55.9540895217
 21
208.5919634423
  0
LINE
  8
0
 62
7
  6
CONTINUOUS
 10
43.2064105154
 20
206.6627173462
 11
43.0077624827
 21
206.5805214571
  0
LINE
  8
QUILTS
 62
7
  6
CONTINUOUS
 10
56.1501084899
 20
210.9821330503
 11
56.6894512953
 21
211.1704031312
  0
LINE
  8
0
 62
7
  6
CONTINUOUS
 10
53.0599020022
 20
175.6432171447
 11
53.2689251679
 21
175.6934816576
  0
LINE
  8
0
 62
7
  6
CONTINUOUS
 10
158.1115152448
 20
197.9784621209
 11
158.3229118277
 21
198.0175605842
  0
LINE
  8
0
 62
7
  6
CONTINUOUS
 10
43.9077659369
 20
198.0175605842
 11
44.1191625197
 21
197.9784621209
  0
LINE
  8
0
 62
7
  6
CONTINUOUS
 10
148.9617525966
 20
175.6934816576
 11
149.1707757624
 21
175.6432171447
  0
LINE
  8
0
 62
7
  6
CONTINUOUS
 10
44.6473389483
 20
222.1800495013
 11
44.8245565586
 21
222.0583485413
  0
LINE
  8
0
 62
7
  6
CONTINUOUS
 10
131.5389103462
 20
159.0566827261
 11
131.7094180905
 21
158.925746428
  0
LINE
  8
QUILTS
 62
7
  6
CONTINUOUS
 10
59.5281134857
 20
226.2677444434
 11
59.2058490883
 21
226.6150570293
  0
LINE
  8
0
 62
7
  6
CONTINUOUS
 10
55.150742144
 20
243.9527700529
 11
55.263138247
 21
243.7695097978
  0
LINE
  8
0
 62
7
  6
CONTINUOUS
 10
108.8555562002
 20
150.9447190024
 11
108.9580661851
 21
150.7557509944
  0
LINE
  8
QUILTS
 62
7
  6
CONTINUOUS
 10
71.1827872102
 20
244.6820657494
 11
71.1334910516
 21
244.9137759
  0
LINE
  8
QUILTS
 62
7
  6
CONTINUOUS
 10
71.4619440206
 20
243.8194896956
 11
71.560532585
 21
243.3560664523
  0
LINE
  8
QUILTS
 62
7
  6
CONTINUOUS
 10
73.6755964052
 20
244.8790603916
 11
73.7248925637
 21
244.6473502409
  0
LINE
  8
QUILTS
 62
7
  6
CONTINUOUS
 10
74.1187086193
 20
244.1450225254
 11
74.0694124378
 21
244.3767327054
  0
LINE
  8
0
 62
7
  6
CONTINUOUS
 10
73.601841691
 20
259.5710210566
 11
73.6299819793
 21
259.3578888694
  0
LINE
  8
0
 62
7
  6
CONTINUOUS
 10
84.8481975333
 20
151.75399149
 11
84.7650790894
 21
150.5150100165
  0
LINE
  8
0
 62
7
  6
CONTINUOUS
 10
97.1488332804
 20
268.3385607012
 11
96.9725366538
 21
267.1093726493
  0
LINE
  8
QUILTS
 62
7
  6
CONTINUOUS
 10
96.8706058108
 20
254.1721665479
 11
96.805992669
 21
253.8427238096
  0
LINE
  8
QUILTS
 62
7
  6
CONTINUOUS
 10
97.2583589443
 20
253.576576144
 11
97.4005039638
 21
254.1298660431
  0
LINE
  8
0
 62
7
  6
CONTINUOUS
 10
63.231195477
 20
163.2642023874
 11
62.6513238348
 21
162.166143807
  0
LINE
  8
0
 62
7
  6
CONTINUOUS
 10
121.8876017053
 20
264.76638673
 11
121.226590901
 21
263.7151738667
  0
LINE
  8
0
 62
7
  6
CONTINUOUS
 10
48.1647059822
 20
182.5717301189
 11
47.1883462165
 21
181.8044587358
  0
LINE
  8
0
 62
7
  6
CONTINUOUS
 10
143.0346571781
 20
251.4408798018
 11
142.0032269691
 21
250.7494063811
  0
LINE
  8
QUILTS
 62
7
  6
CONTINUOUS
 10
55.6507662098
 20
209.0202882503
 11
55.3279406653
 21
208.9281449704
  0
LINE
  8
0
 62
7
  6
CONTINUOUS
 10
160.3516167528
 20
198.1447584047
 11
159.1107343062
 21
198.0979126876
  0
LINE
  8
0
 62
7
  6
CONTINUOUS
 10
43.1199434583
 20
198.0979126876
 11
41.8790610118
 21
198.1447584047
  0
LINE
  8
0
 62
7
  6
CONTINUOUS
 10
151.0758259461
 20
174.9342695047
 11
149.9231695539
 21
175.3961861735
  0
LINE
  8
0
 62
7
  6
CONTINUOUS
 10
43.9603094464
 20
222.5738910706
 11
42.8457607936
 21
223.1213991235
  0
LINE
  8
QUILTS
 62
7
  6
CONTINUOUS
 10
55.3016687612
 20
223.8766051053
 11
55.7606391811
 21
223.5882815562
  0
LINE
  8
QUILTS
 62
7
  6
CONTINUOUS
 10
55.9851968237
 20
224.1715472462
 11
55.6255059365
 21
224.4216481153
  0
LINE
  8
0
 62
7
  6
CONTINUOUS
 10
133.1614130493
 20
157.5032368151
 11
132.2962874732
 21
158.3940462813
  0
LINE
  8
0
 62
7
  6
CONTINUOUS
 10
53.8877999894
 20
245.5455035752
 11
54.6832992611
 21
244.5920023029
  0
LINE
  8
QUILTS
 62
7
  6
CONTINUOUS
 10
61.9101548878
 20
236.1020296159
 11
62.1177326106
 21
235.8381766869
  0
LINE
  8
QUILTS
 62
7
  6
CONTINUOUS
 10
62.5532655531
 20
236.2988863475
 11
62.3456878303
 21
236.5627392766
  0
LINE
  8
QUILTS
 62
7
  6
CONTINUOUS
 10
63.7681045104
 20
234.8614778012
 11
63.9756822333
 21
234.5976248721
  0
LINE
  8
QUILTS
 62
7
  6
CONTINUOUS
 10
64.4112152378
 20
235.0583344914
 11
64.2036374529
 21
235.3221874619
  0
LINE
  8
QUILTS
 62
7
  6
CONTINUOUS
 10
68.8274461272
 20
243.9148100837
 11
68.9731372316
 21
243.612351853
  0
LINE
  8
QUILTS
 62
7
  6
CONTINUOUS
 10
69.4978951401
 20
243.9681207006
 11
69.3522040357
 21
244.2705789313
  0
LINE
  8
QUILTS
 62
7
  6
CONTINUOUS
 10
70.3736076779
 20
242.3022561886
 11
70.5192987822
 21
241.9997979579
  0
LINE
  8
QUILTS
 62
7
  6
CONTINUOUS
 10
71.0440567423
 20
242.3555667517
 11
70.8983655864
 21
242.6580250362
  0
LINE
  8
0
 62
7
  6
CONTINUOUS
 10
109.2779361111
 20
150.0313174579
 11
109.7059427996
 21
148.8656442439
  0
LINE
  8
QUILTS
 62
7
  6
CONTINUOUS
 10
72.1016912708
 20
243.5099678345
 11
71.9867591145
 21
243.8253992564
  0
LINE
  8
0
 62
7
  6
CONTINUOUS
 10
73.0959097086
 20
261.5397403835
 11
73.4348105481
 21
260.345114924
  0
LINE
  8
QUILTS
 62
7
  6
CONTINUOUS
 10
59.2058490883
 20
226.6150570293
 11
58.7468789465
 21
226.9033804714
  0
LINE
  8
QUILTS
 62
7
  6
CONTINUOUS
 10
58.5223213039
 20
226.3201147814
 11
58.8820121911
 21
226.0700139122
  0
LINE
  8
1_AXIS
 62
2
  6
CONTINUOUS
 10
101.1153388823
 20
209.2390963139
 11
101.1153388823
 21
207.4790963139
  0
LINE
  8
1_AXIS
 62
2
  6
CENTER
 10
101.1153388823
 20
203.9590963139
 11
101.1153388823
 21
145.6090963139
  0
LINE
  8
1_AXIS
 62
2
  6
CENTER
 10
101.1153388823
 20
212.7590963139
 11
101.1153388823
 21
271.1090963139
  0
LINE
  8
QUILTS
 62
7
  6
CONTINUOUS
 10
141.5438913029
 20
236.9859334684
 11
137.353976579
 21
234.2574513618
  0
LINE
  8
QUILTS
 62
7
  6
CONTINUOUS
 10
137.6950368423
 20
233.7337120213
 11
139.5671264264
 21
234.952821065
  0
LINE
  8
QUILTS
 62
7
  6
CONTINUOUS
 10
140.1020090933
 20
235.3011378881
 11
141.4392160105
 21
236.1719301087
  0
LINE
  8
QUILTS
 62
7
  6
CONTINUOUS
 10
144.7776418413
 20
226.8322540976
 11
144.0808796488
 21
226.5694387921
  0
LINE
  8
QUILTS
 62
7
  6
CONTINUOUS
 10
144.7623801053
 20
226.2698481312
 11
144.9614550175
 21
226.3449382185
  0
LINE
  8
QUILTS
 62
7
  6
CONTINUOUS
 10
143.7042319306
 20
225.7593858535
 11
144.0028442989
 21
225.8720209844
  0
LINE
  8
0
 62
7
  6
CONTINUOUS
 10
140.7938668418
 20
212.3582852299
 11
139.6780424483
 21
212.2227996191
  0
LINE
  8
1_AXIS
 62
2
  6
CONTINUOUS
 10
101.9953388823
 20
208.3590963139
 11
100.2353388823
 21
208.3590963139
  0
LINE
  8
1_AXIS
 62
2
  6
CENTER
 10
96.7153388823
 20
208.3590963139
 11
38.3653388823
 21
208.3590963139
  0
LINE
  8
1_AXIS
 62
2
  6
CENTER
 10
105.5153388823
 20
208.3590963139
 11
163.8653388823
 21
208.3590963139
  0
LINE
  8
QUILTS
 62
7
  6
CONTINUOUS
 10
53.1822709923
 20
208.487345898
 11
55.308438359
 21
208.4076769039
  0
LINE
  8
QUILTS
 62
7
  6
CONTINUOUS
 10
55.3279406653
 20
208.9281449704
 11
53.2017732987
 21
209.0078139645
  0
LINE
  8
QUILTS
 62
7
  6
CONTINUOUS
 10
53.409434372
 20
212.951598701
 11
56.7865290196
 21
212.5224305693
  0
LINE
  8
QUILTS
 62
7
  6
CONTINUOUS
 10
56.8521895231
 20
213.0391085762
 11
54.424902662
 21
213.3475731815
  0
LINE
  8
QUILTS
 62
7
  6
CONTINUOUS
 10
54.002765868
 20
213.4012191932
 11
53.4750948755
 21
213.4682767079
  0
LINE
  8
QUILTS
 62
7
  6
CONTINUOUS
 10
52.4011092427
 20
217.1478190543
 11
52.9240690527
 21
217.0506263399
  0
LINE
  8
QUILTS
 62
7
  6
CONTINUOUS
 10
53.9699889656
 20
216.8562408567
 11
57.3169320426
 21
216.2342074301
  0
LINE
  8
QUILTS
 62
7
  6
CONTINUOUS
 10
57.4120998838
 20
216.7462721097
 11
54.0651568069
 21
217.3683055363
  0
LINE
  8
QUILTS
 62
7
  6
CONTINUOUS
 10
53.0192368939
 20
217.5626910196
 11
52.4962770839
 21
217.659883734
  0
LINE
  8
QUILTS
 62
7
  6
CONTINUOUS
 10
55.7606391811
 20
223.5882815562
 11
57.2498281384
 21
223.0149429089
  0
LINE
  8
QUILTS
 62
7
  6
CONTINUOUS
 10
57.474385781
 20
223.5982085989
 11
55.9851968237
 21
224.1715472462
  0
LINE
  8
QUILTS
 62
7
  6
CONTINUOUS
 10
56.2442966854
 20
229.3633779993
 11
60.6795739152
 21
227.0550634853
  0
LINE
  8
QUILTS
 62
7
  6
CONTINUOUS
 10
60.9681132294
 20
227.6094731391
 11
57.099041536
 21
229.6231092396
  0
LINE
  8
QUILTS
 62
7
  6
CONTINUOUS
 10
58.8783822223
 20
234.2435152529
 11
63.0366506438
 21
231.467041998
  0
LINE
  8
QUILTS
 62
7
  6
CONTINUOUS
 10
62.8528670247
 20
232.341268944
 11
61.525760054
 21
233.2273774481
  0
LINE
  8
QUILTS
 62
7
  6
CONTINUOUS
 10
60.9949173401
 20
233.5818208001
 11
59.7562840931
 21
234.4088554536
  0
LINE
  8
QUILTS
 62
7
  6
CONTINUOUS
 10
65.4658266556
 20
242.7549671374
 11
68.9262836411
 21
239.145917754
  0
LINE
  8
QUILTS
 62
7
  6
CONTINUOUS
 10
68.9356543489
 20
240.0392045846
 11
67.8312531603
 21
241.1910288799
  0
LINE
  8
QUILTS
 62
7
  6
CONTINUOUS
 10
67.3894927467
 20
241.6517585335
 11
66.3587182421
 21
242.726794607
  0
LINE
  8
QUILTS
 62
7
  6
CONTINUOUS
 10
70.6416285244
 20
244.5281643672
 11
70.7729005199
 21
244.3607218247
  0
LINE
  8
QUILTS
 62
7
  6
CONTINUOUS
 10
71.560532585
 20
243.3560664523
 11
71.7574405783
 21
243.1049026385
  0
LINE
  8
QUILTS
 62
7
  6
CONTINUOUS
 10
72.2329633123
 20
243.3425252333
 11
72.1016912708
 21
243.5099678345
  0
LINE
  8
QUILTS
 62
7
  6
CONTINUOUS
 10
72.8340703712
 20
248.9852906798
 11
75.669096528
 21
244.8667197274
  0
LINE
  8
QUILTS
 62
7
  6
CONTINUOUS
 10
76.0981156448
 20
245.1620358533
 11
73.263089488
 21
249.2806068057
  0
LINE
  8
QUILTS
 62
7
  6
CONTINUOUS
 10
74.0832557135
 20
249.8269669708
 11
76.7916577623
 21
245.6240443754
  0
LINE
  8
QUILTS
 62
7
  6
CONTINUOUS
 10
77.2294635353
 20
245.9061704498
 11
74.5210614866
 21
250.1090930451
  0
LINE
  8
QUILTS
 62
7
  6
CONTINUOUS
 10
85.6065583893
 20
255.4129803416
 11
85.7516741859
 21
254.9012433073
  0
LINE
  8
QUILTS
 62
7
  6
CONTINUOUS
 10
86.7384617445
 20
251.4214309729
 11
86.9706470393
 21
250.6026516464
  0
LINE
  8
QUILTS
 62
7
  6
CONTINUOUS
 10
90.9723863028
 20
256.0517822515
 11
91.1387404066
 21
255.2171348474
  0
LINE
  8
QUILTS
 62
7
  6
CONTINUOUS
 10
91.6061246043
 20
256.0696176292
 11
92.4171006925
 21
252.0007123747
  0
LINE
  8
QUILTS
 62
7
  6
CONTINUOUS
 10
93.0300447383
 20
252.1228786414
 11
92.0527146046
 21
257.0264310078
  0
LINE
  8
QUILTS
 62
7
  6
CONTINUOUS
 10
93.2387384347
 20
257.2643597361
 11
93.574871957
 21
254.518902638
  0
LINE
  8
QUILTS
 62
7
  6
CONTINUOUS
 10
94.027205577
 20
255.110169667
 11
93.8203541647
 21
256.7996818412
  0
LINE
  8
0
 62
7
  6
CONTINUOUS
 10
105.1145277982
 20
168.6805683544
 11
104.9790421874
 21
169.7963927479
  0
LINE
  8
QUILTS
 62
7
  6
CONTINUOUS
 10
142.3254195088
 20
233.6413633696
 11
142.0579779256
 21
233.4672047954
  0
LINE
  8
QUILTS
 62
7
  6
CONTINUOUS
 10
142.3098910778
 20
232.885412651
 11
142.6664797721
 21
233.1176240291
  0
LINE
  8
QUILTS
 62
7
  6
CONTINUOUS
 10
144.0808796488
 20
226.5694387921
 11
143.4208812984
 21
226.2091566889
  0
LINE
  8
QUILTS
 62
7
  6
CONTINUOUS
 10
144.9219169112
 20
223.4354237428
 11
144.6233045429
 21
223.3227886118
  0
LINE
  8
QUILTS
 62
7
  6
CONTINUOUS
 10
144.707580263
 20
222.7979276891
 11
145.2052676828
 21
222.9856529599
  0
LINE
  8
0
 62
7
  6
CONTINUOUS
 10
61.4368109228
 20
204.359907398
 11
62.5526353162
 21
204.4953930088
  0
LINE
  8
QUILTS
 62
7
  6
CONTINUOUS
 10
53.2797825226
 20
211.0896861931
 11
55.6185666111
 21
211.0020503002
  0
LINE
  8
QUILTS
 62
7
  6
CONTINUOUS
 10
56.0633024396
 20
211.5065846779
 11
53.2992848332
 21
211.6101543713
  0
LINE
  8
QUILTS
 62
7
  6
CONTINUOUS
 10
55.0834172235
 20
215.1539676399
 11
57.0885672906
 21
214.8991490465
  0
LINE
  8
QUILTS
 62
7
  6
CONTINUOUS
 10
57.1542277566
 20
215.4158267578
 11
55.1490776894
 21
215.6706453513
  0
LINE
  8
QUILTS
 62
7
  6
CONTINUOUS
 10
57.0331323466
 20
226.8934534287
 11
58.5223213039
 21
226.3201147814
  0
LINE
  8
QUILTS
 62
7
  6
CONTINUOUS
 10
58.7468789465
 20
226.9033804714
 11
57.2576899893
 21
227.4767191187
  0
LINE
  8
QUILTS
 62
7
  6
CONTINUOUS
 10
57.8793526161
 20
232.5050323512
 11
61.654056654
 21
230.540509354
  0
LINE
  8
QUILTS
 62
7
  6
CONTINUOUS
 10
62.60316916
 20
230.751127491
 11
58.1678919303
 21
233.0594420049
  0
LINE
  8
QUILTS
 62
7
  6
CONTINUOUS
 10
61.7332073165
 20
236.2201773999
 11
61.9101548878
 21
236.1020296159
  0
LINE
  8
QUILTS
 62
7
  6
CONTINUOUS
 10
63.5026831535
 20
235.0386994772
 11
63.7681045104
 21
234.8614778012
  0
LINE
  8
QUILTS
 62
7
  6
CONTINUOUS
 10
64.2036374529
 20
235.3221874619
 11
63.7612685247
 21
235.6175569219
  0
LINE
  8
QUILTS
 62
7
  6
CONTINUOUS
 10
62.3456878303
 20
236.5627392766
 11
61.9917924398
 21
236.7990350101
  0
LINE
  8
QUILTS
 62
7
  6
CONTINUOUS
 10
68.680192656
 20
244.0683866349
 11
68.8274461272
 21
243.9148100837
  0
LINE
  8
QUILTS
 62
7
  6
CONTINUOUS
 10
70.1527274711
 20
242.5326210154
 11
70.3736076779
 21
242.3022561886
  0
LINE
  8
QUILTS
 62
7
  6
CONTINUOUS
 10
70.8983655864
 20
242.6580250362
 11
70.5302319084
 21
243.0419664142
  0
LINE
  8
QUILTS
 62
7
  6
CONTINUOUS
 10
69.3522040357
 20
244.2705789313
 11
69.0576968871
 21
244.5777322488
  0
LINE
  8
QUILTS
 62
7
  6
CONTINUOUS
 10
72.8223283423
 20
245.9674370352
 11
73.0192363356
 21
245.7162732214
  0
LINE
  8
QUILTS
 62
7
  6
CONTINUOUS
 10
73.2817804186
 20
245.3813880191
 11
73.6755964052
 21
244.8790603916
  0
LINE
  8
QUILTS
 62
7
  6
CONTINUOUS
 10
74.2823911347
 20
244.9492404439
 11
73.2322150326
 21
246.2887809599
  0
LINE
  8
QUILTS
 62
7
  6
CONTINUOUS
 10
90.9792527561
 20
251.7393917544
 11
90.8051137799
 21
252.3534762672
  0
LINE
  8
QUILTS
 62
7
  6
CONTINUOUS
 10
89.8183262212
 20
255.8332886017
 11
89.6151641061
 21
256.5497204496
  0
LINE
  8
QUILTS
 62
7
  6
CONTINUOUS
 10
96.8447493888
 20
254.3833555327
 11
96.8706058108
 21
254.1721665479
  0
LINE
  8
QUILTS
 62
7
  6
CONTINUOUS
 10
96.8187997068
 20
257.1667894031
 11
96.7541586518
 21
257.694761865
  0
LINE
  8
QUILTS
 62
7
  6
CONTINUOUS
 10
97.4005039638
 20
254.1298660431
 11
97.3487911198
 21
254.5522440127
  0
LINE
  8
0
 62
7
  6
CONTINUOUS
 10
97.1161499663
 20
248.0376242734
 11
97.2516355771
 21
246.9217998799
  0
LINE
  8
QUILTS
 62
7
  6
CONTINUOUS
 10
145.5111680154
 20
226.997602658
 11
144.7776418413
 21
226.8322540976
  0
LINE
  8
QUILTS
 62
7
  6
CONTINUOUS
 10
55.308438359
 20
208.4076769039
 11
55.7375723385
 21
208.4958367223
  0
LINE
  8
QUILTS
 62
7
  6
CONTINUOUS
 10
56.4924363966
 20
211.5947443946
 11
56.0633024396
 21
211.5065846779
  0
LINE
  8
QUILTS
 62
7
  6
CONTINUOUS
 10
144.9614550175
 20
226.3449382185
 11
145.5954437355
 21
226.4727417353
  0
LINE
  8
QUILTS
 62
7
  6
CONTINUOUS
 10
54.5426141078
 20
215.1176893759
 11
55.0834172235
 21
215.1539676399
  0
LINE
  8
QUILTS
 62
7
  6
CONTINUOUS
 10
55.1490776894
 20
215.6706453513
 11
54.6082746489
 21
215.6343676785
  0
LINE
  8
QUILTS
 62
7
  6
CONTINUOUS
 10
57.9089289302
 20
223.5425288848
 11
57.474385781
 21
223.5982085989
  0
LINE
  8
QUILTS
 62
7
  6
CONTINUOUS
 10
57.2498281384
 20
223.0149429089
 11
57.7836505421
 21
222.9210406218
  0
LINE
  8
QUILTS
 62
7
  6
CONTINUOUS
 10
57.2576899893
 20
227.4767191187
 11
56.7238673074
 21
227.5706215128
  0
LINE
  8
QUILTS
 62
7
  6
CONTINUOUS
 10
71.7574405783
 20
243.1049026385
 11
72.1019623287
 21
242.834286574
  0
LINE
  8
QUILTS
 62
7
  6
CONTINUOUS
 10
74.6925469836
 20
244.5949016664
 11
74.2823911347
 21
244.9492404439
  0
LINE
  8
0
 62
7
  6
CONTINUOUS
 10
117.3824802313
 20
151.75399149
 11
117.4655986752
 21
150.5150100165
  0
LINE
  8
0
 62
7
  6
CONTINUOUS
 10
129.134768056
 20
261.5397403835
 11
128.7958672165
 21
260.345114924
  0
LINE
  8
0
 62
7
  6
CONTINUOUS
 10
92.9527416535
 20
150.0313174579
 11
92.524734965
 21
148.8656442439
  0
LINE
  8
QUILTS
 62
7
  6
CONTINUOUS
 10
142.5360157303
 20
233.9028143351
 11
142.3254195088
 21
233.6413633696
  0
LINE
  8
QUILTS
 62
7
  6
CONTINUOUS
 10
142.6664797721
 20
233.1176240291
 11
142.8770759937
 21
233.3790749946
  0
LINE
  8
0
 62
7
  6
CONTINUOUS
 10
148.3428777751
 20
245.5455035752
 11
147.5473785035
 21
244.5920023029
  0
LINE
  8
0
 62
7
  6
CONTINUOUS
 10
69.9343902914
 20
158.3940462813
 11
69.0692647153
 21
157.5032368151
  0
LINE
  8
QUILTS
 62
7
  6
CONTINUOUS
 10
141.7633800644
 20
226.5889353821
 11
145.4725116338
 21
230.3332819707
  0
LINE
  8
QUILTS
 62
7
  6
CONTINUOUS
 10
142.4322471976
 20
228.0947207296
 11
141.48123388
 21
227.1466257358
  0
LINE
  8
QUILTS
 62
7
  6
CONTINUOUS
 10
144.9047087171
 20
230.5129788695
 11
142.7649254238
 21
228.3797714654
  0
LINE
  8
QUILTS
 62
7
  6
CONTINUOUS
 10
143.4208812984
 20
226.2091566889
 11
142.9967185456
 21
225.8265068774
  0
LINE
  8
QUILTS
 62
7
  6
CONTINUOUS
 10
143.4423835439
 20
225.5492839775
 11
143.7042319306
 21
225.7593858535
  0
LINE
  8
QUILTS
 62
7
  6
CONTINUOUS
 10
145.1837654373
 20
223.6455256713
 11
144.9219169112
 21
223.4354237428
  0
LINE
  8
QUILTS
 62
7
  6
CONTINUOUS
 10
146.9234175737
 20
223.8563884177
 11
147.1852659604
 21
224.0664902936
  0
LINE
  8
0
 62
7
  6
CONTINUOUS
 10
159.384916971
 20
223.1213991235
 11
158.2703683182
 21
222.5738910706
  0
LINE
  8
0
 62
7
  6
CONTINUOUS
 10
52.3075082107
 20
175.3961861735
 11
51.1548518185
 21
174.9342695047
  0
LINE
  8
QUILTS
 62
7
  6
CONTINUOUS
 10
141.9856046323
 20
232.7985467934
 11
142.3098910778
 21
232.885412651
  0
LINE
  8
QUILTS
 62
7
  6
CONTINUOUS
 10
142.0579779256
 20
233.4672047954
 11
141.7336914802
 21
233.3803389378
  0
LINE
  8
0
 62
7
  6
CONTINUOUS
 10
42.2538619572
 20
206.3381277364
 11
41.0498355416
 21
206.0343117431
  0
LINE
  8
QUILTS
 62
7
  6
CONTINUOUS
 10
54.6082746489
 20
215.6343676785
 11
54.2785399301
 21
215.5712664085
  0
LINE
  8
0
 62
7
  6
CONTINUOUS
 10
156.9334816924
 20
230.6661411227
 11
155.7099757323
 21
230.4539691809
  0
LINE
  8
QUILTS
 62
7
  6
CONTINUOUS
 10
140.1645502509
 20
229.7491835563
 11
141.4917613512
 21
229.9536857387
  0
LINE
  8
QUILTS
 62
7
  6
CONTINUOUS
 10
141.9184868705
 20
230.0528425265
 11
144.9047087171
 21
230.5129788695
  0
LINE
  8
QUILTS
 62
7
  6
CONTINUOUS
 10
145.0963181563
 20
231.0768662725
 11
139.8824040664
 21
230.30687391
  0
LINE
  8
QUILTS
 62
7
  6
CONTINUOUS
 10
144.6233045429
 20
223.3227886118
 11
144.2879281932
 21
223.307620226
  0
LINE
  8
QUILTS
 62
7
  6
CONTINUOUS
 10
144.0028442989
 20
225.8720209844
 11
144.338220788
 21
225.8871894229
  0
LINE
  8
QUILTS
 62
7
  6
CONTINUOUS
 10
145.5954437355
 20
226.4727417353
 11
145.9308203641
 21
226.4879102263
  0
LINE
  8
QUILTS
 62
7
  6
CONTINUOUS
 10
144.1363683156
 20
222.8051270116
 11
144.707580263
 21
222.7979276891
  0
LINE
  8
QUILTS
 62
7
  6
CONTINUOUS
 10
56.5985891974
 20
226.9491331428
 11
57.0331323466
 21
226.8934534287
  0
LINE
  8
0
 62
7
  6
CONTINUOUS
 10
46.5207020323
 20
230.4539691809
 11
45.2971960721
 21
230.6661411227
  0
LINE
  8
0
 62
7
  6
CONTINUOUS
 10
161.180842223
 20
206.0343117431
 11
159.9768158074
 21
206.3381277364
  0
LINE
  8
QUILTS
 62
7
  6
CONTINUOUS
 10
63.1794180385
 20
235.1292899829
 11
63.5026831535
 21
235.0386994772
  0
LINE
  8
QUILTS
 62
7
  6
CONTINUOUS
 10
63.7612685247
 20
235.6175569219
 11
63.4380034097
 21
235.7081474276
  0
LINE
  8
QUILTS
 62
7
  6
CONTINUOUS
 10
61.4099420775
 20
236.3107679883
 11
61.7332073165
 21
236.2201773999
  0
LINE
  8
QUILTS
 62
7
  6
CONTINUOUS
 10
61.9917924398
 20
236.7990350101
 11
61.6685274487
 21
236.889625433
  0
LINE
  8
QUILTS
 62
7
  6
CONTINUOUS
 10
69.8566580587
 20
242.6908925459
 11
70.1527274711
 21
242.5326210154
  0
LINE
  8
QUILTS
 62
7
  6
CONTINUOUS
 10
70.5302319084
 20
243.0419664142
 11
70.234162496
 21
243.2002379447
  0
LINE
  8
QUILTS
 62
7
  6
CONTINUOUS
 10
68.3841231405
 20
244.2266582729
 11
68.680192656
 21
244.0683866349
  0
LINE
  8
QUILTS
 62
7
  6
CONTINUOUS
 10
69.0576968871
 20
244.5777322488
 11
68.7616275778
 21
244.7360036717
  0
LINE
  8
QUILTS
 62
7
  6
CONTINUOUS
 10
74.0694124378
 20
244.3767327054
 11
74.3482963026
 21
244.1898364558
  0
LINE
  8
QUILTS
 62
7
  6
CONTINUOUS
 10
74.9714308369
 20
244.4080054315
 11
74.6925469836
 21
244.5949016664
  0
LINE
  8
QUILTS
 62
7
  6
CONTINUOUS
 10
73.2322150326
 20
246.2887809599
 11
72.9533274496
 21
246.4756742235
  0
LINE
  8
0
 62
7
  6
CONTINUOUS
 10
59.1960205865
 20
251.4408798018
 11
60.2274507954
 21
250.7494063811
  0
LINE
  8
0
 62
7
  6
CONTINUOUS
 10
155.042331548
 20
181.8044587358
 11
154.0659717824
 21
182.5717301189
  0
LINE
  8
0
 62
7
  6
CONTINUOUS
 10
80.3430760593
 20
264.76638673
 11
81.0040868636
 21
263.7151738667
  0
LINE
  8
0
 62
7
  6
CONTINUOUS
 10
138.9994822875
 20
163.2642023874
 11
139.5793539298
 21
162.166143807
  0
LINE
  8
QUILTS
 62
7
  6
CONTINUOUS
 10
96.7025669629
 20
254.6874798967
 11
96.8447493888
 21
254.3833555327
  0
LINE
  8
0
 62
7
  6
CONTINUOUS
 10
105.0818444842
 20
268.3385607012
 11
105.2581411108
 21
267.1093726493
  0
LINE
  8
0
 62
7
  6
CONTINUOUS
 10
117.3800422844
 20
152.5458972765
 11
117.3968296024
 21
152.760222709
  0
LINE
  8
0
 62
7
  6
CONTINUOUS
 10
128.6006957852
 20
259.3578888694
 11
128.6288360736
 21
259.5710210566
  0
LINE
  8
0
 62
7
  6
CONTINUOUS
 10
93.2726115794
 20
150.7557509944
 11
93.3751215644
 21
150.9447190024
  0
LINE
  8
0
 62
7
  6
CONTINUOUS
 10
146.9675395176
 20
243.7695097978
 11
147.0799356205
 21
243.9527700529
  0
LINE
  8
QUILTS
 62
7
  6
CONTINUOUS
 10
145.2052676828
 20
222.9856529599
 11
145.6294303659
 21
223.3683027451
  0
LINE
  8
0
 62
7
  6
CONTINUOUS
 10
70.521259674
 20
158.925746428
 11
70.6917674184
 21
159.0566827261
  0
LINE
  8
0
 62
7
  6
CONTINUOUS
 10
157.4061212059
 20
222.0583485413
 11
157.5833388162
 21
222.1800495013
  0
LINE
  8
QUILTS
 62
7
  6
CONTINUOUS
 10
57.7836505421
 20
222.9210406218
 11
58.2556203201
 21
222.9625725709
  0
LINE
  8
QUILTS
 62
7
  6
CONTINUOUS
 10
56.7238673074
 20
227.5706215128
 11
56.2518975989
 21
227.529089537
  0
LINE
  8
QUILTS
 62
7
  6
CONTINUOUS
 10
57.099041536
 20
229.6231092396
 11
62.1703601887
 21
229.9195130104
  0
LINE
  8
0
 62
7
  6
CONTINUOUS
 10
154.9226629234
 20
230.3687678945
 11
154.7077568355
 21
230.3630601416
  0
LINE
  8
QUILTS
 62
7
  6
CONTINUOUS
 10
146.0823801719
 20
226.9904034144
 11
145.5111680154
 21
226.997602658
  0
LINE
  8
0
 62
7
  6
CONTINUOUS
 10
47.5229209291
 20
230.3630601416
 11
47.3080148412
 21
230.3687678945
  0
LINE
  8
0
 62
7
  6
CONTINUOUS
 10
159.2229152818
 20
206.5805214571
 11
159.0242672491
 21
206.6627173462
  0
LINE
  8
0
 62
7
  6
CONTINUOUS
 10
61.1060472787
 20
250.2587176914
 11
60.9120423505
 21
250.3513421639
  0
LINE
  8
QUILTS
 62
7
  6
CONTINUOUS
 10
72.4462111449
 20
243.239350299
 11
72.2329633123
 21
243.3425252333
  0
LINE
  8
QUILTS
 62
7
  6
CONTINUOUS
 10
74.3482963026
 20
244.1898364558
 11
74.5615478992
 21
244.0866644487
  0
LINE
  8
QUILTS
 62
7
  6
CONTINUOUS
 10
72.6090805098
 20
246.0706119696
 11
72.8223283423
 21
245.9674370352
  0
LINE
  8
0
 62
7
  6
CONTINUOUS
 10
153.47583979
 20
183.0998067704
 11
153.3277978621
 21
183.2556938855
  0
LINE
  8
0
 62
7
  6
CONTINUOUS
 10
81.6071436196
 20
262.909550059
 11
81.4675850656
 21
263.0730756383
  0
LINE
  8
QUILTS
 62
7
  6
CONTINUOUS
 10
93.6912258742
 20
253.5685520585
 11
93.9497295438
 21
253.1714919577
  0
LINE
  8
QUILTS
 62
7
  6
CONTINUOUS
 10
94.5700972606
 20
253.2474452064
 11
94.3115935909
 21
253.6445053072
  0
LINE
  8
QUILTS
 62
7
  6
CONTINUOUS
 10
97.3487911198
 20
254.5522440127
 11
97.0773639631
 21
255.0548992593
  0
LINE
  8
0
 62
7
  6
CONTINUOUS
 10
138.675158011
 20
163.9866527192
 11
138.6033199821
 21
164.1892767619
  0
LINE
  8
0
 62
7
  6
CONTINUOUS
 10
105.4813841477
 20
266.1281133987
 11
105.4204029099
 21
266.3342650266
  0
LINE
  8
QUILTS
 62
7
  6
CONTINUOUS
 10
142.9967185456
 20
225.8265068774
 11
142.7088572653
 21
225.3839353776
  0
LINE
  8
QUILTS
 62
7
  6
CONTINUOUS
 10
143.2172957033
 20
225.2417242533
 11
143.4423835439
 21
225.5492839775
  0
LINE
  8
QUILTS
 62
7
  6
CONTINUOUS
 10
146.9646888027
 20
224.6512729178
 11
146.7396010318
 21
224.3437132198
  0
LINE
  8
QUILTS
 62
7
  6
CONTINUOUS
 10
58.2816193842
 20
223.6222834335
 11
57.9089289302
 21
223.5425288848
  0
LINE
  8
QUILTS
 62
7
  6
CONTINUOUS
 10
56.2258984653
 20
226.8693787011
 11
56.5985891974
 21
226.9491331428
  0
LINE
  8
QUILTS
 62
7
  6
CONTINUOUS
 10
61.654056654
 20
230.540509354
 11
56.6771051065
 21
230.1949914224
  0
LINE
  8
QUILTS
 62
7
  6
CONTINUOUS
 10
63.4380034097
 20
235.7081474276
 11
62.9105786886
 21
235.6845512192
  0
LINE
  8
QUILTS
 62
7
  6
CONTINUOUS
 10
141.458486056
 20
232.8282052482
 11
141.9856046323
 21
232.7985467934
  0
LINE
  8
QUILTS
 62
7
  6
CONTINUOUS
 10
70.234162496
 20
243.2002379447
 11
69.7140899672
 21
243.2911124854
  0
LINE
  8
QUILTS
 62
7
  6
CONTINUOUS
 10
144.2879281932
 20
223.307620226
 11
143.9157911579
 21
223.3899096358
  0
LINE
  8
QUILTS
 62
7
  6
CONTINUOUS
 10
145.9308203641
 20
226.4879102263
 11
146.3029573296
 21
226.4056207902
  0
LINE
  8
QUILTS
 62
7
  6
CONTINUOUS
 10
143.6279298776
 20
222.947338136
 11
144.1363683156
 21
222.8051270116
  0
LINE
  8
QUILTS
 62
7
  6
CONTINUOUS
 10
93.9497295438
 20
253.1714919577
 11
94.3116262508
 21
252.7870905755
  0
LINE
  8
QUILTS
 62
7
  6
CONTINUOUS
 10
97.0773639631
 20
255.0548992593
 11
96.7154672607
 21
255.4393006046
  0
LINE
  8
QUILTS
 62
7
  6
CONTINUOUS
 10
96.4569962463
 20
254.9789460106
 11
96.7025669629
 21
254.6874798967
  0
LINE
  8
QUILTS
 62
7
  6
CONTINUOUS
 10
142.6006249329
 20
234.1934970591
 11
142.5360157303
 21
233.9028143351
  0
LINE
  8
QUILTS
 62
7
  6
CONTINUOUS
 10
142.8770759937
 20
233.3790749946
 11
143.0631343066
 21
233.8731558803
  0
LINE
  8
QUILTS
 62
7
  6
CONTINUOUS
 10
145.3093157521
 20
223.9155403256
 11
145.1837654373
 21
223.6455256713
  0
LINE
  8
QUILTS
 62
7
  6
CONTINUOUS
 10
145.6294303659
 20
223.3683027451
 11
145.8177541552
 21
223.7733291881
  0
LINE
  8
QUILTS
 62
7
  6
CONTINUOUS
 10
147.1852659604
 20
224.0664902936
 11
147.4731272058
 21
224.5090617803
  0
LINE
  8
0
 62
7
  6
CONTINUOUS
 10
104.9790421874
 20
169.7963927479
 11
139.6780424483
 21
204.4953930088
  0
LINE
  8
QUILTS
 62
7
  6
CONTINUOUS
 10
62.8867845228
 20
235.0741772436
 11
63.1794180385
 21
235.1292899829
  0
LINE
  8
QUILTS
 62
7
  6
CONTINUOUS
 10
61.1173085619
 20
236.255655249
 11
61.4099420775
 21
236.3107679883
  0
LINE
  8
QUILTS
 62
7
  6
CONTINUOUS
 10
61.6685274487
 20
236.889625433
 11
61.1411027277
 21
236.8660292247
  0
LINE
  8
QUILTS
 62
7
  6
CONTINUOUS
 10
69.5590281035
 20
242.7002839394
 11
69.8566580587
 21
242.6908925459
  0
LINE
  8
QUILTS
 62
7
  6
CONTINUOUS
 10
68.0864931853
 20
244.2360496664
 11
68.3841231405
 21
244.2266582729
  0
LINE
  8
QUILTS
 62
7
  6
CONTINUOUS
 10
72.1019623287
 20
242.834286574
 11
72.5448016201
 21
242.7759284827
  0
LINE
  8
QUILTS
 62
7
  6
CONTINUOUS
 10
72.9533274496
 20
246.4756742235
 11
72.6581037801
 21
246.5145815498
  0
LINE
  8
QUILTS
 62
7
  6
CONTINUOUS
 10
68.7616275778
 20
244.7360036717
 11
68.241555049
 21
244.8268782125
  0
LINE
  8
QUILTS
 62
7
  6
CONTINUOUS
 10
141.7336914802
 20
233.3803389378
 11
141.4417122381
 21
233.4388104463
  0
LINE
  8
QUILTS
 62
7
  6
CONTINUOUS
 10
146.5908185751
 20
226.8481922769
 11
146.0823801719
 21
226.9904034144
  0
LINE
  8
QUILTS
 62
7
  6
CONTINUOUS
 10
144.338220788
 20
225.8871894229
 11
144.6108202975
 21
225.7673549431
  0
LINE
  8
0
 62
7
  6
CONTINUOUS
 10
139.6780424483
 20
212.2227996191
 11
104.9790421874
 21
246.9217998799
  0
LINE
  8
QUILTS
 62
7
  6
CONTINUOUS
 10
143.0631343066
 20
233.8731558803
 11
143.1032003965
 21
234.3964765161
  0
LINE
  8
QUILTS
 62
7
  6
CONTINUOUS
 10
142.7088572653
 20
225.3839353776
 11
142.5940580471
 21
224.7839843577
  0
LINE
  8
QUILTS
 62
7
  6
CONTINUOUS
 10
145.8177541552
 20
223.7733291881
 11
145.9325499816
 21
224.3732891212
  0
LINE
  8
QUILTS
 62
7
  6
CONTINUOUS
 10
143.12850937
 20
224.8742428539
 11
143.2172957033
 21
225.2417242533
  0
LINE
  8
QUILTS
 62
7
  6
CONTINUOUS
 10
145.3981020854
 20
224.283021725
 11
145.3093157521
 21
223.9155403256
  0
LINE
  8
QUILTS
 62
7
  6
CONTINUOUS
 10
147.053475136
 20
225.0187543171
 11
146.9646888027
 21
224.6512729178
  0
LINE
  8
QUILTS
 62
7
  6
CONTINUOUS
 10
72.5448016201
 20
242.7759284827
 11
72.7743911739
 21
242.8207438914
  0
LINE
  8
QUILTS
 62
7
  6
CONTINUOUS
 10
72.9053921403
 20
243.3289825727
 11
72.4462111449
 21
243.239350299
  0
LINE
  8
QUILTS
 62
7
  6
CONTINUOUS
 10
68.241555049
 20
244.8268782125
 11
67.7199218742
 21
244.7688727239
  0
LINE
  8
QUILTS
 62
7
  6
CONTINUOUS
 10
72.6581037801
 20
246.5145815498
 11
72.2809005209
 21
246.4892183258
  0
LINE
  8
QUILTS
 62
7
  6
CONTINUOUS
 10
140.963669479
 20
233.0032090608
 11
141.458486056
 21
232.8282052482
  0
LINE
  8
QUILTS
 62
7
  6
CONTINUOUS
 10
94.3116262508
 20
252.7870905755
 11
94.8673855622
 21
252.5336016377
  0
LINE
  8
QUILTS
 62
7
  6
CONTINUOUS
 10
96.7154672607
 20
255.4393006046
 11
96.1597079527
 21
255.6927895147
  0
LINE
  8
QUILTS
 62
7
  6
CONTINUOUS
 10
94.906137541
 20
253.074232846
 11
94.5700972606
 21
253.2474452064
  0
LINE
  8
QUILTS
 62
7
  6
CONTINUOUS
 10
96.1209559659
 20
255.1521583711
 11
96.4569962463
 21
254.9789460106
  0
LINE
  8
QUILTS
 62
7
  6
CONTINUOUS
 10
143.9157911579
 20
223.3899096358
 11
143.6064276669
 21
223.6072108605
  0
LINE
  8
QUILTS
 62
7
  6
CONTINUOUS
 10
144.6108202975
 20
225.7673549431
 11
144.9201837885
 21
225.5500537183
  0
LINE
  8
QUILTS
 62
7
  6
CONTINUOUS
 10
145.3811070873
 20
225.8352456816
 11
144.7623801053
 21
226.2698481312
  0
LINE
  8
QUILTS
 62
7
  6
CONTINUOUS
 10
146.3029573296
 20
226.4056207902
 11
146.6123208206
 21
226.1883195654
  0
LINE
  8
QUILTS
 62
7
  6
CONTINUOUS
 10
143.1455009414
 20
223.3220277974
 11
143.6279298776
 21
222.947338136
  0
LINE
  8
QUILTS
 62
7
  6
CONTINUOUS
 10
143.1392604928
 20
224.5443064982
 11
143.12850937
 21
224.8742428539
  0
LINE
  8
QUILTS
 62
7
  6
CONTINUOUS
 10
145.3873509626
 20
224.6129580807
 11
145.3981020854
 21
224.283021725
  0
LINE
  8
QUILTS
 62
7
  6
CONTINUOUS
 10
147.0427240132
 20
225.3486906729
 11
147.053475136
 21
225.0187543171
  0
LINE
  8
QUILTS
 62
7
  6
CONTINUOUS
 10
147.4731272058
 20
224.5090617803
 11
147.5879263979
 21
225.1090127903
  0
LINE
  8
QUILTS
 62
7
  6
CONTINUOUS
 10
86.9706470393
 20
250.6026516464
 11
90.9792527561
 21
251.7393917544
  0
LINE
  8
QUILTS
 62
7
  6
CONTINUOUS
 10
90.8051137799
 20
252.3534762672
 11
87.39779915
 21
251.3872472404
  0
LINE
  8
QUILTS
 62
7
  6
CONTINUOUS
 10
92.4171006925
 20
252.0007123747
 11
93.0300447383
 21
252.1228786414
  0
LINE
  8
QUILTS
 62
7
  6
CONTINUOUS
 10
72.3794890854
 20
246.0257950825
 11
72.6090805098
 21
246.0706119696
  0
LINE
  8
QUILTS
 62
7
  6
CONTINUOUS
 10
95.3972837163
 20
252.4913011236
 11
96.017651433
 21
252.5672543723
  0
LINE
  8
QUILTS
 62
7
  6
CONTINUOUS
 10
95.953010369
 20
253.0952269083
 11
95.3326426522
 21
253.0192736596
  0
LINE
  8
QUILTS
 62
7
  6
CONTINUOUS
 10
94.3115935909
 20
253.6445053072
 11
93.6912258742
 21
253.5685520585
  0
LINE
  8
QUILTS
 62
7
  6
CONTINUOUS
 10
93.574871957
 20
254.518902638
 11
94.2986374486
 21
254.6075151478
  0
LINE
  8
QUILTS
 62
7
  6
CONTINUOUS
 10
94.8673855622
 20
252.5336016377
 11
95.3972837163
 21
252.4913011236
  0
LINE
  8
QUILTS
 62
7
  6
CONTINUOUS
 10
96.1597079527
 20
255.6927895147
 11
95.6298050667
 21
255.73508944
  0
LINE
  8
QUILTS
 62
7
  6
CONTINUOUS
 10
95.3326426522
 20
253.0192736596
 11
94.906137541
 21
253.074232846
  0
LINE
  8
QUILTS
 62
7
  6
CONTINUOUS
 10
95.6944461217
 20
255.207116978
 11
96.1209559659
 21
255.1521583711
  0
LINE
  8
QUILTS
 62
7
  6
CONTINUOUS
 10
147.0732441194
 20
226.4735115287
 11
146.5908185751
 21
226.8481922769
  0
LINE
  8
QUILTS
 62
7
  6
CONTINUOUS
 10
141.4417122381
 20
233.4388104463
 11
141.1820349953
 21
233.6426273127
  0
LINE
  8
QUILTS
 62
7
  6
CONTINUOUS
 10
140.5903072164
 20
233.3816030435
 11
140.963669479
 21
233.0032090608
  0
LINE
  8
QUILTS
 62
7
  6
CONTINUOUS
 10
143.6064276669
 20
223.6072108605
 11
143.396601632
 21
223.862057129
  0
LINE
  8
QUILTS
 62
7
  6
CONTINUOUS
 10
144.9201837885
 20
225.5500537183
 11
145.1300098234
 21
225.2952074499
  0
LINE
  8
QUILTS
 62
7
  6
CONTINUOUS
 10
146.6123208206
 20
226.1883195654
 11
146.8221468555
 21
225.933473297
  0
LINE
  8
QUILTS
 62
7
  6
CONTINUOUS
 10
137.353976579
 20
234.2574513618
 11
137.6950368423
 21
233.7337120213
  0
LINE
  8
QUILTS
 62
7
  6
CONTINUOUS
 10
139.5671264264
 20
234.952821065
 11
140.5903072164
 21
233.3816030435
  0
LINE
  8
QUILTS
 62
7
  6
CONTINUOUS
 10
142.8621503004
 20
223.7717986295
 11
143.1455009414
 21
223.3220277974
  0
LINE
  8
QUILTS
 62
7
  6
CONTINUOUS
 10
145.6644610853
 20
225.3854659231
 11
145.3811070873
 21
225.8352456816
  0
LINE
  8
QUILTS
 62
7
  6
CONTINUOUS
 10
139.8824040664
 20
230.30687391
 11
140.1645502509
 21
229.7491835563
  0
LINE
  8
QUILTS
 62
7
  6
CONTINUOUS
 10
141.48123388
 20
227.1466257358
 11
141.7633800644
 21
226.5889353821
  0
LINE
  8
QUILTS
 62
7
  6
CONTINUOUS
 10
141.4917613512
 20
229.9536857387
 11
142.4322471976
 21
228.0947207296
  0
LINE
  8
QUILTS
 62
7
  6
CONTINUOUS
 10
142.7649254238
 20
228.3797714654
 11
141.9184868705
 21
230.0528425265
  0
LINE
  8
QUILTS
 62
7
  6
CONTINUOUS
 10
142.6783371242
 20
224.2591145086
 11
142.8621503004
 21
223.7717986295
  0
LINE
  8
QUILTS
 62
7
  6
CONTINUOUS
 10
143.396601632
 20
223.862057129
 11
143.1392604928
 21
224.5443064982
  0
LINE
  8
QUILTS
 62
7
  6
CONTINUOUS
 10
142.5192419124
 20
234.5134195332
 11
142.6006249329
 21
234.1934970591
  0
LINE
  8
QUILTS
 62
7
  6
CONTINUOUS
 10
142.5940580471
 20
224.7839843577
 11
142.6783371242
 21
224.2591145086
  0
LINE
  8
QUILTS
 62
7
  6
CONTINUOUS
 10
145.9325499816
 20
224.3732891212
 11
145.8482742615
 21
224.898150044
  0
LINE
  8
QUILTS
 62
7
  6
CONTINUOUS
 10
85.7516741859
 20
254.9012433073
 11
89.2592024677
 21
255.895890414
  0
LINE
  8
QUILTS
 62
7
  6
CONTINUOUS
 10
89.6151641061
 20
256.5497204496
 11
85.6065583893
 21
255.4129803416
  0
LINE
  8
QUILTS
 62
7
  6
CONTINUOUS
 10
92.0527146046
 20
257.0264310078
 11
91.4397705588
 21
256.904264741
  0
LINE
  8
QUILTS
 62
7
  6
CONTINUOUS
 10
95.0740784049
 20
255.1311637293
 11
95.6944461217
 21
255.207116978
  0
LINE
  8
QUILTS
 62
7
  6
CONTINUOUS
 10
95.6298050667
 20
255.73508944
 11
95.0094373499
 21
255.6591361913
  0
LINE
  8
QUILTS
 62
7
  6
CONTINUOUS
 10
93.8203541647
 20
256.7996818412
 11
96.8187997068
 21
257.1667894031
  0
LINE
  8
QUILTS
 62
7
  6
CONTINUOUS
 10
96.7541586518
 20
257.694761865
 11
93.2387384347
 21
257.2643597361
  0
LINE
  8
QUILTS
 62
7
  6
CONTINUOUS
 10
141.1820349953
 20
233.6426273127
 11
140.1020090933
 21
235.3011378881
  0
LINE
  8
QUILTS
 62
7
  6
CONTINUOUS
 10
141.4392160105
 20
236.1719301087
 11
142.5192419124
 21
234.5134195332
  0
LINE
  8
QUILTS
 62
7
  6
CONTINUOUS
 10
142.9081323562
 20
234.8909761065
 11
141.5438913029
 21
236.9859334684
  0
LINE
  8
QUILTS
 62
7
  6
CONTINUOUS
 10
147.3565981174
 20
226.0237317702
 11
147.0732441194
 21
226.4735115287
  0
LINE
  8
QUILTS
 62
7
  6
CONTINUOUS
 10
145.4725116338
 20
230.3332819707
 11
145.0963181563
 21
231.0768662725
  0
LINE
  8
QUILTS
 62
7
  6
CONTINUOUS
 10
143.1032003965
 20
234.3964765161
 11
142.9081323562
 21
234.8909761065
  0
LINE
  8
QUILTS
 62
7
  6
CONTINUOUS
 10
145.1300098234
 20
225.2952074499
 11
145.3873509626
 21
224.6129580807
  0
LINE
  8
QUILTS
 62
7
  6
CONTINUOUS
 10
145.8482742615
 20
224.898150044
 11
145.6644610853
 21
225.3854659231
  0
LINE
  8
QUILTS
 62
7
  6
CONTINUOUS
 10
146.7396010318
 20
224.3437132198
 11
146.9234175737
 21
223.8563884177
  0
LINE
  8
QUILTS
 62
7
  6
CONTINUOUS
 10
146.8221468555
 20
225.933473297
 11
147.0427240132
 21
225.3486906729
  0
LINE
  8
QUILTS
 62
7
  6
CONTINUOUS
 10
147.5036473121
 20
225.6338826361
 11
147.3565981174
 21
226.0237317702
  0
LINE
  8
QUILTS
 62
7
  6
CONTINUOUS
 10
147.5879263979
 20
225.1090127903
 11
147.5036473121
 21
225.6338826361
  0
LINE
  8
0
 62
7
  6
CONTINUOUS
 10
161.111509733
 20
198.818552134
 11
161.7840401249
 21
205.217251389
  0
LINE
  8
0
 62
7
  6
CONTINUOUS
 10
155.2610518658
 20
180.812694271
 11
152.0440793261
 21
175.2407343857
  0
LINE
  8
0
 62
7
  6
CONTINUOUS
 10
134.1706070233
 20
157.3893822856
 11
139.3757779334
 21
161.1711603173
  0
LINE
  8
0
 62
7
  6
CONTINUOUS
 10
104.332311422
 20
269.0238602851
 11
97.8983663426
 21
269.0238602851
  0
LINE
  8
0
 62
7
  6
CONTINUOUS
 10
128.7287719839
 20
262.4706552671
 11
122.8510706819
 21
265.0875764904
  0
LINE
  8
0
 62
7
  6
CONTINUOUS
 10
148.3506191024
 20
246.561070118
 11
144.0454695302
 21
251.3424231111
  0
LINE
  8
0
 62
7
  6
CONTINUOUS
 10
159.8050571518
 20
224.0460166441
 11
157.8168587814
 21
230.1650620374
  0
POLYLINE
  8
0
 62
7
  6
CONTINUOUS
 66
1
 70
0
  0
VERTEX
  8
0
 62
7
  6
CONTINUOUS
 10
40.4455679714
 20
96.8695853182
  0
VERTEX
  8
0
 62
7
  6
CONTINUOUS
 10
40.4461326882
 20
96.8458282497
  0
VERTEX
  8
0
 62
7
  6
CONTINUOUS
 10
40.4534481331
 20
96.7811650541
  0
VERTEX
  8
0
 62
7
  6
CONTINUOUS
 10
40.4687888123
 20
96.7189801983
  0
VERTEX
  8
0
 62
7
  6
CONTINUOUS
 10
40.4914446128
 20
96.6603664157
  0
VERTEX
  8
0
 62
7
  6
CONTINUOUS
 10
40.5205372491
 20
96.6062416509
  0
VERTEX
  8
0
 62
7
  6
CONTINUOUS
 10
40.5550621211
 20
96.5573246086
  0
VERTEX
  8
0
 62
7
  6
CONTINUOUS
 10
40.5939329216
 20
96.5141206888
  0
VERTEX
  8
0
 62
7
  6
CONTINUOUS
 10
40.6360248224
 20
96.4769196503
  0
VERTEX
  8
0
 62
7
  6
CONTINUOUS
 10
40.6802178772
 20
96.4458000564
  0
VERTEX
  8
0
 62
7
  6
CONTINUOUS
 10
40.7254339278
 20
96.4206448339
  0
VERTEX
  8
0
 62
7
  6
CONTINUOUS
 10
40.770652633
 20
96.4011685286
  0
VERTEX
  8
0
 62
7
  6
CONTINUOUS
 10
40.8149309687
 20
96.3869368136
  0
VERTEX
  8
0
 62
7
  6
CONTINUOUS
 10
40.8562135044
 20
96.3776028241
  0
VERTEX
  8
0
 62
7
  6
CONTINUOUS
 10
40.8856668347
 20
96.3731028009
  0
VERTEX
  8
0
 62
7
  6
CONTINUOUS
 10
40.9018544016
 20
96.3712612859
  0
VERTEX
  8
0
 62
7
  6
CONTINUOUS
 10
40.9190326819
 20
96.3695262191
  0
VERTEX
  8
0
 62
7
  6
CONTINUOUS
 10
40.9719382786
 20
96.3645300799
  0
SEQEND
  0
LINE
  8
2_FEATURE
 62
7
  6
CONTINUOUS
 10
40.4455670387
 20
103.4514091086
 11
40.4455670387
 21
96.8694886323
  0
LINE
  8
2_FEATURE
 62
7
  6
CONTINUOUS
 10
42.3984893307
 20
103.4522696143
 11
42.3984893307
 21
96.8686281265
  0
POLYLINE
  8
0
 62
7
  6
CONTINUOUS
 66
1
 70
0
  0
VERTEX
  8
0
 62
7
  6
CONTINUOUS
 10
42.3984896727
 20
96.8687343561
  0
VERTEX
  8
0
 62
7
  6
CONTINUOUS
 10
42.4142762947
 20
96.7440654792
  0
VERTEX
  8
0
 62
7
  6
CONTINUOUS
 10
42.4538466615
 20
96.6400181003
  0
VERTEX
  8
0
 62
7
  6
CONTINUOUS
 10
42.5125895066
 20
96.5507350845
  0
VERTEX
  8
0
 62
7
  6
CONTINUOUS
 10
42.5848605435
 20
96.4792240798
  0
VERTEX
  8
0
 62
7
  6
CONTINUOUS
 10
42.6646431078
 20
96.4266195113
  0
VERTEX
  8
0
 62
7
  6
CONTINUOUS
 10
42.7456844001
 20
96.3923396925
  0
VERTEX
  8
0
 62
7
  6
CONTINUOUS
 10
42.8135686322
 20
96.3752195256
  0
SEQEND
  0
LINE
  8
1_AXIS
 62
7
  6
CONTINUOUS
 10
48.6153388823
 20
110.6604488704
 11
48.6153388823
 21
105.1604488704
  0
LINE
  8
1_AXIS
 62
7
  6
CONTINUOUS
 10
48.6153388823
 20
95.1604488704
 11
48.6153388823
 21
89.6604488704
  0
LINE
  8
2_FEATURE
 62
7
  6
CONTINUOUS
 10
53.7020870437
 20
103.4571869231
 11
53.7020870437
 21
96.8637108177
  0
POLYLINE
  8
0
 62
7
  6
CONTINUOUS
 66
1
 70
0
  0
VERTEX
  8
0
 62
7
  6
CONTINUOUS
 10
53.7020878156
 20
96.863804248
  0
VERTEX
  8
0
 62
7
  6
CONTINUOUS
 10
53.7025871465
 20
96.8861654458
  0
VERTEX
  8
0
 62
7
  6
CONTINUOUS
 10
53.7189397173
 20
96.7349671181
  0
VERTEX
  8
0
 62
7
  6
CONTINUOUS
 10
53.7769363764
 20
96.6003691278
  0
VERTEX
  8
0
 62
7
  6
CONTINUOUS
 10
53.8643359275
 20
96.494600005
  0
VERTEX
  8
0
 62
7
  6
CONTINUOUS
 10
53.9140234961
 20
96.4544249638
  0
VERTEX
  8
0
 62
7
  6
CONTINUOUS
 10
54.0154335329
 20
96.3986348422
  0
VERTEX
  8
0
 62
7
  6
CONTINUOUS
 10
54.1071774276
 20
96.3698786316
  0
VERTEX
  8
0
 62
7
  6
CONTINUOUS
 10
54.1878109159
 20
96.3553930449
  0
SEQEND
  0
POLYLINE
  8
0
 62
7
  6
CONTINUOUS
 66
1
 70
0
  0
VERTEX
  8
0
 62
7
  6
CONTINUOUS
 10
73.0655398928
 20
96.8553515559
  0
VERTEX
  8
0
 62
7
  6
CONTINUOUS
 10
73.0752538634
 20
96.7570915465
  0
VERTEX
  8
0
 62
7
  6
CONTINUOUS
 10
73.1382489972
 20
96.5951338498
  0
VERTEX
  8
0
 62
7
  6
CONTINUOUS
 10
73.242885641
 20
96.4722756075
  0
VERTEX
  8
0
 62
7
  6
CONTINUOUS
 10
73.3656854526
 20
96.39480546
  0
VERTEX
  8
0
 62
7
  6
CONTINUOUS
 10
73.4271198443
 20
96.3715054598
  0
SEQEND
  0
LINE
  8
2_FEATURE
 62
7
  6
CONTINUOUS
 10
73.0655394676
 20
103.4655978153
 11
73.0655394676
 21
96.8552999255
  0
POLYLINE
  8
0
 62
7
  6
CONTINUOUS
 66
1
 70
0
  0
VERTEX
  8
0
 62
7
  6
CONTINUOUS
 10
42.7724006255
 20
103.9364246469
  0
VERTEX
  8
0
 62
7
  6
CONTINUOUS
 10
42.7001256337
 20
103.9113477528
  0
VERTEX
  8
0
 62
7
  6
CONTINUOUS
 10
42.6254152174
 20
103.8711402806
  0
VERTEX
  8
0
 62
7
  6
CONTINUOUS
 10
42.5531594293
 20
103.813839609
  0
VERTEX
  8
0
 62
7
  6
CONTINUOUS
 10
42.4894250268
 20
103.7397368948
  0
VERTEX
  8
0
 62
7
  6
CONTINUOUS
 10
42.4398071288
 20
103.6512207335
  0
VERTEX
  8
0
 62
7
  6
CONTINUOUS
 10
42.4086167434
 20
103.5523014476
  0
VERTEX
  8
0
 62
7
  6
CONTINUOUS
 10
42.3984896726
 20
103.4521633966
  0
SEQEND
  0
LINE
  8
0
 62
7
  6
CONTINUOUS
 10
73.8524042901
 20
104.0873987336
 11
73.8527098851
 21
104.0876179694
  0
LINE
  8
0
 62
7
  6
CONTINUOUS
 10
73.8530572991
 20
104.087763042
 11
73.8524042901
 21
104.0873987336
  0
LINE
  8
0
 62
7
  6
CONTINUOUS
 10
73.8530574814
 20
96.2331347747
 11
73.8524241004
 21
96.2334881135
  0
LINE
  8
0
 62
7
  6
CONTINUOUS
 10
73.8527098851
 20
104.0876179694
 11
73.8500503073
 21
104.0863588823
  0
LINE
  8
0
 62
7
  6
CONTINUOUS
 10
73.8500503073
 20
104.0863588823
 11
73.8171878734
 21
104.073091703
  0
LINE
  8
0
 62
7
  6
CONTINUOUS
 10
73.9950524794
 20
104.1442094378
 11
73.8530573744
 21
104.0877629069
  0
POLYLINE
  8
0
 62
7
  6
CONTINUOUS
 66
1
 70
0
  0
VERTEX
  8
0
 62
7
  6
CONTINUOUS
 10
73.4271016291
 20
103.9493865603
  0
VERTEX
  8
0
 62
7
  6
CONTINUOUS
 10
73.3691066371
 20
103.9276167664
  0
VERTEX
  8
0
 62
7
  6
CONTINUOUS
 10
73.2452144952
 20
103.8505917334
  0
VERTEX
  8
0
 62
7
  6
CONTINUOUS
 10
73.1393893342
 20
103.7276368765
  0
VERTEX
  8
0
 62
7
  6
CONTINUOUS
 10
73.0754893749
 20
103.5649784911
  0
VERTEX
  8
0
 62
7
  6
CONTINUOUS
 10
73.0655398927
 20
103.4655461557
  0
SEQEND
  0
LINE
  8
0
 62
7
  6
CONTINUOUS
 10
73.8171878734
 20
104.073091703
 11
73.766267761
 21
104.0558929417
  0
POLYLINE
  8
0
 62
7
  6
CONTINUOUS
 66
1
 70
0
  0
VERTEX
  8
0
 62
7
  6
CONTINUOUS
 10
148.0789715217
 20
96.361063342
  0
VERTEX
  8
0
 62
7
  6
CONTINUOUS
 10
148.1537531711
 20
96.3775330119
  0
VERTEX
  8
0
 62
7
  6
CONTINUOUS
 10
148.245193295
 20
96.4120828938
  0
VERTEX
  8
0
 62
7
  6
CONTINUOUS
 10
148.3404952983
 20
96.4724065541
  0
VERTEX
  8
0
 62
7
  6
CONTINUOUS
 10
148.4263979153
 20
96.5605472099
  0
VERTEX
  8
0
 62
7
  6
CONTINUOUS
 10
148.4907680218
 20
96.6728518849
  0
VERTEX
  8
0
 62
7
  6
CONTINUOUS
 10
148.5255177664
 20
96.8084115301
  0
VERTEX
  8
0
 62
7
  6
CONTINUOUS
 10
148.5285905493
 20
96.863809703
  0
SEQEND
  0
LINE
  8
1_AXIS
 62
7
  6
CONTINUOUS
 10
151.6153388823
 20
87.6604488704
 11
50.6153388823
 21
87.6604488704
  0
POLYLINE
  8
0
 62
7
  6
CONTINUOUS
 66
1
 70
0
  0
VERTEX
  8
0
 62
7
  6
CONTINUOUS
 10
42.8135686322
 20
96.3752195256
  0
VERTEX
  8
0
 62
7
  6
CONTINUOUS
 10
42.8578146983
 20
96.3682647552
  0
VERTEX
  8
0
 62
7
  6
CONTINUOUS
 10
42.9023762727
 20
96.3627917989
  0
VERTEX
  8
0
 62
7
  6
CONTINUOUS
 10
42.9632641826
 20
96.35625963
  0
SEQEND
  0
POLYLINE
  8
0
 62
7
  6
CONTINUOUS
 66
1
 70
0
  0
VERTEX
  8
0
 62
7
  6
CONTINUOUS
 10
73.766274762
 20
96.2650026043
  0
VERTEX
  8
0
 62
7
  6
CONTINUOUS
 10
73.8161929826
 20
96.2481712413
  0
VERTEX
  8
0
 62
7
  6
CONTINUOUS
 10
73.8372577429
 20
96.240054268
  0
SEQEND
  0
LINE
  8
0
 62
7
  6
CONTINUOUS
 10
73.8530574814
 20
96.2331347747
 11
73.9932214296
 21
96.1771475197
  0
LINE
  8
0
 62
7
  6
CONTINUOUS
 10
73.8372577429
 20
96.240054268
 11
73.852424023
 21
96.2334879751
  0
LINE
  8
0
 62
7
  6
CONTINUOUS
 10
73.7660899279
 20
104.0558371408
 11
73.4270714602
 21
103.9493780107
  0
LINE
  8
0
 62
7
  6
CONTINUOUS
 10
148.0252175935
 20
96.352945671
 11
148.0789715217
 21
96.361063342
  0
POLYLINE
  8
0
 62
7
  6
CONTINUOUS
 66
1
 70
0
  0
VERTEX
  8
0
 62
7
  6
CONTINUOUS
 10
146.7342484158
 20
96.1757625358
  0
VERTEX
  8
0
 62
7
  6
CONTINUOUS
 10
146.8710895394
 20
96.1963218798
  0
VERTEX
  8
0
 62
7
  6
CONTINUOUS
 10
147.0674682727
 20
96.2243960095
  0
SEQEND
  0
LINE
  8
0
 62
7
  6
CONTINUOUS
 10
146.6835087453
 20
96.1689459009
 11
146.7342256488
 21
96.1757591584
  0
LINE
  8
0
 62
7
  6
CONTINUOUS
 10
147.0674682727
 20
96.2243960095
 11
148.0252757062
 21
96.3529531687
  0
POLYLINE
  8
0
 62
7
  6
CONTINUOUS
 66
1
 70
0
  0
VERTEX
  8
0
 62
7
  6
CONTINUOUS
 10
159.2696518643
 20
96.3564881664
  0
VERTEX
  8
0
 62
7
  6
CONTINUOUS
 10
159.3430917557
 20
96.364514075
  0
VERTEX
  8
0
 62
7
  6
CONTINUOUS
 10
159.3979168654
 20
96.3719137773
  0
VERTEX
  8
0
 62
7
  6
CONTINUOUS
 10
159.4583005306
 20
96.384479304
  0
SEQEND
  0
POLYLINE
  8
0
 62
7
  6
CONTINUOUS
 66
1
 70
0
  0
VERTEX
  8
0
 62
7
  6
CONTINUOUS
 10
161.3109348289
 20
96.369456675
  0
VERTEX
  8
0
 62
7
  6
CONTINUOUS
 10
161.32957738
 20
96.3713408799
  0
VERTEX
  8
0
 62
7
  6
CONTINUOUS
 10
161.3485375459
 20
96.3735540623
  0
VERTEX
  8
0
 62
7
  6
CONTINUOUS
 10
161.381824924
 20
96.3790013269
  0
VERTEX
  8
0
 62
7
  6
CONTINUOUS
 10
161.4227310252
 20
96.3888833384
  0
VERTEX
  8
0
 62
7
  6
CONTINUOUS
 10
161.4667761511
 20
96.4037464781
  0
VERTEX
  8
0
 62
7
  6
CONTINUOUS
 10
161.4891074951
 20
96.4130859479
  0
VERTEX
  8
0
 62
7
  6
CONTINUOUS
 10
161.5333857242
 20
96.435576959
  0
VERTEX
  8
0
 62
7
  6
CONTINUOUS
 10
161.5772814261
 20
96.4638291512
  0
VERTEX
  8
0
 62
7
  6
CONTINUOUS
 10
161.620560959
 20
96.4988113481
  0
VERTEX
  8
0
 62
7
  6
CONTINUOUS
 10
161.6621016153
 20
96.5411394215
  0
VERTEX
  8
0
 62
7
  6
CONTINUOUS
 10
161.700222524
 20
96.5908742408
  0
VERTEX
  8
0
 62
7
  6
CONTINUOUS
 10
161.7332669653
 20
96.6478813046
  0
VERTEX
  8
0
 62
7
  6
CONTINUOUS
 10
161.7595783588
 20
96.7118628896
  0
VERTEX
  8
0
 62
7
  6
CONTINUOUS
 10
161.7774063409
 20
96.7821760788
  0
VERTEX
  8
0
 62
7
  6
CONTINUOUS
 10
161.7849660349
 20
96.8577639184
  0
VERTEX
  8
0
 62
7
  6
CONTINUOUS
 10
161.7851057875
 20
96.8695847476
  0
SEQEND
  0
LINE
  8
0
 62
7
  6
CONTINUOUS
 10
159.2066306515
 20
96.3502865132
 11
159.2696518643
 21
96.3564881664
  0
LINE
  8
0
 62
7
  6
CONTINUOUS
 10
157.3567487794
 20
96.1723956865
 11
159.2066306515
 21
96.3502865132
  0
LINE
  8
0
 62
7
  6
CONTINUOUS
 10
161.2507217229
 20
96.3637915454
 11
161.3109348289
 21
96.369456675
  0
LINE
  8
0
 62
7
  6
CONTINUOUS
 10
161.2507217229
 20
96.3637915454
 11
159.0833298789
 21
96.1718647761
  0
LINE
  8
0
 62
7
  6
CONTINUOUS
 10
157.2988081198
 20
96.1673456469
 11
157.356748269
 21
96.1723957464
  0
LINE
  8
0
 62
7
  6
CONTINUOUS
 10
44.8739292652
 20
96.1723957693
 11
44.9254094411
 21
96.1678406031
  0
LINE
  8
0
 62
7
  6
CONTINUOUS
 10
40.9719382786
 20
96.3645300799
 11
43.1473478857
 21
96.1718647761
  0
LINE
  8
0
 62
7
  6
CONTINUOUS
 10
42.9632641826
 20
96.35625963
 11
44.6534003367
 21
96.1941068349
  0
LINE
  8
0
 62
7
  6
CONTINUOUS
 10
44.6534003367
 20
96.1941068349
 11
44.8739289661
 21
96.1723956905
  0
POLYLINE
  8
0
 62
7
  6
CONTINUOUS
 66
1
 70
0
  0
VERTEX
  8
0
 62
7
  6
CONTINUOUS
 10
54.2054020594
 20
96.3529531685
  0
VERTEX
  8
0
 62
7
  6
CONTINUOUS
 10
55.1590086831
 20
96.2249802953
  0
VERTEX
  8
0
 62
7
  6
CONTINUOUS
 10
55.3556838852
 20
96.1968955803
  0
VERTEX
  8
0
 62
7
  6
CONTINUOUS
 10
55.4964296401
 20
96.1757624916
  0
SEQEND
  0
LINE
  8
0
 62
7
  6
CONTINUOUS
 10
55.4964503685
 20
96.1757594268
 11
55.5418982692
 21
96.1695625112
  0
LINE
  8
0
 62
7
  6
CONTINUOUS
 10
54.1878109159
 20
96.3553930449
 11
54.2055142533
 21
96.3529384014
  0
LINE
  8
0
 62
7
  6
CONTINUOUS
 10
73.4270714587
 20
96.3715197306
 11
73.7660899279
 21
96.2650606
  0
LINE
  8
0
 62
7
  6
CONTINUOUS
 10
128.1038783192
 20
96.1604489929
 11
128.2356209022
 21
96.1766872123
  0
LINE
  8
0
 62
7
  6
CONTINUOUS
 10
159.0833298789
 20
96.1718647761
 11
158.8251166313
 21
96.1604488704
  0
POLYLINE
  8
0
 62
7
  6
CONTINUOUS
 66
1
 70
0
  0
VERTEX
  8
0
 62
7
  6
CONTINUOUS
 10
146.5367881009
 20
96.1604489764
  0
VERTEX
  8
0
 62
7
  6
CONTINUOUS
 10
146.5769163638
 20
96.1610910397
  0
VERTEX
  8
0
 62
7
  6
CONTINUOUS
 10
146.6835087453
 20
96.1689459009
  0
SEQEND
  0
POLYLINE
  8
0
 62
7
  6
CONTINUOUS
 66
1
 70
0
  0
VERTEX
  8
0
 62
7
  6
CONTINUOUS
 10
157.1160222666
 20
96.1604489751
  0
VERTEX
  8
0
 62
7
  6
CONTINUOUS
 10
157.1688257435
 20
96.1610272533
  0
VERTEX
  8
0
 62
7
  6
CONTINUOUS
 10
157.2988081198
 20
96.1673456469
  0
SEQEND
  0
LINE
  8
0
 62
7
  6
CONTINUOUS
 10
158.8251166305
 20
96.1604488704
 11
157.1367973257
 21
96.1604488704
  0
LINE
  8
0
 62
7
  6
CONTINUOUS
 10
157.116019796
 20
96.1604488709
 11
128.1247471929
 21
96.1604488704
  0
LINE
  8
0
 62
7
  6
CONTINUOUS
 10
128.1039375542
 20
96.1604488704
 11
45.1147092428
 21
96.1604488704
  0
LINE
  8
0
 62
7
  6
CONTINUOUS
 10
45.0936554933
 20
96.1604488704
 11
43.405561134
 21
96.1604488704
  0
LINE
  8
0
 62
7
  6
CONTINUOUS
 10
43.4055611333
 20
96.1604488704
 11
43.1473478857
 21
96.1718647761
  0
POLYLINE
  8
0
 62
7
  6
CONTINUOUS
 66
1
 70
0
  0
VERTEX
  8
0
 62
7
  6
CONTINUOUS
 10
44.9254094411
 20
96.1678406031
  0
VERTEX
  8
0
 62
7
  6
CONTINUOUS
 10
45.0554319853
 20
96.1611761326
  0
VERTEX
  8
0
 62
7
  6
CONTINUOUS
 10
45.1146626523
 20
96.1604489751
  0
SEQEND
  0
POLYLINE
  8
0
 62
7
  6
CONTINUOUS
 66
1
 70
0
  0
VERTEX
  8
0
 62
7
  6
CONTINUOUS
 10
55.5418982692
 20
96.1695625112
  0
VERTEX
  8
0
 62
7
  6
CONTINUOUS
 10
55.6484711479
 20
96.1612712451
  0
VERTEX
  8
0
 62
7
  6
CONTINUOUS
 10
55.6938959662
 20
96.1604489769
  0
SEQEND
  0
LINE
  8
0
 62
7
  6
CONTINUOUS
 10
73.9932214296
 20
96.1771475197
 11
74.1268035506
 21
96.1604489957
  0
LINE
  8
1_AXIS
 62
2
  6
CENTER
 10
101.1153388823
 20
85.6604488704
 11
101.1153388823
 21
114.6604488704
  0
POLYLINE
  8
0
 62
7
  6
CONTINUOUS
 66
1
 70
0
  0
VERTEX
  8
0
 62
7
  6
CONTINUOUS
 10
45.1146959212
 20
104.160448765
  0
VERTEX
  8
0
 62
7
  6
CONTINUOUS
 10
45.0618566577
 20
104.1598705843
  0
VERTEX
  8
0
 62
7
  6
CONTINUOUS
 10
44.9318743467
 20
104.1535524522
  0
SEQEND
  0
LINE
  8
1_AXIS
 62
7
  6
CONTINUOUS
 10
157.1159685225
 20
104.1604488704
 11
154.7123642354
 21
104.1604488704
  0
LINE
  8
1_AXIS
 62
7
  6
CONTINUOUS
 10
128.1039375543
 20
104.1604488704
 11
120.9981737341
 21
104.1604488704
  0
LINE
  8
1_AXIS
 62
7
  6
CONTINUOUS
 10
105.0044523143
 20
104.1604488704
 11
97.2262254503
 21
104.1604488704
  0
LINE
  8
1_AXIS
 62
7
  6
CONTINUOUS
 10
81.2325040304
 20
104.1604488704
 11
74.1267402103
 21
104.1604488704
  0
LINE
  8
1_AXIS
 62
7
  6
CONTINUOUS
 10
47.5183135292
 20
104.1604488704
 11
45.1147092421
 21
104.1604488704
  0
LINE
  8
0
 62
7
  6
CONTINUOUS
 10
43.405561134
 20
104.1604488704
 11
45.0936554946
 21
104.1604488704
  0
LINE
  8
0
 62
7
  6
CONTINUOUS
 10
45.1147092428
 20
104.1604488704
 11
74.1059305717
 21
104.1604488704
  0
LINE
  8
0
 62
7
  6
CONTINUOUS
 10
74.1267402103
 20
104.1604488704
 11
157.1159685218
 21
104.1604488704
  0
LINE
  8
0
 62
7
  6
CONTINUOUS
 10
157.1367973276
 20
104.1604488704
 11
158.8251166305
 21
104.1604488704
  0
LINE
  8
0
 62
7
  6
CONTINUOUS
 10
74.1267996391
 20
104.1604487466
 11
73.9950524794
 21
104.1442094378
  0
LINE
  8
0
 62
7
  6
CONTINUOUS
 10
44.9318743467
 20
104.1535524522
 11
44.8739295634
 21
104.1485020018
  0
LINE
  8
0
 62
7
  6
CONTINUOUS
 10
43.1473478857
 20
104.1490329647
 11
43.4055611333
 21
104.1604488704
  0
POLYLINE
  8
0
 62
7
  6
CONTINUOUS
 66
1
 70
0
  0
VERTEX
  8
0
 62
7
  6
CONTINUOUS
 10
55.6938912469
 20
104.1604487631
  0
VERTEX
  8
0
 62
7
  6
CONTINUOUS
 10
55.6537668341
 20
104.1598068693
  0
VERTEX
  8
0
 62
7
  6
CONTINUOUS
 10
55.5471745158
 20
104.1519524746
  0
SEQEND
  0
LINE
  8
0
 62
7
  6
CONTINUOUS
 10
158.8251166313
 20
104.1604488704
 11
159.0833298789
 21
104.1490329647
  0
POLYLINE
  8
0
 62
7
  6
CONTINUOUS
 66
1
 70
0
  0
VERTEX
  8
0
 62
7
  6
CONTINUOUS
 10
157.3052635362
 20
104.153057517
  0
VERTEX
  8
0
 62
7
  6
CONTINUOUS
 10
157.1752410394
 20
104.1597217216
  0
VERTEX
  8
0
 62
7
  6
CONTINUOUS
 10
157.1159749728
 20
104.1604487651
  0
SEQEND
  0
POLYLINE
  8
0
 62
7
  6
CONTINUOUS
 66
1
 70
0
  0
VERTEX
  8
0
 62
7
  6
CONTINUOUS
 10
146.688773901
 20
104.1513359002
  0
VERTEX
  8
0
 62
7
  6
CONTINUOUS
 10
146.5822010685
 20
104.1596266924
  0
VERTEX
  8
0
 62
7
  6
CONTINUOUS
 10
146.5367803157
 20
104.1604487627
  0
SEQEND
  0
LINE
  8
0
 62
7
  6
CONTINUOUS
 10
128.2374605434
 20
104.1437491586
 11
128.103874023
 21
104.1604487441
  0
LINE
  8
0
 62
7
  6
CONTINUOUS
 10
128.4134897671
 20
96.2478059904
 11
128.4644098528
 21
96.26500476
  0
LINE
  8
0
 62
7
  6
CONTINUOUS
 10
128.4645878365
 20
96.2650605999
 11
128.8036063071
 21
96.3715197309
  0
LINE
  8
0
 62
7
  6
CONTINUOUS
 10
54.2054569712
 20
103.9679516893
 11
54.1517181135
 21
103.9598364626
  0
POLYLINE
  8
0
 62
7
  6
CONTINUOUS
 66
1
 70
0
  0
VERTEX
  8
0
 62
7
  6
CONTINUOUS
 10
55.49642936
 20
104.1451352068
  0
VERTEX
  8
0
 62
7
  6
CONTINUOUS
 10
55.3595985135
 20
104.1245773711
  0
VERTEX
  8
0
 62
7
  6
CONTINUOUS
 10
55.1632204122
 20
104.0965032529
  0
SEQEND
  0
LINE
  8
0
 62
7
  6
CONTINUOUS
 10
55.5471745158
 20
104.1519524746
 11
55.4964523376
 21
104.1451386172
  0
LINE
  8
0
 62
7
  6
CONTINUOUS
 10
55.1632204122
 20
104.0965032529
 11
54.2054020607
 21
103.9679445724
  0
POLYLINE
  8
0
 62
7
  6
CONTINUOUS
 66
1
 70
0
  0
VERTEX
  8
0
 62
7
  6
CONTINUOUS
 10
42.961062457
 20
103.9644133171
  0
VERTEX
  8
0
 62
7
  6
CONTINUOUS
 10
42.8876015893
 20
103.9563854898
  0
VERTEX
  8
0
 62
7
  6
CONTINUOUS
 10
42.8327752165
 20
103.94898629
  0
VERTEX
  8
0
 62
7
  6
CONTINUOUS
 10
42.7724006255
 20
103.9364246469
  0
SEQEND
  0
POLYLINE
  8
0
 62
7
  6
CONTINUOUS
 66
1
 70
0
  0
VERTEX
  8
0
 62
7
  6
CONTINUOUS
 10
40.9197384739
 20
103.9514406413
  0
VERTEX
  8
0
 62
7
  6
CONTINUOUS
 10
40.9011013635
 20
103.9495569556
  0
VERTEX
  8
0
 62
7
  6
CONTINUOUS
 10
40.882133773
 20
103.9473428165
  0
VERTEX
  8
0
 62
7
  6
CONTINUOUS
 10
40.8488633403
 20
103.9418985723
  0
VERTEX
  8
0
 62
7
  6
CONTINUOUS
 10
40.8079594381
 20
103.9320183672
  0
VERTEX
  8
0
 62
7
  6
CONTINUOUS
 10
40.7639040624
 20
103.9171528511
  0
VERTEX
  8
0
 62
7
  6
CONTINUOUS
 10
40.7415705607
 20
103.9078127349
  0
VERTEX
  8
0
 62
7
  6
CONTINUOUS
 10
40.6972887063
 20
103.8853201061
  0
VERTEX
  8
0
 62
7
  6
CONTINUOUS
 10
40.6533893804
 20
103.8570653473
  0
VERTEX
  8
0
 62
7
  6
CONTINUOUS
 10
40.6101077678
 20
103.8220806962
  0
VERTEX
  8
0
 62
7
  6
CONTINUOUS
 10
40.5685671365
 20
103.7797514337
  0
VERTEX
  8
0
 62
7
  6
CONTINUOUS
 10
40.5304472116
 20
103.7300164102
  0
VERTEX
  8
0
 62
7
  6
CONTINUOUS
 10
40.4974039975
 20
103.6730097637
  0
VERTEX
  8
0
 62
7
  6
CONTINUOUS
 10
40.4710938038
 20
103.6090291406
  0
VERTEX
  8
0
 62
7
  6
CONTINUOUS
 10
40.4532667846
 20
103.538717331
  0
VERTEX
  8
0
 62
7
  6
CONTINUOUS
 10
40.4457076734
 20
103.4631311025
  0
VERTEX
  8
0
 62
7
  6
CONTINUOUS
 10
40.4455679711
 20
103.4513124221
  0
SEQEND
  0
LINE
  8
0
 62
7
  6
CONTINUOUS
 10
44.8739289874
 20
104.1485020539
 11
43.0240471131
 21
103.9706112276
  0
LINE
  8
0
 62
7
  6
CONTINUOUS
 10
43.0240471131
 20
103.9706112276
 11
42.961062457
 21
103.9644133171
  0
LINE
  8
0
 62
7
  6
CONTINUOUS
 10
40.9799453745
 20
103.9571052162
 11
40.9197384739
 21
103.9514406413
  0
LINE
  8
0
 62
7
  6
CONTINUOUS
 10
40.9799453745
 20
103.9571052162
 11
43.1473478857
 21
104.1490329647
  0
LINE
  8
1_AXIS
 62
7
  6
CONTINUOUS
 10
151.6153388823
 20
112.6604488704
 11
50.6153388823
 21
112.6604488704
  0
LINE
  8
0
 62
7
  6
CONTINUOUS
 10
157.356748439
 20
104.1485019782
 11
157.3052635362
 21
104.153057517
  0
LINE
  8
0
 62
7
  6
CONTINUOUS
 10
159.6451065784
 20
104.0992453946
 11
161.1020401197
 21
103.9704607633
  0
LINE
  8
0
 62
7
  6
CONTINUOUS
 10
159.0833298789
 20
104.1490329647
 11
159.6451065784
 21
104.0992453946
  0
LINE
  8
0
 62
7
  6
CONTINUOUS
 10
161.2587261232
 20
103.9563688977
 11
161.1025507527
 21
103.9704200441
  0
LINE
  8
0
 62
7
  6
CONTINUOUS
 10
159.2674451985
 20
103.9646348853
 11
157.3567487817
 21
104.1485020549
  0
POLYLINE
  8
0
 62
7
  6
CONTINUOUS
 66
1
 70
0
  0
VERTEX
  8
0
 62
7
  6
CONTINUOUS
 10
148.0252757051
 20
103.9679445722
  0
VERTEX
  8
0
 62
7
  6
CONTINUOUS
 10
147.0716787418
 20
104.0959161007
  0
VERTEX
  8
0
 62
7
  6
CONTINUOUS
 10
146.8750030527
 20
104.1240008156
  0
VERTEX
  8
0
 62
7
  6
CONTINUOUS
 10
146.7342481075
 20
104.1451352522
  0
SEQEND
  0
LINE
  8
0
 62
7
  6
CONTINUOUS
 10
146.7342271379
 20
104.1451383543
 11
146.688773901
 21
104.1513359002
  0
LINE
  8
0
 62
7
  6
CONTINUOUS
 10
148.0431035412
 20
103.965470477
 11
148.02515785
 21
103.9679600478
  0
POLYLINE
  8
0
 62
7
  6
CONTINUOUS
 66
1
 70
0
  0
VERTEX
  8
0
 62
7
  6
CONTINUOUS
 10
159.4170970883
 20
103.945680524
  0
VERTEX
  8
0
 62
7
  6
CONTINUOUS
 10
159.3728643677
 20
103.9526328221
  0
VERTEX
  8
0
 62
7
  6
CONTINUOUS
 10
159.3283146944
 20
103.9581044086
  0
VERTEX
  8
0
 62
7
  6
CONTINUOUS
 10
159.2674451985
 20
103.9646348853
  0
SEQEND
  0
LINE
  8
0
 62
7
  6
CONTINUOUS
 10
128.8036063057
 20
103.9493780103
 11
128.4645878365
 21
104.0558371409
  0
POLYLINE
  8
0
 62
7
  6
CONTINUOUS
 66
1
 70
0
  0
VERTEX
  8
0
 62
7
  6
CONTINUOUS
 10
128.4644028379
 20
104.0558951795
  0
VERTEX
  8
0
 62
7
  6
CONTINUOUS
 10
128.414484662
 20
104.0727265456
  0
VERTEX
  8
0
 62
7
  6
CONTINUOUS
 10
128.3934197174
 20
104.0808436008
  0
SEQEND
  0
LINE
  8
0
 62
7
  6
CONTINUOUS
 10
128.3776207552
 20
96.2331348645
 11
128.3782733863
 21
96.2334989623
  0
LINE
  8
0
 62
7
  6
CONTINUOUS
 10
128.3779677212
 20
96.2332797181
 11
128.3806272431
 21
96.2345387844
  0
LINE
  8
0
 62
7
  6
CONTINUOUS
 10
128.3806272431
 20
96.2345387844
 11
128.4134897671
 21
96.2478059904
  0
LINE
  8
0
 62
7
  6
CONTINUOUS
 10
128.2356209022
 20
96.1766872123
 11
128.3776206816
 21
96.2331349965
  0
POLYLINE
  8
0
 62
7
  6
CONTINUOUS
 66
1
 70
0
  0
VERTEX
  8
0
 62
7
  6
CONTINUOUS
 10
128.8036236067
 20
96.3715262765
  0
VERTEX
  8
0
 62
7
  6
CONTINUOUS
 10
128.861558504
 20
96.3932759552
  0
VERTEX
  8
0
 62
7
  6
CONTINUOUS
 10
128.9854649852
 20
96.4703072094
  0
VERTEX
  8
0
 62
7
  6
CONTINUOUS
 10
129.0912891619
 20
96.5932630527
  0
VERTEX
  8
0
 62
7
  6
CONTINUOUS
 10
129.1551885399
 20
96.7559214114
  0
VERTEX
  8
0
 62
7
  6
CONTINUOUS
 10
129.1651384006
 20
96.8553583466
  0
SEQEND
  0
POLYLINE
  8
0
 62
7
  6
CONTINUOUS
 66
1
 70
0
  0
VERTEX
  8
0
 62
7
  6
CONTINUOUS
 10
54.1517181135
 20
103.9598364626
  0
VERTEX
  8
0
 62
7
  6
CONTINUOUS
 10
54.076931882
 20
103.9433670434
  0
VERTEX
  8
0
 62
7
  6
CONTINUOUS
 10
53.9854747477
 20
103.9088098211
  0
VERTEX
  8
0
 62
7
  6
CONTINUOUS
 10
53.8901477267
 20
103.8484641175
  0
VERTEX
  8
0
 62
7
  6
CONTINUOUS
 10
53.8042515166
 20
103.7603151811
  0
VERTEX
  8
0
 62
7
  6
CONTINUOUS
 10
53.7398947389
 20
103.6480118252
  0
VERTEX
  8
0
 62
7
  6
CONTINUOUS
 10
53.7051579897
 20
103.5124668765
  0
VERTEX
  8
0
 62
7
  6
CONTINUOUS
 10
53.7020878156
 20
103.4570935173
  0
SEQEND
  0
LINE
  8
0
 62
7
  6
CONTINUOUS
 10
128.3776200383
 20
104.0877631027
 11
128.2374605434
 21
104.1437491586
  0
LINE
  8
0
 62
7
  6
CONTINUOUS
 10
128.3934197174
 20
104.0808436008
 11
128.3782538836
 21
104.0874096726
  0
LINE
  8
0
 62
7
  6
CONTINUOUS
 10
128.3776200383
 20
104.0877631027
 11
128.3782538123
 21
104.0874095449
  0
LINE
  8
0
 62
7
  6
CONTINUOUS
 10
128.3782733863
 20
96.2334989623
 11
128.3779677212
 21
96.2332797181
  0
POLYLINE
  8
0
 62
7
  6
CONTINUOUS
 66
1
 70
0
  0
VERTEX
  8
0
 62
7
  6
CONTINUOUS
 10
159.4583005306
 20
96.384479304
  0
VERTEX
  8
0
 62
7
  6
CONTINUOUS
 10
159.5305588572
 20
96.4095534356
  0
VERTEX
  8
0
 62
7
  6
CONTINUOUS
 10
159.6052633224
 20
96.4497587601
  0
VERTEX
  8
0
 62
7
  6
CONTINUOUS
 10
159.6775165323
 20
96.507057214
  0
VERTEX
  8
0
 62
7
  6
CONTINUOUS
 10
159.7412508372
 20
96.5811587799
  0
VERTEX
  8
0
 62
7
  6
CONTINUOUS
 10
159.7908695817
 20
96.6696747989
  0
VERTEX
  8
0
 62
7
  6
CONTINUOUS
 10
159.8220609274
 20
96.768594836
  0
VERTEX
  8
0
 62
7
  6
CONTINUOUS
 10
159.8321885288
 20
96.8687357225
  0
SEQEND
  0
POLYLINE
  8
0
 62
7
  6
CONTINUOUS
 66
1
 70
0
  0
VERTEX
  8
0
 62
7
  6
CONTINUOUS
 10
129.1651384007
 20
103.4655394239
  0
VERTEX
  8
0
 62
7
  6
CONTINUOUS
 10
129.1554243299
 20
103.5638026478
  0
VERTEX
  8
0
 62
7
  6
CONTINUOUS
 10
129.0924307765
 20
103.7257595645
  0
VERTEX
  8
0
 62
7
  6
CONTINUOUS
 10
128.9877963949
 20
103.8486187235
  0
VERTEX
  8
0
 62
7
  6
CONTINUOUS
 10
128.8649822246
 20
103.9260963405
  0
VERTEX
  8
0
 62
7
  6
CONTINUOUS
 10
128.8036051048
 20
103.9493772774
  0
SEQEND
  0
LINE
  8
0
 62
7
  6
CONTINUOUS
 10
129.165138297
 20
103.4655990197
 11
129.165138297
 21
96.8552987211
  0
LINE
  8
0
 62
7
  6
CONTINUOUS
 10
148.5285907209
 20
103.4571880444
 11
148.5285907209
 21
96.8637096964
  0
POLYLINE
  8
0
 62
7
  6
CONTINUOUS
 66
1
 70
0
  0
VERTEX
  8
0
 62
7
  6
CONTINUOUS
 10
148.5285905493
 20
103.4570880182
  0
VERTEX
  8
0
 62
7
  6
CONTINUOUS
 10
148.5280865062
 20
103.4346231544
  0
VERTEX
  8
0
 62
7
  6
CONTINUOUS
 10
148.5118055319
 20
103.5856749773
  0
VERTEX
  8
0
 62
7
  6
CONTINUOUS
 10
148.4539329971
 20
103.7202160531
  0
VERTEX
  8
0
 62
7
  6
CONTINUOUS
 10
148.3666683344
 20
103.8259962141
  0
VERTEX
  8
0
 62
7
  6
CONTINUOUS
 10
148.317046816
 20
103.8661937605
  0
VERTEX
  8
0
 62
7
  6
CONTINUOUS
 10
148.2157514747
 20
103.9220540678
  0
VERTEX
  8
0
 62
7
  6
CONTINUOUS
 10
148.1239517729
 20
103.9509161355
  0
VERTEX
  8
0
 62
7
  6
CONTINUOUS
 10
148.0431035412
 20
103.965470477
  0
SEQEND
  0
LINE
  8
1_AXIS
 62
7
  6
CONTINUOUS
 10
153.6153388823
 20
110.6604488704
 11
153.6153388823
 21
105.1604488704
  0
LINE
  8
1_AXIS
 62
7
  6
CONTINUOUS
 10
153.6153388823
 20
95.1604488704
 11
153.6153388823
 21
89.6604488704
  0
POLYLINE
  8
0
 62
7
  6
CONTINUOUS
 66
1
 70
0
  0
VERTEX
  8
0
 62
7
  6
CONTINUOUS
 10
161.7851057867
 20
103.4513129937
  0
VERTEX
  8
0
 62
7
  6
CONTINUOUS
 10
161.7845411551
 20
103.4750683234
  0
VERTEX
  8
0
 62
7
  6
CONTINUOUS
 10
161.7772260932
 20
103.5397308483
  0
VERTEX
  8
0
 62
7
  6
CONTINUOUS
 10
161.7618859839
 20
103.6019151516
  0
VERTEX
  8
0
 62
7
  6
CONTINUOUS
 10
161.7392308948
 20
103.6605285287
  0
VERTEX
  8
0
 62
7
  6
CONTINUOUS
 10
161.7101390609
 20
103.714653051
  0
VERTEX
  8
0
 62
7
  6
CONTINUOUS
 10
161.6756150307
 20
103.7635700168
  0
VERTEX
  8
0
 62
7
  6
CONTINUOUS
 10
161.6367450663
 20
103.8067740135
  0
VERTEX
  8
0
 62
7
  6
CONTINUOUS
 10
161.5946539675
 20
103.8439752549
  0
VERTEX
  8
0
 62
7
  6
CONTINUOUS
 10
161.5504616565
 20
103.8750951532
  0
VERTEX
  8
0
 62
7
  6
CONTINUOUS
 10
161.5052462901
 20
103.9002507501
  0
VERTEX
  8
0
 62
7
  6
CONTINUOUS
 10
161.4600282939
 20
103.9197274483
  0
VERTEX
  8
0
 62
7
  6
CONTINUOUS
 10
161.4157506496
 20
103.9339596001
  0
VERTEX
  8
0
 62
7
  6
CONTINUOUS
 10
161.374469517
 20
103.9432939136
  0
VERTEX
  8
0
 62
7
  6
CONTINUOUS
 10
161.3449993987
 20
103.9477963913
  0
VERTEX
  8
0
 62
7
  6
CONTINUOUS
 10
161.3288214477
 20
103.9496366686
  0
VERTEX
  8
0
 62
7
  6
CONTINUOUS
 10
161.31163627
 20
103.9513723733
  0
VERTEX
  8
0
 62
7
  6
CONTINUOUS
 10
161.2587261232
 20
103.9563688977
  0
SEQEND
  0
LINE
  8
0
 62
7
  6
CONTINUOUS
 10
159.8321884338
 20
103.4522700247
 11
159.8321884338
 21
96.8686277162
  0
LINE
  8
0
 62
7
  6
CONTINUOUS
 10
161.7851107258
 20
103.4514091129
 11
161.7851107258
 21
96.8694886278
  0
POLYLINE
  8
0
 62
7
  6
CONTINUOUS
 66
1
 70
0
  0
VERTEX
  8
0
 62
7
  6
CONTINUOUS
 10
159.8321885287
 20
103.4521620086
  0
VERTEX
  8
0
 62
7
  6
CONTINUOUS
 10
159.816403267
 20
103.5768258119
  0
VERTEX
  8
0
 62
7
  6
CONTINUOUS
 10
159.7768353193
 20
103.6808710449
  0
VERTEX
  8
0
 62
7
  6
CONTINUOUS
 10
159.7180956452
 20
103.7701529617
  0
VERTEX
  8
0
 62
7
  6
CONTINUOUS
 10
159.645828016
 20
103.8416641369
  0
VERTEX
  8
0
 62
7
  6
CONTINUOUS
 10
159.5660501387
 20
103.8942693262
  0
VERTEX
  8
0
 62
7
  6
CONTINUOUS
 10
159.4850161798
 20
103.9285504392
  0
VERTEX
  8
0
 62
7
  6
CONTINUOUS
 10
159.4170970883
 20
103.945680524
  0
SEQEND
  0
ARC
  8
0
 62
7
  6
CONTINUOUS
 10
54.6138062142
 20
169.6411023757
 40
6.2
 50
104.5147783931
 51
111.838
  0
ARC
  8
0
 62
7
  6
CONTINUOUS
 10
54.6138062142
 20
169.6411023757
 40
6.2
 50
88.058871156
 51
102.5279766092
  0
ARC
  8
0
 62
7
  6
CONTINUOUS
 10
57.7487124166
 20
166.1594363145
 40
6.2
 50
341.4720233908
 51
355.941128844
  0
ARC
  8
0
 62
7
  6
CONTINUOUS
 10
57.7487124166
 20
166.1594363145
 40
6.2
 50
332.162
 51
339.4852216069
  0
ARC
  8
0
 62
7
  6
CONTINUOUS
 10
54.7560711715
 20
173.8386922416
 40
2.0
 50
36.6723979408
 51
88.058871156
  0
ARC
  8
0
 62
7
  6
CONTINUOUS
 10
61.9381781834
 20
165.8621543113
 40
2.0
 50
355.941128844
 51
47.3276020592
  0
ARC
  8
0
 62
7
  6
CONTINUOUS
 10
50.8572649793
 20
175.6768609625
 40
0.8
 50
213.0354765661
 51
291.838
  0
ARC
  8
0
 62
7
  6
CONTINUOUS
 10
68.4953664534
 20
158.0605883963
 40
0.8
 50
237.0354765661
 51
315.838
  0
ARC
  8
0
 62
7
  6
CONTINUOUS
 10
63.3587410039
 20
161.7925652358
 40
0.8
 50
152.162
 51
230.9645234339
  0
ARC
  8
0
 62
7
  6
CONTINUOUS
 10
42.8860480589
 20
191.9023261179
 40
6.2
 50
80.5147783931
 51
87.838
  0
ARC
  8
0
 62
7
  6
CONTINUOUS
 10
42.8860480589
 20
191.9023261179
 40
6.2
 50
64.058871156
 51
78.5279766092
  0
ARC
  8
0
 62
7
  6
CONTINUOUS
 10
44.3338062142
 20
187.4465846775
 40
6.2
 50
317.4720233908
 51
331.941128844
  0
ARC
  8
0
 62
7
  6
CONTINUOUS
 10
44.3338062142
 20
187.4465846775
 40
6.2
 50
308.162
 51
315.4852216069
  0
ARC
  8
0
 62
7
  6
CONTINUOUS
 10
44.7233271754
 20
195.6791509018
 40
2.0
 50
12.6723979408
 51
64.058871156
  0
ARC
  8
0
 62
7
  6
CONTINUOUS
 10
48.0401581513
 20
185.4709948117
 40
2.0
 50
331.941128844
 51
23.3276020592
  0
ARC
  8
0
 62
7
  6
CONTINUOUS
 10
41.9092410633
 20
198.9441889298
 40
0.8
 50
189.0354765661
 51
267.838
  0
ARC
  8
0
 62
7
  6
CONTINUOUS
 10
41.2455670387
 20
205.2586254786
 40
0.8
 50
104.162
 51
182.9645234339
  0
ARC
  8
0
 62
7
  6
CONTINUOUS
 10
47.682655864
 20
181.1754452444
 40
0.8
 50
128.162
 51
206.9645234339
  0
ARC
  8
0
 62
7
  6
CONTINUOUS
 10
74.382101821
 20
154.0745715273
 40
6.2
 50
128.5147783931
 51
135.838
  0
ARC
  8
0
 62
7
  6
CONTINUOUS
 10
74.382101821
 20
154.0745715273
 40
6.2
 50
112.058871156
 51
126.5279766092
  0
ARC
  8
0
 62
7
  6
CONTINUOUS
 10
98.7728169795
 20
147.894328174
 40
6.2
 50
152.5147783931
 51
159.838
  0
ARC
  8
0
 62
7
  6
CONTINUOUS
 10
98.7728169795
 20
147.894328174
 40
6.2
 50
136.058871156
 51
150.5279766092
  0
ARC
  8
0
 62
7
  6
CONTINUOUS
 10
78.6621023084
 20
152.1689925372
 40
6.2
 50
5.4720233908
 51
19.941128844
  0
ARC
  8
0
 62
7
  6
CONTINUOUS
 10
78.6621023084
 20
152.1689925372
 40
6.2
 50
356.162
 51
3.4852216069
  0
ARC
  8
0
 62
7
  6
CONTINUOUS
 10
72.8047537154
 20
157.9671250535
 40
2.0
 50
60.6723979408
 51
112.058871156
  0
ARC
  8
0
 62
7
  6
CONTINUOUS
 10
95.7485936283
 20
150.808787493
 40
2.0
 50
84.6723979408
 51
136.058871156
  0
ARC
  8
0
 62
7
  6
CONTINUOUS
 10
82.6102852136
 20
153.6014211558
 40
2.0
 50
19.941128844
 51
71.3276020592
  0
ARC
  8
0
 62
7
  6
CONTINUOUS
 10
91.7737575036
 20
149.1413847966
 40
0.8
 50
261.0354765661
 51
339.838
  0
ARC
  8
0
 62
7
  6
CONTINUOUS
 10
85.5632849248
 20
150.4614614943
 40
0.8
 50
176.162
 51
254.9645234339
  0
ARC
  8
0
 62
7
  6
CONTINUOUS
 10
41.2266632834
 20
217.0090749321
 40
6.2
 50
56.5147783931
 51
63.838
  0
ARC
  8
0
 62
7
  6
CONTINUOUS
 10
41.2266632834
 20
217.0090749321
 40
6.2
 50
40.058871156
 51
54.5279766092
  0
ARC
  8
0
 62
7
  6
CONTINUOUS
 10
47.5800526878
 20
236.5627969071
 40
6.2
 50
269.4720233908
 51
283.941128844
  0
ARC
  8
0
 62
7
  6
CONTINUOUS
 10
47.5800526878
 20
236.5627969071
 40
6.2
 50
260.162
 51
267.4852216069
  0
ARC
  8
0
 62
7
  6
CONTINUOUS
 10
40.7369428541
 20
212.3496962867
 40
6.2
 50
293.4720233908
 51
307.941128844
  0
ARC
  8
0
 62
7
  6
CONTINUOUS
 10
40.7369428541
 20
212.3496962867
 40
6.2
 50
284.162
 51
291.4852216069
  0
ARC
  8
0
 62
7
  6
CONTINUOUS
 10
61.5173591358
 20
208.3590963139
 40
4.0
 50
75.0
 51
268.8461538462
  0
ARC
  8
0
 62
7
  6
CONTINUOUS
 10
44.4412743089
 20
219.7120873174
 40
2.0
 50
348.6723979408
 51
40.058871156
  0
ARC
  8
0
 62
7
  6
CONTINUOUS
 10
48.5919368208
 20
232.4865129988
 40
2.0
 50
283.941128844
 51
335.3276020592
  0
ARC
  8
0
 62
7
  6
CONTINUOUS
 10
43.3193190406
 20
209.0373959936
 40
2.0
 50
307.941128844
 51
359.3276020592
  0
ARC
  8
0
 62
7
  6
CONTINUOUS
 10
43.1984893307
 20
223.8394399155
 40
0.8
 50
165.0354765661
 51
243.838
  0
ARC
  8
0
 62
7
  6
CONTINUOUS
 10
45.160505665
 20
229.8779052871
 40
0.8
 50
80.162
 51
158.9645234339
  0
ARC
  8
0
 62
7
  6
CONTINUOUS
 10
67.4701799154
 20
258.6530211277
 40
6.2
 50
8.5147783931
 51
15.838
  0
ARC
  8
0
 62
7
  6
CONTINUOUS
 10
67.4701799154
 20
258.6530211277
 40
6.2
 50
352.058871156
 51
6.5279766092
  0
ARC
  8
0
 62
7
  6
CONTINUOUS
 10
49.9225745906
 20
240.6201638606
 40
6.2
 50
32.5147783931
 51
39.838
  0
ARC
  8
0
 62
7
  6
CONTINUOUS
 10
49.9225745906
 20
240.6201638606
 40
6.2
 50
16.058871156
 51
30.5279766092
  0
ARC
  8
0
 62
7
  6
CONTINUOUS
 10
63.6798998573
 20
255.8992214724
 40
6.2
 50
245.4720233908
 51
259.941128844
  0
ARC
  8
0
 62
7
  6
CONTINUOUS
 10
63.6798998573
 20
255.8992214724
 40
6.2
 50
236.162
 51
243.4852216069
  0
ARC
  8
0
 62
7
  6
CONTINUOUS
 10
53.9586820747
 20
241.7819884499
 40
2.0
 50
324.6723979408
 51
16.058871156
  0
ARC
  8
0
 62
7
  6
CONTINUOUS
 10
62.9463279776
 20
251.7637804685
 40
2.0
 50
259.941128844
 51
311.3276020592
  0
ARC
  8
0
 62
7
  6
CONTINUOUS
 10
54.5020870437
 20
246.057998858
 40
0.8
 50
141.0354765661
 51
219.838
  0
ARC
  8
0
 62
7
  6
CONTINUOUS
 10
58.7505432882
 20
250.7763875319
 40
0.8
 50
56.162
 51
134.9645234339
  0
ARC
  8
0
 62
7
  6
CONTINUOUS
 10
90.8353388823
 20
267.9896018885
 40
6.2
 50
344.5147783931
 51
351.838
  0
ARC
  8
0
 62
7
  6
CONTINUOUS
 10
90.8353388823
 20
267.9896018885
 40
6.2
 50
328.058871156
 51
342.5279766092
  0
ARC
  8
0
 62
7
  6
CONTINUOUS
 10
86.2526745245
 20
267.0155265093
 40
6.2
 50
221.4720233908
 51
235.941128844
  0
ARC
  8
0
 62
7
  6
CONTINUOUS
 10
86.2526745245
 20
267.0155265093
 40
6.2
 50
212.162
 51
219.4852216069
  0
ARC
  8
0
 62
7
  6
CONTINUOUS
 10
94.3994258621
 20
265.7676018885
 40
2.0
 50
276.6723979408
 51
328.058871156
  0
ARC
  8
0
 62
7
  6
CONTINUOUS
 10
71.6299042074
 20
258.0727678946
 40
2.0
 50
300.6723979408
 51
352.058871156
  0
ARC
  8
0
 62
7
  6
CONTINUOUS
 10
83.9004878744
 20
263.5359837286
 40
2.0
 50
235.941128844
 51
287.3276020592
  0
ARC
  8
0
 62
7
  6
CONTINUOUS
 10
97.940729767
 20
268.2249827349
 40
0.8
 50
93.0354765661
 51
171.838
  0
ARC
  8
0
 62
7
  6
CONTINUOUS
 10
73.8655394676
 20
261.7580750669
 40
0.8
 50
117.0354765661
 51
195.838
  0
ARC
  8
0
 62
7
  6
CONTINUOUS
 10
79.6658389417
 20
264.3405347761
 40
0.8
 50
32.162
 51
110.9645234339
  0
ARC
  8
0
 62
7
  6
CONTINUOUS
 10
123.5685754562
 20
152.1689925372
 40
6.2
 50
176.5147783931
 51
183.838
  0
ARC
  8
0
 62
7
  6
CONTINUOUS
 10
123.5685754562
 20
152.1689925372
 40
6.2
 50
160.058871156
 51
174.5279766092
  0
ARC
  8
0
 62
7
  6
CONTINUOUS
 10
103.4578607851
 20
147.894328174
 40
6.2
 50
29.4720233908
 51
43.941128844
  0
ARC
  8
0
 62
7
  6
CONTINUOUS
 10
103.4578607851
 20
147.894328174
 40
6.2
 50
20.162
 51
27.4852216069
  0
ARC
  8
0
 62
7
  6
CONTINUOUS
 10
127.8485759436
 20
154.0745715273
 40
6.2
 50
53.4720233908
 51
67.941128844
  0
ARC
  8
0
 62
7
  6
CONTINUOUS
 10
127.8485759436
 20
154.0745715273
 40
6.2
 50
44.162
 51
51.4852216069
  0
ARC
  8
0
 62
7
  6
CONTINUOUS
 10
101.1153388823
 20
168.7611165675
 40
4.0
 50
165.0
 51
358.8461538462
  0
ARC
  8
0
 62
7
  6
CONTINUOUS
 10
119.620392551
 20
153.6014211558
 40
2.0
 50
108.6723979408
 51
160.058871156
  0
ARC
  8
0
 62
7
  6
CONTINUOUS
 10
106.4820841362
 20
150.808787493
 40
2.0
 50
43.941128844
 51
95.3276020592
  0
ARC
  8
0
 62
7
  6
CONTINUOUS
 10
129.4259240491
 20
157.9671250535
 40
2.0
 50
67.941128844
 51
119.3276020592
  0
ARC
  8
0
 62
7
  6
CONTINUOUS
 10
116.6673928397
 20
150.4614614943
 40
0.8
 50
285.0354765661
 51
3.838
  0
ARC
  8
0
 62
7
  6
CONTINUOUS
 10
110.456920261
 20
149.1413847966
 40
0.8
 50
200.162
 51
278.9645234339
  0
ARC
  8
0
 62
7
  6
CONTINUOUS
 10
147.6168715504
 20
169.6411023757
 40
6.2
 50
68.162
 51
75.4852216069
  0
ARC
  8
0
 62
7
  6
CONTINUOUS
 10
147.6168715504
 20
169.6411023757
 40
6.2
 50
77.4720233908
 51
91.941128844
  0
ARC
  8
0
 62
7
  6
CONTINUOUS
 10
144.4819653479
 20
166.1594363145
 40
6.2
 50
200.5147783931
 51
207.838
  0
ARC
  8
0
 62
7
  6
CONTINUOUS
 10
144.4819653479
 20
166.1594363145
 40
6.2
 50
184.058871156
 51
198.5279766092
  0
ARC
  8
0
 62
7
  6
CONTINUOUS
 10
147.4746065931
 20
173.8386922416
 40
2.0
 50
91.941128844
 51
143.3276020592
  0
ARC
  8
0
 62
7
  6
CONTINUOUS
 10
140.2924995812
 20
165.8621543113
 40
2.0
 50
132.6723979408
 51
184.058871156
  0
ARC
  8
0
 62
7
  6
CONTINUOUS
 10
151.3734127852
 20
175.6768609625
 40
0.8
 50
248.162
 51
326.9645234339
  0
ARC
  8
0
 62
7
  6
CONTINUOUS
 10
138.8719367607
 20
161.7925652358
 40
0.8
 50
309.0354765661
 51
27.838
  0
ARC
  8
0
 62
7
  6
CONTINUOUS
 10
133.7353113112
 20
158.0605883963
 40
0.8
 50
224.162
 51
302.9645234339
  0
ARC
  8
0
 62
7
  6
CONTINUOUS
 10
159.3446297057
 20
191.9023261179
 40
6.2
 50
92.162
 51
99.4852216069
  0
ARC
  8
0
 62
7
  6
CONTINUOUS
 10
159.3446297057
 20
191.9023261179
 40
6.2
 50
101.4720233908
 51
115.941128844
  0
ARC
  8
0
 62
7
  6
CONTINUOUS
 10
157.8968715504
 20
187.4465846775
 40
6.2
 50
208.058871156
 51
222.5279766092
  0
ARC
  8
0
 62
7
  6
CONTINUOUS
 10
157.8968715504
 20
187.4465846775
 40
6.2
 50
224.5147783931
 51
231.838
  0
ARC
  8
0
 62
7
  6
CONTINUOUS
 10
157.5073505891
 20
195.6791509018
 40
2.0
 50
115.941128844
 51
167.3276020592
  0
ARC
  8
0
 62
7
  6
CONTINUOUS
 10
154.1905196132
 20
185.4709948117
 40
2.0
 50
156.6723979408
 51
208.058871156
  0
ARC
  8
0
 62
7
  6
CONTINUOUS
 10
160.3214367012
 20
198.9441889298
 40
0.8
 50
272.162
 51
350.9645234339
  0
ARC
  8
0
 62
7
  6
CONTINUOUS
 10
160.9851107258
 20
205.2586254786
 40
0.8
 50
357.0354765661
 51
75.838
  0
ARC
  8
0
 62
7
  6
CONTINUOUS
 10
154.5480219005
 20
181.1754452444
 40
0.8
 50
333.0354765661
 51
51.838
  0
ARC
  8
0
 62
7
  6
CONTINUOUS
 10
101.1153388823
 20
208.3590963139
 40
55.8
 50
96.6723979408
 51
107.3276020592
  0
ARC
  8
0
 62
7
  6
CONTINUOUS
 10
101.1153388823
 20
208.3590963139
 40
55.8
 50
72.6723979408
 51
83.3276020592
  0
ARC
  8
0
 62
7
  6
CONTINUOUS
 10
101.1153388823
 20
208.3590963139
 40
55.8
 50
120.6723979408
 51
131.3276020592
  0
ARC
  8
0
 62
7
  6
CONTINUOUS
 10
101.1153388823
 20
208.3590963139
 40
55.8
 50
144.6723979408
 51
155.3276020592
  0
ARC
  8
0
 62
7
  6
CONTINUOUS
 10
101.1153388823
 20
208.3590963139
 40
55.8
 50
168.6723979408
 51
179.3276020592
  0
ARC
  8
0
 62
7
  6
CONTINUOUS
 10
101.1153388823
 20
208.3590963139
 40
55.8
 50
192.6723979408
 51
203.3276020592
  0
ARC
  8
0
 62
7
  6
CONTINUOUS
 10
101.1153388823
 20
208.3590963139
 40
55.8
 50
48.6723979408
 51
59.3276020592
  0
ARC
  8
0
 62
7
  6
CONTINUOUS
 10
101.1153388823
 20
208.3590963139
 40
55.8
 50
216.6723979408
 51
227.3276020592
  0
ARC
  8
0
 62
7
  6
CONTINUOUS
 10
101.1153388823
 20
208.3590963139
 40
55.8
 50
240.6723979408
 51
251.3276020592
  0
ARC
  8
0
 62
7
  6
CONTINUOUS
 10
101.1153388823
 20
208.3590963139
 40
55.8
 50
24.6723979408
 51
35.3276020592
  0
ARC
  8
0
 62
7
  6
CONTINUOUS
 10
101.1153388823
 20
208.3590963139
 40
55.8
 50
264.6723979408
 51
275.3276020592
  0
ARC
  8
0
 62
7
  6
CONTINUOUS
 10
101.1153388823
 20
208.3590963139
 40
55.8
 50
288.6723979408
 51
299.3276020592
  0
ARC
  8
0
 62
7
  6
CONTINUOUS
 10
101.1153388823
 20
208.3590963139
 40
55.8
 50
0.6723979408
 51
11.3276020592
  0
ARC
  8
0
 62
7
  6
CONTINUOUS
 10
101.1153388823
 20
208.3590963139
 40
55.8
 50
312.6723979408
 51
323.3276020592
  0
ARC
  8
0
 62
7
  6
CONTINUOUS
 10
101.1153388823
 20
208.3590963139
 40
55.8
 50
336.6723979408
 51
347.3276020592
  0
CIRCLE
  8
1_AXIS
 62
7
  6
CONTINUOUS
 10
101.1153388823
 20
208.3590963139
 40
52.5
  0
ARC
  8
0
 62
7
  6
CONTINUOUS
 10
111.3953388823
 20
267.9896018885
 40
6.2
 50
197.4720233908
 51
211.941128844
  0
ARC
  8
0
 62
7
  6
CONTINUOUS
 10
111.3953388823
 20
267.9896018885
 40
6.2
 50
188.162
 51
195.4852216069
  0
ARC
  8
0
 62
7
  6
CONTINUOUS
 10
115.97800324
 20
267.0155265093
 40
6.2
 50
304.058871156
 51
318.5279766092
  0
ARC
  8
0
 62
7
  6
CONTINUOUS
 10
115.97800324
 20
267.0155265093
 40
6.2
 50
320.5147783931
 51
327.838
  0
ARC
  8
0
 62
7
  6
CONTINUOUS
 10
101.1153388823
 20
247.9570760604
 40
4.0
 50
345.0
 51
178.8461538462
  0
ARC
  8
0
 62
7
  6
CONTINUOUS
 10
107.8312519024
 20
265.7676018885
 40
2.0
 50
211.941128844
 51
263.3276020592
  0
ARC
  8
0
 62
7
  6
CONTINUOUS
 10
130.6007735572
 20
258.0727678946
 40
2.0
 50
187.941128844
 51
239.3276020592
  0
ARC
  8
0
 62
7
  6
CONTINUOUS
 10
118.3301898902
 20
263.5359837286
 40
2.0
 50
252.6723979408
 51
304.058871156
  0
ARC
  8
0
 62
7
  6
CONTINUOUS
 10
104.2899479976
 20
268.2249827349
 40
0.8
 50
8.162
 51
86.9645234339
  0
ARC
  8
0
 62
7
  6
CONTINUOUS
 10
128.365138297
 20
261.7580750669
 40
0.8
 50
344.162
 51
62.9645234339
  0
ARC
  8
0
 62
7
  6
CONTINUOUS
 10
122.5648388228
 20
264.3405347761
 40
0.8
 50
69.0354765661
 51
147.838
  0
ARC
  8
0
 62
7
  6
CONTINUOUS
 10
161.0040144811
 20
217.0090749321
 40
6.2
 50
116.162
 51
123.4852216069
  0
ARC
  8
0
 62
7
  6
CONTINUOUS
 10
161.0040144811
 20
217.0090749321
 40
6.2
 50
125.4720233908
 51
139.941128844
  0
ARC
  8
0
 62
7
  6
CONTINUOUS
 10
154.6506250768
 20
236.5627969071
 40
6.2
 50
256.058871156
 51
270.5279766092
  0
ARC
  8
0
 62
7
  6
CONTINUOUS
 10
154.6506250768
 20
236.5627969071
 40
6.2
 50
272.5147783931
 51
279.838
  0
ARC
  8
0
 62
7
  6
CONTINUOUS
 10
161.4937349105
 20
212.3496962867
 40
6.2
 50
232.058871156
 51
246.5279766092
  0
ARC
  8
0
 62
7
  6
CONTINUOUS
 10
161.4937349105
 20
212.3496962867
 40
6.2
 50
248.5147783931
 51
255.838
  0
ARC
  8
0
 62
7
  6
CONTINUOUS
 10
140.7133186287
 20
208.3590963139
 40
4.0
 50
255.0
 51
88.8461538462
  0
ARC
  8
0
 62
7
  6
CONTINUOUS
 10
157.7894034557
 20
219.7120873174
 40
2.0
 50
139.941128844
 51
191.3276020592
  0
ARC
  8
0
 62
7
  6
CONTINUOUS
 10
153.6387409438
 20
232.4865129988
 40
2.0
 50
204.6723979408
 51
256.058871156
  0
ARC
  8
0
 62
7
  6
CONTINUOUS
 10
158.911358724
 20
209.0373959936
 40
2.0
 50
180.6723979408
 51
232.058871156
  0
ARC
  8
0
 62
7
  6
CONTINUOUS
 10
159.0321884338
 20
223.8394399155
 40
0.8
 50
296.162
 51
14.9645234339
  0
ARC
  8
0
 62
7
  6
CONTINUOUS
 10
157.0701720996
 20
229.8779052871
 40
0.8
 50
21.0354765661
 51
99.838
  0
ARC
  8
0
 62
7
  6
CONTINUOUS
 10
134.7604978492
 20
258.6530211277
 40
6.2
 50
164.162
 51
171.4852216069
  0
ARC
  8
0
 62
7
  6
CONTINUOUS
 10
134.7604978492
 20
258.6530211277
 40
6.2
 50
173.4720233908
 51
187.941128844
  0
ARC
  8
0
 62
7
  6
CONTINUOUS
 10
152.308103174
 20
240.6201638606
 40
6.2
 50
140.162
 51
147.4852216069
  0
ARC
  8
0
 62
7
  6
CONTINUOUS
 10
152.308103174
 20
240.6201638606
 40
6.2
 50
149.4720233908
 51
163.941128844
  0
ARC
  8
0
 62
7
  6
CONTINUOUS
 10
138.5507779073
 20
255.8992214724
 40
6.2
 50
280.058871156
 51
294.5279766092
  0
ARC
  8
0
 62
7
  6
CONTINUOUS
 10
138.5507779073
 20
255.8992214724
 40
6.2
 50
296.5147783931
 51
303.838
  0
ARC
  8
0
 62
7
  6
CONTINUOUS
 10
148.2719956898
 20
241.7819884499
 40
2.0
 50
163.941128844
 51
215.3276020592
  0
ARC
  8
0
 62
7
  6
CONTINUOUS
 10
139.284349787
 20
251.7637804685
 40
2.0
 50
228.6723979408
 51
280.058871156
  0
ARC
  8
0
 62
7
  6
CONTINUOUS
 10
147.7285907209
 20
246.057998858
 40
0.8
 50
320.162
 51
38.9645234339
  0
ARC
  8
0
 62
7
  6
CONTINUOUS
 10
143.4801344764
 20
250.7763875319
 40
0.8
 50
45.0354765661
 51
123.838
  0
ARC
  8
1_AXIS
 62
7
  6
CONTINUOUS
 10
151.6153388823
 20
110.6604488704
 40
2.0
 50
0.0
 51
90.0
  0
ARC
  8
1_AXIS
 62
7
  6
CONTINUOUS
 10
151.6153388823
 20
89.6604488704
 40
2.0
 50
270.0
 51
360.0
  0
ARC
  8
1_AXIS
 62
7
  6
CONTINUOUS
 10
50.6153388823
 20
110.6604488704
 40
2.0
 50
90.0
 51
180.0
  0
ARC
  8
1_AXIS
 62
7
  6
CONTINUOUS
 10
50.6153388823
 20
89.6604488704
 40
2.0
 50
180.0
 51
270.0
  0
ARC
  8
1_AXIS
 62
7
  6
CONTINUOUS
 10
154.6153388823
 20
105.1604488704
 40
1.0
 50
180.0
 51
270.0
  0
ARC
  8
1_AXIS
 62
7
  6
CONTINUOUS
 10
154.6153388823
 20
95.1604488704
 40
1.0
 50
90.0
 51
180.0
  0
ARC
  8
1_AXIS
 62
7
  6
CONTINUOUS
 10
47.6153388823
 20
105.1604488704
 40
1.0
 50
270.0
 51
360.0
  0
ARC
  8
1_AXIS
 62
7
  6
CONTINUOUS
 10
47.6153388823
 20
95.1604488704
 40
1.0
 50
0.0
 51
90.0
  0
ENDSEC
  0
EOF
