  0
SECTION
  2
HEADER
  9
$EXTMAX
 10
210.0
 20
297.0
 30
0.0
  9
$EXTMIN
 10
0.0
 20
0.0
 30
0.0
  9
$LIMMIN
 10
0.0
 20
0.0
  9
$LIMMAX
 10
210.0
 20
297.0
  9
$VIEWCTR
 10
105.0
 20
148.5
  9
$VIEWSIZE
 40
297.0
  9
$CLAYER
  8
0
  9
$LTSCALE
 40
19.36
  9
$CELTYPE
  6
BYLAYER
  9
$DIMSCALE
 40
1.0
  9
$DIMASZ
 40
3.5
  9
$DIMEXO
 40
1.0
  9
$DIMDLI
 40
13.376
  9
$DIMEXE
 40
2.0
  9
$DIMCEN
 40
3.168
  9
$DIMLFAC
 40
1.0
  9
$DIMBLK
  1
_FILLED
  9
$DIMALT
 70
0
  9
$DIMALTF
 40
0.0393700787
  9
$DIMTXT
 40
3.5
  9
$AUNITS
 70
0
  9
$PDMODE
 70
3
  9
$PDSIZE
 40
0.3125
  9
$TILEMODE
 70
1
  0
ENDSEC
  0
SECTION
  2
TABLES
  0
TABLE
  2
LTYPE
 70
6
  0
LTYPE
  2
BYBLOCK
 70
0
  3

 72
65
 73
0
 40
0.0
  0
LTYPE
  2
BYLAYER
 70
0
  3

 72
65
 73
0
 40
0.0
  0
LTYPE
  2
CONTINUOUS
 70
64
  3
Solid line
 72
65
 73
0
 40
0.0
  0
LTYPE
  2
CENTER
 70
64
  3
____ _ ____ _ ____ _ ____ _ ____ _ ____ _ ____
 72
65
 73
4
 40
0.6
 49
0.375
 49
-0.075
 49
0.075
 49
-0.075
  0
LTYPE
  2
HIDDEN
 70
64
  3
- - - - - - - - - - - - - - - - - - - -
 72
65
 73
2
 40
0.2
 49
0.1
 49
-0.1
  0
LTYPE
  2
PHANTOM
 70
64
  3
_____ _ _ _____ _ _ _____ _ _ _____
 72
65
 73
6
 40
0.8
 49
0.45
 49
-0.05
 49
0.1
 49
-0.05
 49
0.1
 49
-0.05
  0
LTYPE
  2
DOT
 70
64
  3
. . . . . . . . . . . . . . . . . . . .
 72
65
 73
2
 40
0.2
 49
0.1
 49
-0.1
  0
LTYPE
  2
DASHED
 70
64
  3
- - - - - - - - - - - - - - - - - - - -
 72
65
 73
2
 40
0.2
 49
0.1
 49
-0.1
  0
ENDTAB
  0
TABLE
  2
LAYER
 70
36
  0
LAYER
  2
0
 70
0
 62
7
  6
CONTINUOUS
  0
LAYER
  2
DEFAULT_1
 70
0
 62
7
  6
CENTER
  0
LAYER
  2
DEFAULT_2
 70
0
 62
8
  6
HIDDEN
  0
LAYER
  2
DEFAULT_3
 70
0
 62
7
  6
PHANTOM
  0
LAYER
  2
1_AXIS
 70
0
 62
7
  6
CONTINUOUS
  0
LAYER
  2
1_CSYS
 70
0
 62
7
  6
CONTINUOUS
  0
LAYER
  2
1_DATUM_PLANE
 70
0
 62
7
  6
CONTINUOUS
  0
LAYER
  2
2_FEATURE
 70
0
 62
7
  6
CONTINUOUS
  0
LAYER
  2
6_DIM
 70
0
 62
7
  6
CONTINUOUS
  0
LAYER
  2
AXES
 70
0
 62
7
  6
CONTINUOUS
  0
LAYER
  2
CSYS
 70
0
 62
7
  6
CONTINUOUS
  0
LAYER
  2
PITCH
 70
0
 62
7
  6
CONTINUOUS
  0
LAYER
  2
PLANES
 70
0
 62
7
  6
CONTINUOUS
  0
LAYER
  2
QUILTS
 70
0
 62
7
  6
CONTINUOUS
  0
LAYER
  2
SQ
 70
0
 62
7
  6
CONTINUOUS
  0
ENDTAB
  0
TABLE
  2
STYLE
 70
1
  0
STYLE
  2
STANDARD
 70
0
 40
0.0
 41
0.8
 50
0.0
 71
0
 42
0.2
  3
txt
  4

  0
STYLE
  2
TEXTSTYLE_1
 70
0
 40
0.0
 41
0.8
 50
0.0
 71
0
 42
0.2
  3
gdt
  4

  0
STYLE
  2
TEXTSTYLE_2
 70
0
 40
0.0
 41
0.6
 50
0.0
 71
0
 42
0.2
  3
txt
  4

  0
STYLE
  2
TEXTSTYLE_3
 70
0
 40
0.0
 41
1.0
 50
0.0
 71
0
 42
0.2
  3
ftb_____.ttf
  4

  0
STYLE
  2
TEXTSTYLE_4
 70
0
 40
0.0
 41
1.0
 50
0.0
 71
0
 42
0.2
  3
fti_____.ttf
  4

  0
STYLE
  2
TEXTSTYLE_5
 70
0
 40
0.0
 41
1.0
 50
0.0
 71
0
 42
0.2
  3
frutiger light.ttf
  4

  0
STYLE
  2
TEXTSTYLE_6
 70
0
 40
0.0
 41
0.7
 50
0.0
 71
0
 42
0.2
  3
txt
  4

  0
STYLE
  2
TEXTSTYLE_7
 70
0
 40
0.0
 41
0.5
 50
0.0
 71
0
 42
0.2
  3
txt
  4

  0
ENDTAB
  0
ENDSEC
  0
SECTION
  2
BLOCKS
  0
BLOCK
  8
0
 62
2
  6
CONTINUOUS
  2
UNI_LOGO2_BL1
 70
64
 10
173.5956734183
 20
35.5937998301
  0
TEXT
  8
0
 62
7
  6
CONTINUOUS
 10
164.6539584268
 20
30.6865562072
  7
TEXTSTYLE_4
 40
1.0655737705
  1
The brand for plastic modular belts and chains
 41
1.0
 72
0
  0
LINE
  8
0
 62
7
  6
CONTINUOUS
 10
149.5737418074
 20
36.1675703219
 11
149.5737418074
 21
34.0364227809
  0
LINE
  8
0
 62
7
  6
CONTINUOUS
 10
149.8628043005
 20
31.0454914852
 11
149.8628043005
 21
31.1422825445
  0
LINE
  8
0
 62
7
  6
CONTINUOUS
 10
149.5737418074
 20
31.1100188581
 11
149.6315543091
 21
30.9164367395
  0
LINE
  8
0
 62
7
  6
CONTINUOUS
 10
150.9671844304
 20
33.9544555678
 11
150.9671844304
 21
36.1675703219
  0
LINE
  8
0
 62
7
  6
CONTINUOUS
 10
151.8862417523
 20
32.1101932727
 11
151.8862417523
 21
30.5937998301
  0
LINE
  8
0
 62
7
  6
CONTINUOUS
 10
152.1753043074
 20
30.5937998301
 11
152.1753043074
 21
31.3358647082
  0
LINE
  8
0
 62
7
  6
CONTINUOUS
 10
152.1753043074
 20
31.4649194539
 11
152.1753043074
 21
32.1101932727
  0
LINE
  8
0
 62
7
  6
CONTINUOUS
 10
149.6315543091
 20
31.3036010218
 11
149.5737418074
 21
31.1100188581
  0
LINE
  8
0
 62
7
  6
CONTINUOUS
 10
149.9784292936
 20
30.8841730531
 11
149.8628043005
 21
31.0454914852
  0
LINE
  8
0
 62
7
  6
CONTINUOUS
 10
151.0768668626
 20
31.400392081
 11
151.1346793074
 21
31.3036010218
  0
LINE
  8
0
 62
7
  6
CONTINUOUS
 10
151.4237418626
 20
31.3036010218
 11
151.3659292523
 21
31.4326557675
  0
LINE
  8
0
 62
7
  6
CONTINUOUS
 10
152.852430332
 20
36.1675703219
 11
152.852430332
 21
34.3642916334
  0
LINE
  8
0
 62
7
  6
CONTINUOUS
 10
152.852430332
 20
33.0528162235
 11
152.852430332
 21
32.3970785186
  0
LINE
  8
0
 62
7
  6
CONTINUOUS
 10
153.2159293074
 20
31.2390736489
 11
153.2159293074
 21
30.5937998301
  0
LINE
  8
0
 62
7
  6
CONTINUOUS
 10
153.5049916972
 20
30.5937998301
 11
153.5049916972
 21
31.2390736489
  0
LINE
  8
0
 62
7
  6
CONTINUOUS
 10
149.8628043005
 20
31.1422825445
 11
149.9206168074
 21
31.2713373354
  0
LINE
  8
0
 62
7
  6
CONTINUOUS
 10
149.6315543091
 20
30.9164367395
 11
149.7471793074
 21
30.7873819712
  0
LINE
  8
0
 62
7
  6
CONTINUOUS
 10
153.1581166972
 20
31.3681283946
 11
153.2159293074
 21
31.2390736489
  0
LINE
  8
0
 62
7
  6
CONTINUOUS
 10
153.9674919177
 20
30.8841730531
 11
154.0253041972
 21
30.7551182848
  0
LINE
  8
0
 62
7
  6
CONTINUOUS
 10
153.5049916972
 20
31.2390736489
 11
153.4471794177
 21
31.400392081
  0
LINE
  8
0
 62
7
  6
CONTINUOUS
 10
153.9674919177
 20
31.4326557675
 11
153.9674919177
 21
31.3681283946
  0
LINE
  8
0
 62
7
  6
CONTINUOUS
 10
153.9674919177
 20
30.9809641124
 11
153.9674919177
 21
30.8841730531
  0
LINE
  8
0
 62
7
  6
CONTINUOUS
 10
154.245872955
 20
32.3970785186
 11
154.245872955
 21
36.1675703219
  0
LINE
  8
0
 62
7
  6
CONTINUOUS
 10
154.2565543074
 20
30.8519093441
 11
154.2565543074
 21
30.9164367395
  0
LINE
  8
0
 62
7
  6
CONTINUOUS
 10
154.5737418074
 20
36.1675703219
 11
154.5737418074
 21
32.3970785186
  0
LINE
  8
0
 62
7
  6
CONTINUOUS
 10
151.3659292523
 20
30.7873819712
 11
151.4237418626
 21
30.9164367395
  0
LINE
  8
0
 62
7
  6
CONTINUOUS
 10
155.759679528
 20
30.6905909007
 11
155.7018665869
 21
30.8519093441
  0
LINE
  8
0
 62
7
  6
CONTINUOUS
 10
155.412804528
 20
31.3681283946
 11
155.412804528
 21
31.2713373354
  0
LINE
  8
0
 62
7
  6
CONTINUOUS
 10
155.412804528
 20
31.1422825445
 11
155.412804528
 21
30.9487004259
  0
LINE
  8
0
 62
7
  6
CONTINUOUS
 10
155.7018665869
 20
30.8519093441
 11
155.7018665869
 21
31.3681283946
  0
LINE
  8
0
 62
7
  6
CONTINUOUS
 10
155.9671844304
 20
32.3970785186
 11
155.9671844304
 21
34.2003572071
  0
LINE
  8
0
 62
7
  6
CONTINUOUS
 10
155.9671844304
 20
35.511832617
 11
155.9671844304
 21
36.1675703219
  0
LINE
  8
0
 62
7
  6
CONTINUOUS
 10
156.279992028
 20
32.1101932727
 11
156.279992028
 21
31.9488748406
  0
LINE
  8
0
 62
7
  6
CONTINUOUS
 10
156.279992028
 20
31.626237886
 11
156.279992028
 21
30.5937998301
  0
LINE
  8
0
 62
7
  6
CONTINUOUS
 10
156.5690540869
 20
30.5937998301
 11
156.5690540869
 21
31.626237886
  0
LINE
  8
0
 62
7
  6
CONTINUOUS
 10
156.5690540869
 20
31.9488748406
 11
156.5690540869
 21
32.1101932727
  0
LINE
  8
0
 62
7
  6
CONTINUOUS
 10
151.1346793074
 20
30.9164367395
 11
151.0768668626
 21
30.8196456577
  0
LINE
  8
0
 62
7
  6
CONTINUOUS
 10
153.4471794177
 20
31.400392081
 11
153.3893668074
 21
31.4649194539
  0
LINE
  8
0
 62
7
  6
CONTINUOUS
 10
154.3143669177
 20
30.7873819712
 11
154.2565543074
 21
30.8519093441
  0
LINE
  8
0
 62
7
  6
CONTINUOUS
 10
155.4706168074
 20
30.6583272086
 11
155.5284290869
 21
30.5937998301
  0
LINE
  8
0
 62
7
  6
CONTINUOUS
 10
155.412804528
 20
30.7551182848
 11
155.4706168074
 21
30.6583272086
  0
LINE
  8
0
 62
7
  6
CONTINUOUS
 10
155.8174918074
 20
30.5937998301
 11
155.759679528
 21
30.6905909007
  0
LINE
  8
0
 62
7
  6
CONTINUOUS
 10
155.7018665869
 20
31.3681283946
 11
155.6440543074
 21
31.4649194539
  0
LINE
  8
0
 62
7
  6
CONTINUOUS
 10
157.0315543074
 20
31.626237886
 11
157.0315543074
 21
30.5937998301
  0
LINE
  8
0
 62
7
  6
CONTINUOUS
 10
157.320617028
 20
30.5937998301
 11
157.320617028
 21
31.3358647082
  0
LINE
  8
0
 62
7
  6
CONTINUOUS
 10
157.320617028
 20
31.4649194539
 11
157.320617028
 21
31.626237886
  0
LINE
  8
0
 62
7
  6
CONTINUOUS
 10
157.852430332
 20
34.6101932727
 11
157.852430332
 21
32.3970785186
  0
LINE
  8
0
 62
7
  6
CONTINUOUS
 10
149.7471793074
 20
31.4326557675
 11
149.6315543091
 21
31.3036010218
  0
LINE
  8
0
 62
7
  6
CONTINUOUS
 10
149.9206168074
 20
31.2713373354
 11
149.9784292936
 21
31.3358647082
  0
LINE
  8
0
 62
7
  6
CONTINUOUS
 10
149.7471793074
 20
30.7873819712
 11
149.8628043005
 21
30.7228545871
  0
LINE
  8
0
 62
7
  6
CONTINUOUS
 10
150.1518667936
 20
30.7873819712
 11
149.9784292936
 21
30.8841730531
  0
LINE
  8
0
 62
7
  6
CONTINUOUS
 10
155.3549915869
 20
31.4326557675
 11
155.412804528
 21
31.3681283946
  0
LINE
  8
0
 62
7
  6
CONTINUOUS
 10
158.3034290869
 20
31.3681283946
 11
158.361242028
 21
31.2068099625
  0
LINE
  8
0
 62
7
  6
CONTINUOUS
 10
158.6503040869
 20
31.2068099625
 11
158.5924918074
 21
31.3681283946
  0
LINE
  8
0
 62
7
  6
CONTINUOUS
 10
158.361242028
 20
31.2068099625
 11
158.361242028
 21
30.5937998301
  0
LINE
  8
0
 62
7
  6
CONTINUOUS
 10
158.6503040869
 20
30.5937998301
 11
158.6503040869
 21
31.2068099625
  0
LINE
  8
0
 62
7
  6
CONTINUOUS
 10
159.1128043074
 20
31.4326557675
 11
159.1128043074
 21
31.3681283946
  0
LINE
  8
0
 62
7
  6
CONTINUOUS
 10
159.245872955
 20
32.3970785186
 11
159.245872955
 21
34.5282260596
  0
LINE
  8
0
 62
7
  6
CONTINUOUS
 10
159.5737418074
 20
36.1675703219
 11
159.5737418074
 21
32.3970785186
  0
LINE
  8
0
 62
7
  6
CONTINUOUS
 10
154.2565543074
 20
30.9164367395
 11
154.3143669177
 21
31.0132277988
  0
LINE
  8
0
 62
7
  6
CONTINUOUS
 10
149.8628043005
 20
30.7228545871
 11
150.0362418212
 21
30.6583272086
  0
LINE
  8
0
 62
7
  6
CONTINUOUS
 10
151.3659292523
 20
31.4326557675
 11
151.1924917523
 21
31.5294468267
  0
LINE
  8
0
 62
7
  6
CONTINUOUS
 10
154.0253041972
 20
30.7551182848
 11
154.1987416972
 21
30.6583272086
  0
LINE
  8
0
 62
7
  6
CONTINUOUS
 10
153.0424918074
 20
31.4326557675
 11
153.1581166972
 21
31.3681283946
  0
LINE
  8
0
 62
7
  6
CONTINUOUS
 10
153.3893668074
 20
31.4649194539
 11
153.2737419177
 21
31.5294468267
  0
LINE
  8
0
 62
7
  6
CONTINUOUS
 10
159.1128043074
 20
30.8519093441
 11
159.228429528
 21
30.7228545871
  0
LINE
  8
0
 62
7
  6
CONTINUOUS
 10
159.4596793074
 20
30.7873819712
 11
159.401867028
 21
30.8519093441
  0
LINE
  8
0
 62
7
  6
CONTINUOUS
 10
159.1128043074
 20
31.3681283946
 11
159.228429528
 21
31.2390736489
  0
LINE
  8
0
 62
7
  6
CONTINUOUS
 10
158.5924918074
 20
31.3681283946
 11
158.534679528
 21
31.4649194539
  0
LINE
  8
0
 62
7
  6
CONTINUOUS
 10
160.9628038663
 20
30.7873819712
 11
160.9628038663
 21
30.8519093441
  0
LINE
  8
0
 62
7
  6
CONTINUOUS
 10
160.9671844304
 20
32.3970785186
 11
160.9671844304
 21
36.1675703219
  0
LINE
  8
0
 62
7
  6
CONTINUOUS
 10
154.0253041972
 20
31.4971831403
 11
153.9674919177
 21
31.4326557675
  0
LINE
  8
0
 62
7
  6
CONTINUOUS
 10
150.9034292799
 20
31.4649194539
 11
151.0768668626
 21
31.400392081
  0
LINE
  8
0
 62
7
  6
CONTINUOUS
 10
155.6440543074
 20
31.4649194539
 11
155.5284290869
 21
31.5294468267
  0
LINE
  8
0
 62
7
  6
CONTINUOUS
 10
159.4596793074
 20
31.3036010218
 11
159.401867028
 21
31.3681283946
  0
LINE
  8
0
 62
7
  6
CONTINUOUS
 10
160.615929528
 20
30.9164367395
 11
160.6737418074
 21
30.8519093441
  0
LINE
  8
0
 62
7
  6
CONTINUOUS
 10
160.9628038663
 20
30.8519093441
 11
160.8471793074
 21
30.9809641124
  0
LINE
  8
0
 62
7
  6
CONTINUOUS
 10
160.615929528
 20
31.4326557675
 11
160.6737418074
 21
31.3681283946
  0
LINE
  8
0
 62
7
  6
CONTINUOUS
 10
160.9628038663
 20
31.3681283946
 11
160.8471793074
 21
31.4971831403
  0
LINE
  8
0
 62
7
  6
CONTINUOUS
 10
154.2565543074
 20
31.3681283946
 11
154.3143669177
 21
31.4326557675
  0
LINE
  8
0
 62
7
  6
CONTINUOUS
 10
154.0831168074
 20
31.1100188581
 11
153.9674919177
 21
30.9809641124
  0
LINE
  8
0
 62
7
  6
CONTINUOUS
 10
155.412804528
 20
30.9487004259
 11
155.3549915869
 21
30.8841730531
  0
LINE
  8
0
 62
7
  6
CONTINUOUS
 10
155.3549915869
 20
30.6905909007
 11
155.412804528
 21
30.7551182848
  0
LINE
  8
0
 62
7
  6
CONTINUOUS
 10
154.1987416972
 20
30.6583272086
 11
154.3143669177
 21
30.6260635193
  0
LINE
  8
0
 62
7
  6
CONTINUOUS
 10
151.1924917523
 20
31.5294468267
 11
150.9612418074
 21
31.5939741996
  0
LINE
  8
0
 62
7
  6
CONTINUOUS
 10
154.5456166972
 20
30.7228545871
 11
154.3143669177
 21
30.7873819712
  0
LINE
  8
0
 62
7
  6
CONTINUOUS
 10
153.2737419177
 20
31.5294468267
 11
153.1003044177
 21
31.5939741996
  0
LINE
  8
0
 62
7
  6
CONTINUOUS
 10
155.5284290869
 20
31.5294468267
 11
155.3549915869
 21
31.5939741996
  0
LINE
  8
0
 62
7
  6
CONTINUOUS
 10
158.187804528
 20
31.4326557675
 11
158.3034290869
 21
31.3681283946
  0
LINE
  8
0
 62
7
  6
CONTINUOUS
 10
158.534679528
 20
31.4649194539
 11
158.4190543074
 21
31.5294468267
  0
LINE
  8
0
 62
7
  6
CONTINUOUS
 10
150.0362418212
 20
30.6583272086
 11
150.2096793212
 21
30.6260635193
  0
LINE
  8
0
 62
7
  6
CONTINUOUS
 10
150.498741835
 20
30.7228545871
 11
150.1518667936
 21
30.7873819712
  0
LINE
  8
0
 62
7
  6
CONTINUOUS
 10
152.9268669177
 20
31.4649194539
 11
153.0424918074
 21
31.4326557675
  0
LINE
  8
0
 62
7
  6
CONTINUOUS
 10
155.239367028
 20
31.4649194539
 11
155.3549915869
 21
31.4326557675
  0
LINE
  8
0
 62
7
  6
CONTINUOUS
 10
159.575304528
 20
30.7551182848
 11
159.4596793074
 21
30.7873819712
  0
LINE
  8
0
 62
7
  6
CONTINUOUS
 10
158.0721793074
 20
31.4649194539
 11
158.187804528
 21
31.4326557675
  0
LINE
  8
0
 62
7
  6
CONTINUOUS
 10
159.228429528
 20
30.7228545871
 11
159.401867028
 21
30.6583272086
  0
LINE
  8
0
 62
7
  6
CONTINUOUS
 10
158.4190543074
 20
31.5294468267
 11
158.2456168074
 21
31.5939741996
  0
LINE
  8
0
 62
7
  6
CONTINUOUS
 10
159.6331168074
 20
31.2390736489
 11
159.4596793074
 21
31.3036010218
  0
LINE
  8
0
 62
7
  6
CONTINUOUS
 10
160.442492028
 20
30.9809641124
 11
160.615929528
 21
30.9164367395
  0
LINE
  8
0
 62
7
  6
CONTINUOUS
 10
160.8471793074
 20
31.4971831403
 11
160.6737418074
 21
31.5617105132
  0
LINE
  8
0
 62
7
  6
CONTINUOUS
 10
159.228429528
 20
31.2390736489
 11
159.4596793074
 21
31.1422825445
  0
LINE
  8
0
 62
7
  6
CONTINUOUS
 10
160.8471793074
 20
30.9809641124
 11
160.615929528
 21
31.0777551716
  0
LINE
  8
0
 62
7
  6
CONTINUOUS
 10
159.401867028
 20
31.3681283946
 11
159.4596793074
 21
31.4326557675
  0
LINE
  8
0
 62
7
  6
CONTINUOUS
 10
149.8628043005
 20
31.4971831403
 11
149.7471793074
 21
31.4326557675
  0
LINE
  8
0
 62
7
  6
CONTINUOUS
 10
149.9784292936
 20
31.3358647082
 11
150.1518667936
 21
31.4326557675
  0
LINE
  8
0
 62
7
  6
CONTINUOUS
 10
152.2909293626
 20
31.5294468267
 11
152.1753043074
 21
31.4649194539
  0
LINE
  8
0
 62
7
  6
CONTINUOUS
 10
152.1753043074
 20
31.3358647082
 11
152.2909293626
 21
31.400392081
  0
LINE
  8
0
 62
7
  6
CONTINUOUS
 10
151.1924917523
 20
30.6905909007
 11
151.3659292523
 21
30.7873819712
  0
LINE
  8
0
 62
7
  6
CONTINUOUS
 10
150.2096793212
 20
30.6260635193
 11
150.5565542799
 21
30.5937998301
  0
LINE
  8
0
 62
7
  6
CONTINUOUS
 10
154.3143669177
 20
30.6260635193
 11
154.5456166972
 21
30.5937998301
  0
LINE
  8
0
 62
7
  6
CONTINUOUS
 10
152.6956168074
 20
31.4971831403
 11
152.9268669177
 21
31.4649194539
  0
LINE
  8
0
 62
7
  6
CONTINUOUS
 10
155.0081169177
 20
31.4971831403
 11
155.239367028
 21
31.4649194539
  0
LINE
  8
0
 62
7
  6
CONTINUOUS
 10
159.4596793074
 20
31.1422825445
 11
160.442492028
 21
30.9809641124
  0
LINE
  8
0
 62
7
  6
CONTINUOUS
 10
160.615929528
 20
31.0777551716
 11
159.6331168074
 21
31.2390736489
  0
LINE
  8
0
 62
7
  6
CONTINUOUS
 10
153.1003044177
 20
31.5939741996
 11
152.9268669177
 21
31.626237886
  0
LINE
  8
0
 62
7
  6
CONTINUOUS
 10
159.401867028
 20
30.6583272086
 11
159.575304528
 21
30.6260635193
  0
LINE
  8
0
 62
7
  6
CONTINUOUS
 10
158.2456168074
 20
31.5939741996
 11
158.0721793074
 21
31.626237886
  0
LINE
  8
0
 62
7
  6
CONTINUOUS
 10
160.5003043074
 20
31.4649194539
 11
160.615929528
 21
31.4326557675
  0
LINE
  8
0
 62
7
  6
CONTINUOUS
 10
160.6737418074
 20
30.8519093441
 11
160.615929528
 21
30.7873819712
  0
LINE
  8
0
 62
7
  6
CONTINUOUS
 10
159.228429528
 20
31.5294468267
 11
159.1128043074
 21
31.4326557675
  0
LINE
  8
0
 62
7
  6
CONTINUOUS
 10
154.1409294177
 20
31.5617105132
 11
154.0253041972
 21
31.4971831403
  0
LINE
  8
0
 62
7
  6
CONTINUOUS
 10
154.1987416972
 20
31.1745462761
 11
154.0831168074
 21
31.1100188581
  0
LINE
  8
0
 62
7
  6
CONTINUOUS
 10
154.3143669177
 20
31.0132277988
 11
154.4299918074
 21
31.0777551716
  0
LINE
  8
0
 62
7
  6
CONTINUOUS
 10
151.8862417523
 20
30.5937998301
 11
152.1753043074
 21
30.5937998301
  0
LINE
  8
0
 62
7
  6
CONTINUOUS
 10
153.2159293074
 20
30.5937998301
 11
153.5049916972
 21
30.5937998301
  0
LINE
  8
0
 62
7
  6
CONTINUOUS
 10
154.5456166972
 20
30.5937998301
 11
154.8924916972
 21
30.5937998301
  0
LINE
  8
0
 62
7
  6
CONTINUOUS
 10
155.5284290869
 20
30.5937998301
 11
155.8174918074
 21
30.5937998301
  0
LINE
  8
0
 62
7
  6
CONTINUOUS
 10
156.279992028
 20
30.5937998301
 11
156.5690540869
 21
30.5937998301
  0
LINE
  8
0
 62
7
  6
CONTINUOUS
 10
157.0315543074
 20
30.5937998301
 11
157.320617028
 21
30.5937998301
  0
LINE
  8
0
 62
7
  6
CONTINUOUS
 10
158.361242028
 20
30.5937998301
 11
158.6503040869
 21
30.5937998301
  0
LINE
  8
0
 62
7
  6
CONTINUOUS
 10
159.922179528
 20
30.5937998301
 11
160.269054528
 21
30.5937998301
  0
LINE
  8
0
 62
7
  6
CONTINUOUS
 10
160.269054528
 20
30.7228545871
 11
159.922179528
 21
30.7228545871
  0
LINE
  8
0
 62
7
  6
CONTINUOUS
 10
154.8924916972
 20
30.7228545871
 11
154.5456166972
 21
30.7228545871
  0
LINE
  8
0
 62
7
  6
CONTINUOUS
 10
159.401867028
 20
30.8519093441
 11
159.1128043074
 21
30.8519093441
  0
LINE
  8
0
 62
7
  6
CONTINUOUS
 10
151.4237418626
 20
30.9164367395
 11
151.1346793074
 21
30.9164367395
  0
LINE
  8
0
 62
7
  6
CONTINUOUS
 10
150.498741835
 20
31.4971831403
 11
150.9034292799
 21
31.4649194539
  0
LINE
  8
0
 62
7
  6
CONTINUOUS
 10
150.9612418074
 20
31.5939741996
 11
150.5565542799
 21
31.626237886
  0
LINE
  8
0
 62
7
  6
CONTINUOUS
 10
159.575304528
 20
30.6260635193
 11
159.922179528
 21
30.5937998301
  0
LINE
  8
0
 62
7
  6
CONTINUOUS
 10
159.922179528
 20
30.7228545871
 11
159.575304528
 21
30.7551182848
  0
LINE
  8
0
 62
7
  6
CONTINUOUS
 10
155.3549915869
 20
31.5939741996
 11
155.0081169177
 21
31.626237886
  0
LINE
  8
0
 62
7
  6
CONTINUOUS
 10
160.1534293074
 20
31.4971831403
 11
160.5003043074
 21
31.4649194539
  0
LINE
  8
0
 62
7
  6
CONTINUOUS
 10
160.5003043074
 20
31.5939741996
 11
160.1534293074
 21
31.626237886
  0
LINE
  8
0
 62
7
  6
CONTINUOUS
 10
157.840929528
 20
31.4971831403
 11
158.0721793074
 21
31.4649194539
  0
LINE
  8
0
 62
7
  6
CONTINUOUS
 10
160.6737418074
 20
31.5617105132
 11
160.5003043074
 21
31.5939741996
  0
LINE
  8
0
 62
7
  6
CONTINUOUS
 10
160.8471793074
 20
30.6905909007
 11
160.9628038663
 21
30.7873819712
  0
LINE
  8
0
 62
7
  6
CONTINUOUS
 10
155.3549915869
 20
30.8841730531
 11
155.1815540869
 21
30.7873819712
  0
LINE
  8
0
 62
7
  6
CONTINUOUS
 10
157.4362415869
 20
31.5294468267
 11
157.320617028
 21
31.4649194539
  0
LINE
  8
0
 62
7
  6
CONTINUOUS
 10
157.320617028
 20
31.3358647082
 11
157.4362415869
 21
31.400392081
  0
LINE
  8
0
 62
7
  6
CONTINUOUS
 10
150.0362418212
 20
31.5617105132
 11
149.8628043005
 21
31.4971831403
  0
LINE
  8
0
 62
7
  6
CONTINUOUS
 10
152.4643666972
 20
31.5939741996
 11
152.2909293626
 21
31.5294468267
  0
LINE
  8
0
 62
7
  6
CONTINUOUS
 10
152.2909293626
 20
31.400392081
 11
152.4643666972
 21
31.4649194539
  0
LINE
  8
0
 62
7
  6
CONTINUOUS
 10
151.0768668626
 20
30.8196456577
 11
150.9034292799
 21
30.7551182848
  0
LINE
  8
0
 62
7
  6
CONTINUOUS
 10
160.5003043074
 20
30.7551182848
 11
160.269054528
 21
30.7228545871
  0
LINE
  8
0
 62
7
  6
CONTINUOUS
 10
154.8924916972
 20
30.5937998301
 11
155.1815540869
 21
30.6260635193
  0
LINE
  8
0
 62
7
  6
CONTINUOUS
 10
160.269054528
 20
30.5937998301
 11
160.615929528
 21
30.6260635193
  0
LINE
  8
0
 62
7
  6
CONTINUOUS
 10
150.5565542799
 20
30.5937998301
 11
150.9612418074
 21
30.6260635193
  0
LINE
  8
0
 62
7
  6
CONTINUOUS
 10
150.9034292799
 20
30.7551182848
 11
150.498741835
 21
30.7228545871
  0
LINE
  8
0
 62
7
  6
CONTINUOUS
 10
154.7768668074
 20
31.1422825445
 11
155.412804528
 21
31.1422825445
  0
LINE
  8
0
 62
7
  6
CONTINUOUS
 10
155.412804528
 20
31.2713373354
 11
154.7768668074
 21
31.2713373354
  0
LINE
  8
0
 62
7
  6
CONTINUOUS
 10
151.1346793074
 20
31.3036010218
 11
151.4237418626
 21
31.3036010218
  0
LINE
  8
0
 62
7
  6
CONTINUOUS
 10
153.9674919177
 20
31.3681283946
 11
154.2565543074
 21
31.3681283946
  0
LINE
  8
0
 62
7
  6
CONTINUOUS
 10
160.6737418074
 20
31.3681283946
 11
160.9628038663
 21
31.3681283946
  0
LINE
  8
0
 62
7
  6
CONTINUOUS
 10
154.6612419177
 20
31.4971831403
 11
155.0081169177
 21
31.4971831403
  0
LINE
  8
0
 62
7
  6
CONTINUOUS
 10
159.8065543074
 20
31.4971831403
 11
160.1534293074
 21
31.4971831403
  0
LINE
  8
0
 62
7
  6
CONTINUOUS
 10
160.1534293074
 20
31.626237886
 11
159.8065543074
 21
31.626237886
  0
LINE
  8
0
 62
7
  6
CONTINUOUS
 10
158.0721793074
 20
31.626237886
 11
157.840929528
 21
31.626237886
  0
LINE
  8
0
 62
7
  6
CONTINUOUS
 10
157.320617028
 20
31.626237886
 11
157.0315543074
 21
31.626237886
  0
LINE
  8
0
 62
7
  6
CONTINUOUS
 10
156.5690540869
 20
31.626237886
 11
156.279992028
 21
31.626237886
  0
LINE
  8
0
 62
7
  6
CONTINUOUS
 10
155.0081169177
 20
31.626237886
 11
154.6612419177
 21
31.626237886
  0
LINE
  8
0
 62
7
  6
CONTINUOUS
 10
152.9268669177
 20
31.626237886
 11
152.6956168074
 21
31.626237886
  0
LINE
  8
0
 62
7
  6
CONTINUOUS
 10
156.279992028
 20
31.9488748406
 11
156.5690540869
 21
31.9488748406
  0
LINE
  8
0
 62
7
  6
CONTINUOUS
 10
156.5690540869
 20
32.1101932727
 11
156.279992028
 21
32.1101932727
  0
LINE
  8
0
 62
7
  6
CONTINUOUS
 10
152.1753043074
 20
32.1101932727
 11
151.8862417523
 21
32.1101932727
  0
LINE
  8
0
 62
7
  6
CONTINUOUS
 10
151.2130860697
 20
32.3970785186
 11
151.6256574183
 21
32.3970785186
  0
LINE
  8
0
 62
7
  6
CONTINUOUS
 10
152.852430332
 20
32.3970785186
 11
154.245872955
 21
32.3970785186
  0
LINE
  8
0
 62
7
  6
CONTINUOUS
 10
154.5737418074
 20
32.3970785186
 11
155.9671844304
 21
32.3970785186
  0
LINE
  8
0
 62
7
  6
CONTINUOUS
 10
157.852430332
 20
32.3970785186
 11
159.245872955
 21
32.3970785186
  0
LINE
  8
0
 62
7
  6
CONTINUOUS
 10
159.5737418074
 20
32.3970785186
 11
160.9671844304
 21
32.3970785186
  0
LINE
  8
0
 62
7
  6
CONTINUOUS
 10
157.6096790869
 20
31.5939741996
 11
157.4362415869
 21
31.5294468267
  0
LINE
  8
0
 62
7
  6
CONTINUOUS
 10
155.1815540869
 20
30.6260635193
 11
155.3549915869
 21
30.6905909007
  0
LINE
  8
0
 62
7
  6
CONTINUOUS
 10
160.615929528
 20
30.6260635193
 11
160.8471793074
 21
30.6905909007
  0
LINE
  8
0
 62
7
  6
CONTINUOUS
 10
160.615929528
 20
30.7873819712
 11
160.5003043074
 21
30.7551182848
  0
LINE
  8
0
 62
7
  6
CONTINUOUS
 10
159.575304528
 20
31.4649194539
 11
159.8065543074
 21
31.4971831403
  0
LINE
  8
0
 62
7
  6
CONTINUOUS
 10
157.6096790869
 20
31.4649194539
 11
157.840929528
 21
31.4971831403
  0
LINE
  8
0
 62
7
  6
CONTINUOUS
 10
154.5456166972
 20
31.1100188581
 11
154.7768668074
 21
31.1422825445
  0
LINE
  8
0
 62
7
  6
CONTINUOUS
 10
157.840929528
 20
31.626237886
 11
157.6096790869
 21
31.5939741996
  0
LINE
  8
0
 62
7
  6
CONTINUOUS
 10
154.4299918074
 20
31.4649194539
 11
154.6612419177
 21
31.4971831403
  0
LINE
  8
0
 62
7
  6
CONTINUOUS
 10
159.8065543074
 20
31.626237886
 11
159.4596793074
 21
31.5939741996
  0
LINE
  8
0
 62
7
  6
CONTINUOUS
 10
154.7768668074
 20
31.2713373354
 11
154.4299918074
 21
31.2390736489
  0
LINE
  8
0
 62
7
  6
CONTINUOUS
 10
150.5565542799
 20
31.626237886
 11
150.2096793212
 21
31.5939741996
  0
LINE
  8
0
 62
7
  6
CONTINUOUS
 10
154.6612419177
 20
31.626237886
 11
154.2565543074
 21
31.5939741996
  0
LINE
  8
0
 62
7
  6
CONTINUOUS
 10
152.0327582009
 20
33.5446195022
 11
151.3770204959
 21
33.5446195022
  0
LINE
  8
0
 62
7
  6
CONTINUOUS
 10
157.4362415869
 20
31.400392081
 11
157.6096790869
 21
31.4649194539
  0
LINE
  8
0
 62
7
  6
CONTINUOUS
 10
159.4596793074
 20
31.4326557675
 11
159.575304528
 21
31.4649194539
  0
LINE
  8
0
 62
7
  6
CONTINUOUS
 10
159.4596793074
 20
31.5939741996
 11
159.228429528
 21
31.5294468267
  0
LINE
  8
0
 62
7
  6
CONTINUOUS
 10
155.1815540869
 20
30.7873819712
 11
154.8924916972
 21
30.7228545871
  0
LINE
  8
0
 62
7
  6
CONTINUOUS
 10
152.4643666972
 20
31.4649194539
 11
152.6956168074
 21
31.4971831403
  0
LINE
  8
0
 62
7
  6
CONTINUOUS
 10
152.6956168074
 20
31.626237886
 11
152.4643666972
 21
31.5939741996
  0
LINE
  8
0
 62
7
  6
CONTINUOUS
 10
150.2674918074
 20
31.4649194539
 11
150.498741835
 21
31.4971831403
  0
LINE
  8
0
 62
7
  6
CONTINUOUS
 10
156.7868565615
 20
35.0200293383
 11
157.4425942664
 21
35.0200293383
  0
LINE
  8
0
 62
7
  6
CONTINUOUS
 10
154.4299918074
 20
31.0777551716
 11
154.5456166972
 21
31.1100188581
  0
LINE
  8
0
 62
7
  6
CONTINUOUS
 10
154.4299918074
 20
31.2390736489
 11
154.1987416972
 21
31.1745462761
  0
LINE
  8
0
 62
7
  6
CONTINUOUS
 10
154.3143669177
 20
31.4326557675
 11
154.4299918074
 21
31.4649194539
  0
LINE
  8
0
 62
7
  6
CONTINUOUS
 10
150.9612418074
 20
30.6260635193
 11
151.1924917523
 21
30.6905909007
  0
LINE
  8
0
 62
7
  6
CONTINUOUS
 10
154.2565543074
 20
31.5939741996
 11
154.1409294177
 21
31.5617105132
  0
LINE
  8
0
 62
7
  6
CONTINUOUS
 10
150.2096793212
 20
31.5939741996
 11
150.0362418212
 21
31.5617105132
  0
LINE
  8
0
 62
7
  6
CONTINUOUS
 10
160.9671844304
 20
36.1675703219
 11
159.5737418074
 21
36.1675703219
  0
LINE
  8
0
 62
7
  6
CONTINUOUS
 10
157.6065286927
 20
36.1675703219
 11
157.1939573441
 21
36.1675703219
  0
LINE
  8
0
 62
7
  6
CONTINUOUS
 10
155.9671844304
 20
36.1675703219
 11
154.5737418074
 21
36.1675703219
  0
LINE
  8
0
 62
7
  6
CONTINUOUS
 10
154.245872955
 20
36.1675703219
 11
152.852430332
 21
36.1675703219
  0
LINE
  8
0
 62
7
  6
CONTINUOUS
 10
150.9671844304
 20
36.1675703219
 11
149.5737418074
 21
36.1675703219
  0
LINE
  8
0
 62
7
  6
CONTINUOUS
 10
150.1518667936
 20
31.4326557675
 11
150.2674918074
 21
31.4649194539
  0
CIRCLE
  8
0
 62
7
  6
CONTINUOUS
 10
160.2704631189
 20
38.5036358957
 40
2.0901639344
  0
ARC
  8
0
 62
7
  6
CONTINUOUS
 10
151.2130860697
 20
34.0364227809
 40
1.6393442623
 50
180.0
 51
270.0
  0
ARC
  8
0
 62
7
  6
CONTINUOUS
 10
157.6065286927
 20
34.5282260596
 40
1.6393442623
 50
0.0
 51
90.0
  0
ARC
  8
0
 62
7
  6
CONTINUOUS
 10
151.6256574183
 20
33.8724883547
 40
1.4754098361
 50
270.0
 51
326.2510114041
  0
ARC
  8
0
 62
7
  6
CONTINUOUS
 10
157.1939573441
 20
34.6921604858
 40
1.4754098361
 50
90.0
 51
146.2510114041
  0
ARC
  8
0
 62
7
  6
CONTINUOUS
 10
152.0327582009
 20
34.3642916334
 40
0.8196721311
 50
270.0
 51
360.0
  0
ARC
  8
0
 62
7
  6
CONTINUOUS
 10
156.7868565615
 20
34.2003572071
 40
0.8196721311
 50
90.0
 51
180.0
  0
ARC
  8
0
 62
7
  6
CONTINUOUS
 10
151.3770204959
 20
33.9544555678
 40
0.4098360656
 50
180.0
 51
270.0
  0
ARC
  8
0
 62
7
  6
CONTINUOUS
 10
157.4425942664
 20
34.6101932727
 40
0.4098360656
 50
0.0
 51
90.0
  0
SOLID
  8
0
 62
7
  6
CONTINUOUS
 10
156.279992028
 20
31.9488752009
 11
156.279992028
 21
32.1101936845
 12
156.5690540869
 22
31.9488752009
 13
156.5690540869
 23
32.1101936845
  0
SOLID
  8
0
 62
7
  6
CONTINUOUS
 10
150.5565542799
 20
31.6262382337
 11
150.9612418074
 21
31.5939740028
 12
150.2096793212
 22
31.5939740028
 13
150.2096793212
 23
31.5939740028
  0
SOLID
  8
0
 62
7
  6
CONTINUOUS
 10
150.0362418212
 20
31.5617111435
 11
150.2096793212
 21
31.5939740028
 12
150.9612418074
 22
31.5939740028
 13
150.9612418074
 23
31.5939740028
  0
SOLID
  8
0
 62
7
  6
CONTINUOUS
 10
150.9612418074
 20
31.5939740028
 11
151.1924917523
 21
31.5294468402
 12
150.0362418212
 22
31.5617111435
 13
150.0362418212
 23
31.5617111435
  0
SOLID
  8
0
 62
7
  6
CONTINUOUS
 10
149.8628043005
 20
31.49718259
 11
150.0362418212
 21
31.5617111435
 12
151.1924917523
 22
31.5294468402
 13
151.1924917523
 23
31.5294468402
  0
SOLID
  8
0
 62
7
  6
CONTINUOUS
 10
149.8628043005
 20
31.49718259
 11
151.1924917523
 21
31.5294468402
 12
150.498741835
 22
31.49718259
 13
150.498741835
 23
31.49718259
  0
SOLID
  8
0
 62
7
  6
CONTINUOUS
 10
150.498741835
 20
31.49718259
 11
151.1924917523
 21
31.5294468402
 12
150.9034292799
 22
31.4649197501
 13
150.9034292799
 23
31.4649197501
  0
SOLID
  8
0
 62
7
  6
CONTINUOUS
 10
151.1924917523
 20
31.5294468402
 11
151.3659292523
 21
31.4326554468
 12
150.9034292799
 22
31.4649197501
 13
150.9034292799
 23
31.4649197501
  0
SOLID
  8
0
 62
7
  6
CONTINUOUS
 10
151.0768668626
 20
31.4003926599
 11
150.9034292799
 21
31.4649197501
 12
151.3659292523
 22
31.4326554468
 13
151.3659292523
 23
31.4326554468
  0
SOLID
  8
0
 62
7
  6
CONTINUOUS
 10
151.0768668626
 20
31.4003926599
 11
151.3659292523
 21
31.4326554468
 12
151.1346793074
 22
31.3036013776
 13
151.1346793074
 23
31.3036013776
  0
SOLID
  8
0
 62
7
  6
CONTINUOUS
 10
151.3659292523
 20
31.4326554468
 11
151.4237418626
 21
31.3036013776
 12
151.1346793074
 22
31.3036013776
 13
151.1346793074
 23
31.3036013776
  0
SOLID
  8
0
 62
7
  6
CONTINUOUS
 10
152.4643666972
 20
31.5939739754
 11
152.6956168074
 21
31.6262382787
 12
152.9268669177
 22
31.6262382787
 13
152.9268669177
 23
31.6262382787
  0
SOLID
  8
0
 62
7
  6
CONTINUOUS
 10
152.9268669177
 20
31.6262382787
 11
153.1003044177
 21
31.5939739754
 12
152.4643666972
 22
31.5939739754
 13
152.4643666972
 23
31.5939739754
  0
SOLID
  8
0
 62
7
  6
CONTINUOUS
 10
152.2909293626
 20
31.5294468852
 11
152.4643666972
 21
31.5939739754
 12
153.1003044177
 22
31.5939739754
 13
153.1003044177
 23
31.5939739754
  0
SOLID
  8
0
 62
7
  6
CONTINUOUS
 10
153.1003044177
 20
31.5939739754
 11
153.2737419177
 21
31.5294468852
 12
152.2909293626
 22
31.5294468852
 13
152.2909293626
 23
31.5294468852
  0
SOLID
  8
0
 62
7
  6
CONTINUOUS
 10
153.2737419177
 20
31.5294468852
 11
152.6956168074
 21
31.4971825369
 12
152.2909293626
 22
31.5294468852
 13
152.2909293626
 23
31.5294468852
  0
SOLID
  8
0
 62
7
  6
CONTINUOUS
 10
152.1753043074
 20
31.4649197951
 11
152.2909293626
 21
31.5294468852
 12
152.6956168074
 22
31.4971825369
 13
152.6956168074
 23
31.4971825369
  0
SOLID
  8
0
 62
7
  6
CONTINUOUS
 10
152.6956168074
 20
31.4971825369
 11
152.4643666972
 21
31.4649197951
 12
152.1753043074
 22
31.4649197951
 13
152.1753043074
 23
31.4649197951
  0
SOLID
  8
0
 62
7
  6
CONTINUOUS
 10
152.6956168074
 20
31.4971825369
 11
153.2737419177
 21
31.5294468852
 12
152.9268669177
 22
31.4649197951
 13
152.9268669177
 23
31.4649197951
  0
SOLID
  8
0
 62
7
  6
CONTINUOUS
 10
153.2737419177
 20
31.5294468852
 11
153.3893668074
 21
31.4649197951
 12
152.9268669177
 22
31.4649197951
 13
152.9268669177
 23
31.4649197951
  0
SOLID
  8
0
 62
7
  6
CONTINUOUS
 10
153.0424918074
 20
31.4326554468
 11
152.9268669177
 21
31.4649197951
 12
153.3893668074
 22
31.4649197951
 13
153.3893668074
 23
31.4649197951
  0
SOLID
  8
0
 62
7
  6
CONTINUOUS
 10
153.3893668074
 20
31.4649197951
 11
153.4471794177
 21
31.4003927049
 12
153.0424918074
 22
31.4326554468
 13
153.0424918074
 23
31.4326554468
  0
SOLID
  8
0
 62
7
  6
CONTINUOUS
 10
153.1581166972
 20
31.3681283566
 11
153.0424918074
 21
31.4326554468
 12
153.4471794177
 22
31.4003927049
 13
153.4471794177
 23
31.4003927049
  0
SOLID
  8
0
 62
7
  6
CONTINUOUS
 10
153.1581166972
 20
31.3681283566
 11
153.4471794177
 21
31.4003927049
 12
153.2159293074
 22
31.2390742213
 13
153.2159293074
 23
31.2390742213
  0
SOLID
  8
0
 62
7
  6
CONTINUOUS
 10
153.4471794177
 20
31.4003927049
 11
153.5049916972
 21
31.2390742213
 12
153.2159293074
 22
31.2390742213
 13
153.2159293074
 23
31.2390742213
  0
SOLID
  8
0
 62
7
  6
CONTINUOUS
 10
152.4643666972
 20
31.4649197951
 11
152.2909293626
 21
31.4003927049
 12
152.1753043074
 22
31.4649197951
 13
152.1753043074
 23
31.4649197951
  0
SOLID
  8
0
 62
7
  6
CONTINUOUS
 10
152.2909293626
 20
31.4003927049
 11
152.1753043074
 21
31.3358640533
 12
152.1753043074
 22
31.4649197951
 13
152.1753043074
 23
31.4649197951
  0
SOLID
  8
0
 62
7
  6
CONTINUOUS
 10
152.1753043074
 20
31.3358640533
 11
151.8862417523
 21
30.5938002869
 12
152.1753043074
 22
31.4649197951
 13
152.1753043074
 23
31.4649197951
  0
SOLID
  8
0
 62
7
  6
CONTINUOUS
 10
152.1753043074
 20
31.4649197951
 11
151.8862417523
 21
30.5938002869
 12
152.1753043074
 22
32.1101937295
 13
152.1753043074
 23
32.1101937295
  0
SOLID
  8
0
 62
7
  6
CONTINUOUS
 10
151.8862417523
 20
30.5938002869
 11
151.8862417523
 21
32.1101937295
 12
152.1753043074
 22
32.1101937295
 13
152.1753043074
 23
32.1101937295
  0
SOLID
  8
0
 62
7
  6
CONTINUOUS
 10
152.1753043074
 20
31.3358640533
 11
152.1753043074
 21
30.5938002869
 12
151.8862417523
 22
30.5938002869
 13
151.8862417523
 23
30.5938002869
  0
SOLID
  8
0
 62
7
  6
CONTINUOUS
 10
153.2159293074
 20
30.5938002869
 11
153.2159293074
 21
31.2390742213
 12
153.5049916972
 22
31.2390742213
 13
153.5049916972
 23
31.2390742213
  0
SOLID
  8
0
 62
7
  6
CONTINUOUS
 10
153.5049916972
 20
31.2390742213
 11
153.5049916972
 21
30.5938002869
 12
153.2159293074
 22
30.5938002869
 13
153.2159293074
 23
30.5938002869
  0
SOLID
  8
0
 62
7
  6
CONTINUOUS
 10
154.2565543074
 20
31.5939738288
 11
154.6612419177
 21
31.6262385959
 12
155.0081169177
 22
31.6262385959
 13
155.0081169177
 23
31.6262385959
  0
SOLID
  8
0
 62
7
  6
CONTINUOUS
 10
155.0081169177
 20
31.6262385959
 11
155.3549915869
 21
31.5939738288
 12
154.2565543074
 22
31.5939738288
 13
154.2565543074
 23
31.5939738288
  0
SOLID
  8
0
 62
7
  6
CONTINUOUS
 10
154.1409294177
 20
31.5617111435
 11
154.2565543074
 21
31.5939738288
 12
155.3549915869
 22
31.5939738288
 13
155.3549915869
 23
31.5939738288
  0
SOLID
  8
0
 62
7
  6
CONTINUOUS
 10
155.3549915869
 20
31.5939738288
 11
155.5284290869
 21
31.5294468402
 12
154.1409294177
 22
31.5617111435
 13
154.1409294177
 23
31.5617111435
  0
SOLID
  8
0
 62
7
  6
CONTINUOUS
 10
154.0253041972
 20
31.4971826249
 11
154.1409294177
 21
31.5617111435
 12
155.5284290869
 22
31.5294468402
 13
155.5284290869
 23
31.5294468402
  0
SOLID
  8
0
 62
7
  6
CONTINUOUS
 10
154.0253041972
 20
31.4971826249
 11
155.5284290869
 21
31.5294468402
 12
154.6612419177
 22
31.4971826249
 13
154.6612419177
 23
31.4971826249
  0
SOLID
  8
0
 62
7
  6
CONTINUOUS
 10
154.6612419177
 20
31.4971826249
 11
155.5284290869
 21
31.5294468402
 12
155.0081169177
 22
31.4971826249
 13
155.0081169177
 23
31.4971826249
  0
SOLID
  8
0
 62
7
  6
CONTINUOUS
 10
155.0081169177
 20
31.4971826249
 11
155.5284290869
 21
31.5294468402
 12
155.239367028
 22
31.4649194065
 13
155.239367028
 23
31.4649194065
  0
SOLID
  8
0
 62
7
  6
CONTINUOUS
 10
155.5284290869
 20
31.5294468402
 11
155.6440543074
 21
31.4649194065
 12
155.239367028
 22
31.4649194065
 13
155.239367028
 23
31.4649194065
  0
SOLID
  8
0
 62
7
  6
CONTINUOUS
 10
153.9674919177
 20
31.4326554138
 11
154.0253041972
 21
31.4971826249
 12
154.6612419177
 22
31.4971826249
 13
154.6612419177
 23
31.4971826249
  0
SOLID
  8
0
 62
7
  6
CONTINUOUS
 10
155.3549915869
 20
31.4326554138
 11
155.239367028
 21
31.4649194065
 12
155.6440543074
 22
31.4649194065
 13
155.6440543074
 23
31.4649194065
  0
SOLID
  8
0
 62
7
  6
CONTINUOUS
 10
155.3549915869
 20
31.4326554138
 11
155.6440543074
 21
31.4649194065
 12
155.412804528
 22
31.3681282026
 13
155.412804528
 23
31.3681282026
  0
SOLID
  8
0
 62
7
  6
CONTINUOUS
 10
155.6440543074
 20
31.4649194065
 11
155.7018665869
 21
31.3681282026
 12
155.412804528
 22
31.3681282026
 13
155.412804528
 23
31.3681282026
  0
SOLID
  8
0
 62
7
  6
CONTINUOUS
 10
155.412804528
 20
31.2713369632
 11
155.412804528
 21
31.3681282026
 12
155.7018665869
 22
31.3681282026
 13
155.7018665869
 23
31.3681282026
  0
SOLID
  8
0
 62
7
  6
CONTINUOUS
 10
155.412804528
 20
31.2713369632
 11
155.7018665869
 21
31.3681282026
 12
155.412804528
 22
31.1422827828
 13
155.412804528
 23
31.1422827828
  0
SOLID
  8
0
 62
7
  6
CONTINUOUS
 10
155.412804528
 20
31.1422827828
 11
155.7018665869
 21
31.3681282026
 12
155.412804528
 22
30.9487004259
 13
155.412804528
 23
30.9487004259
  0
SOLID
  8
0
 62
7
  6
CONTINUOUS
 10
155.7018665869
 20
31.3681282026
 11
155.7018665869
 21
30.8519086025
 12
155.412804528
 22
30.9487004259
 13
155.412804528
 23
30.9487004259
  0
SOLID
  8
0
 62
7
  6
CONTINUOUS
 10
157.6096790869
 20
31.5939736268
 11
157.840929528
 21
31.6262383465
 12
158.0721793074
 22
31.6262383465
 13
158.0721793074
 23
31.6262383465
  0
SOLID
  8
0
 62
7
  6
CONTINUOUS
 10
158.0721793074
 20
31.6262383465
 11
158.2456168074
 21
31.5939736268
 12
157.6096790869
 22
31.5939736268
 13
157.6096790869
 23
31.5939736268
  0
SOLID
  8
0
 62
7
  6
CONTINUOUS
 10
157.4362415869
 20
31.5294472848
 11
157.6096790869
 21
31.5939736268
 12
158.2456168074
 22
31.5939736268
 13
158.2456168074
 23
31.5939736268
  0
SOLID
  8
0
 62
7
  6
CONTINUOUS
 10
158.2456168074
 20
31.5939736268
 11
158.4190543074
 21
31.5294472848
 12
157.4362415869
 22
31.5294472848
 13
157.4362415869
 23
31.5294472848
  0
SOLID
  8
0
 62
7
  6
CONTINUOUS
 10
158.4190543074
 20
31.5294472848
 11
157.840929528
 21
31.4971825369
 12
157.4362415869
 22
31.5294472848
 13
157.4362415869
 23
31.5294472848
  0
SOLID
  8
0
 62
7
  6
CONTINUOUS
 10
157.320617028
 20
31.4649199103
 11
157.4362415869
 21
31.5294472848
 12
157.840929528
 22
31.4971825369
 13
157.840929528
 23
31.4971825369
  0
SOLID
  8
0
 62
7
  6
CONTINUOUS
 10
157.840929528
 20
31.4971825369
 11
157.6096790869
 21
31.4649199103
 12
157.320617028
 22
31.4649199103
 13
157.320617028
 23
31.4649199103
  0
SOLID
  8
0
 62
7
  6
CONTINUOUS
 10
157.840929528
 20
31.4971825369
 11
158.4190543074
 21
31.5294472848
 12
158.0721793074
 22
31.4649199103
 13
158.0721793074
 23
31.4649199103
  0
SOLID
  8
0
 62
7
  6
CONTINUOUS
 10
158.4190543074
 20
31.5294472848
 11
158.534679528
 21
31.4649199103
 12
158.0721793074
 22
31.4649199103
 13
158.0721793074
 23
31.4649199103
  0
SOLID
  8
0
 62
7
  6
CONTINUOUS
 10
158.187804528
 20
31.4326554468
 11
158.0721793074
 21
31.4649199103
 12
158.534679528
 22
31.4649199103
 13
158.534679528
 23
31.4649199103
  0
SOLID
  8
0
 62
7
  6
CONTINUOUS
 10
158.187804528
 20
31.4326554468
 11
158.534679528
 21
31.4649199103
 12
158.3034290869
 22
31.3681288486
 13
158.3034290869
 23
31.3681288486
  0
SOLID
  8
0
 62
7
  6
CONTINUOUS
 10
158.534679528
 20
31.4649199103
 11
158.5924918074
 21
31.3681288486
 12
158.3034290869
 22
31.3681288486
 13
158.3034290869
 23
31.3681288486
  0
SOLID
  8
0
 62
7
  6
CONTINUOUS
 10
158.361242028
 20
31.2068093799
 11
158.3034290869
 21
31.3681288486
 12
158.5924918074
 22
31.3681288486
 13
158.5924918074
 23
31.3681288486
  0
SOLID
  8
0
 62
7
  6
CONTINUOUS
 10
158.5924918074
 20
31.3681288486
 11
158.6503040869
 21
31.2068093799
 12
158.361242028
 22
31.2068093799
 13
158.361242028
 23
31.2068093799
  0
SOLID
  8
0
 62
7
  6
CONTINUOUS
 10
157.6096790869
 20
31.4649199103
 11
157.4362415869
 21
31.4003926599
 12
157.320617028
 22
31.4649199103
 13
157.320617028
 23
31.4649199103
  0
SOLID
  8
0
 62
7
  6
CONTINUOUS
 10
157.4362415869
 20
31.4003926599
 11
157.320617028
 21
31.3358640533
 12
157.320617028
 22
31.4649199103
 13
157.320617028
 23
31.4649199103
  0
SOLID
  8
0
 62
7
  6
CONTINUOUS
 10
157.320617028
 20
31.3358640533
 11
157.0315543074
 21
30.5938003547
 12
157.320617028
 22
31.4649199103
 13
157.320617028
 23
31.4649199103
  0
SOLID
  8
0
 62
7
  6
CONTINUOUS
 10
157.320617028
 20
31.4649199103
 11
157.0315543074
 21
30.5938003547
 12
157.320617028
 22
31.6262383465
 13
157.320617028
 23
31.6262383465
  0
SOLID
  8
0
 62
7
  6
CONTINUOUS
 10
157.0315543074
 20
30.5938003547
 11
157.0315543074
 21
31.6262383465
 12
157.320617028
 22
31.6262383465
 13
157.320617028
 23
31.6262383465
  0
SOLID
  8
0
 62
7
  6
CONTINUOUS
 10
157.320617028
 20
31.3358640533
 11
157.320617028
 21
30.5938003547
 12
157.0315543074
 22
30.5938003547
 13
157.0315543074
 23
30.5938003547
  0
SOLID
  8
0
 62
7
  6
CONTINUOUS
 10
158.361242028
 20
30.5938003547
 11
158.361242028
 21
31.2068093799
 12
158.6503040869
 22
31.2068093799
 13
158.6503040869
 23
31.2068093799
  0
SOLID
  8
0
 62
7
  6
CONTINUOUS
 10
158.6503040869
 20
31.2068093799
 11
158.6503040869
 21
30.5938003547
 12
158.361242028
 22
30.5938003547
 13
158.361242028
 23
30.5938003547
  0
SOLID
  8
0
 62
7
  6
CONTINUOUS
 10
159.4596793074
 20
31.5939739474
 11
159.8065543074
 21
31.6262381969
 12
160.1534293074
 22
31.6262381969
 13
160.1534293074
 23
31.6262381969
  0
SOLID
  8
0
 62
7
  6
CONTINUOUS
 10
160.1534293074
 20
31.6262381969
 11
160.5003043074
 21
31.5939739474
 12
159.4596793074
 22
31.5939739474
 13
159.4596793074
 23
31.5939739474
  0
SOLID
  8
0
 62
7
  6
CONTINUOUS
 10
159.228429528
 20
31.5294468402
 11
159.4596793074
 21
31.5939739474
 12
160.5003043074
 22
31.5939739474
 13
160.5003043074
 23
31.5939739474
  0
SOLID
  8
0
 62
7
  6
CONTINUOUS
 10
159.228429528
 20
31.5294468402
 11
160.5003043074
 21
31.5939739304
 12
160.6737418074
 22
31.5617111435
 13
160.6737418074
 23
31.5617111435
  0
SOLID
  8
0
 62
7
  6
CONTINUOUS
 10
159.228429528
 20
31.5294468402
 11
160.6737418074
 21
31.5617111435
 12
159.8065543074
 22
31.4971825592
 13
159.8065543074
 23
31.4971825592
  0
SOLID
  8
0
 62
7
  6
CONTINUOUS
 10
159.8065543074
 20
31.4971825592
 11
160.6737418074
 21
31.5617111435
 12
160.1534293074
 22
31.4971825592
 13
160.1534293074
 23
31.4971825592
  0
SOLID
  8
0
 62
7
  6
CONTINUOUS
 10
160.6737418074
 20
31.5617111435
 11
160.8471793074
 21
31.4971825592
 12
160.1534293074
 22
31.4971825592
 13
160.1534293074
 23
31.4971825592
  0
SOLID
  8
0
 62
7
  6
CONTINUOUS
 10
160.5003043074
 20
31.4649197501
 11
160.1534293074
 21
31.4971825592
 12
160.8471793074
 22
31.4971825592
 13
160.8471793074
 23
31.4971825592
  0
SOLID
  8
0
 62
7
  6
CONTINUOUS
 10
159.1128043074
 20
31.4326555427
 11
159.228429528
 21
31.5294468402
 12
159.8065543074
 22
31.4971825592
 13
159.8065543074
 23
31.4971825592
  0
SOLID
  8
0
 62
7
  6
CONTINUOUS
 10
160.5003043074
 20
31.4649197501
 11
160.8471793074
 21
31.4971825592
 12
160.615929528
 22
31.4326555427
 13
160.615929528
 23
31.4326555427
  0
SOLID
  8
0
 62
7
  6
CONTINUOUS
 10
160.615929528
 20
31.4326555427
 11
160.8471793074
 21
31.4971825592
 12
160.6737418074
 22
31.3681283005
 13
160.6737418074
 23
31.3681283005
  0
SOLID
  8
0
 62
7
  6
CONTINUOUS
 10
160.8471793074
 20
31.4971825592
 11
160.9628038663
 21
31.3681283005
 12
160.6737418074
 22
31.3681283005
 13
160.6737418074
 23
31.3681283005
  0
SOLID
  8
0
 62
7
  6
CONTINUOUS
 10
150.2674918074
 20
31.4649197501
 11
149.7471793074
 21
31.4326554237
 12
150.498741835
 22
31.4971824493
 13
150.498741835
 23
31.4971824493
  0
SOLID
  8
0
 62
7
  6
CONTINUOUS
 10
149.7471793074
 20
31.4326554237
 11
149.8628043005
 21
31.4971824493
 12
150.498741835
 22
31.4971824493
 13
150.498741835
 23
31.4971824493
  0
SOLID
  8
0
 62
7
  6
CONTINUOUS
 10
150.2674918074
 20
31.4649197501
 11
150.1518667936
 21
31.4326554237
 12
149.7471793074
 22
31.4326554237
 13
149.7471793074
 23
31.4326554237
  0
SOLID
  8
0
 62
7
  6
CONTINUOUS
 10
149.6315543091
 20
31.3036012664
 11
149.7471793074
 21
31.4326554237
 12
150.1518667936
 22
31.4326554237
 13
150.1518667936
 23
31.4326554237
  0
SOLID
  8
0
 62
7
  6
CONTINUOUS
 10
153.9674919177
 20
31.4326554237
 11
154.6612419177
 21
31.4971825369
 12
154.4299918074
 22
31.4649197501
 13
154.4299918074
 23
31.4649197501
  0
SOLID
  8
0
 62
7
  6
CONTINUOUS
 10
154.4299918074
 20
31.4649197501
 11
154.3143669177
 21
31.4326554237
 12
153.9674919177
 22
31.4326554237
 13
153.9674919177
 23
31.4326554237
  0
SOLID
  8
0
 62
7
  6
CONTINUOUS
 10
153.9674919177
 20
31.3681283335
 11
153.9674919177
 21
31.4326554237
 12
154.3143669177
 22
31.4326554237
 13
154.3143669177
 23
31.4326554237
  0
SOLID
  8
0
 62
7
  6
CONTINUOUS
 10
154.3143669177
 20
31.4326554237
 11
154.2565543074
 21
31.3681283335
 12
153.9674919177
 22
31.3681283335
 13
153.9674919177
 23
31.3681283335
  0
SOLID
  8
0
 62
7
  6
CONTINUOUS
 10
159.1128043074
 20
31.4326555528
 11
159.8065543074
 21
31.4971825369
 12
159.575304528
 22
31.4649197501
 13
159.575304528
 23
31.4649197501
  0
SOLID
  8
0
 62
7
  6
CONTINUOUS
 10
159.575304528
 20
31.4649197501
 11
159.4596793074
 21
31.4326555528
 12
159.1128043074
 22
31.4326555528
 13
159.1128043074
 23
31.4326555528
  0
SOLID
  8
0
 62
7
  6
CONTINUOUS
 10
159.1128043074
 20
31.3681284626
 11
159.1128043074
 21
31.4326555528
 12
159.4596793074
 22
31.4326555528
 13
159.4596793074
 23
31.4326555528
  0
SOLID
  8
0
 62
7
  6
CONTINUOUS
 10
159.4596793074
 20
31.4326555528
 11
159.401867028
 21
31.3681284626
 12
159.1128043074
 22
31.3681284626
 13
159.1128043074
 23
31.3681284626
  0
SOLID
  8
0
 62
7
  6
CONTINUOUS
 10
159.228429528
 20
31.2390741763
 11
159.1128043074
 21
31.3681284626
 12
159.401867028
 22
31.3681284626
 13
159.401867028
 23
31.3681284626
  0
SOLID
  8
0
 62
7
  6
CONTINUOUS
 10
149.6315543091
 20
31.3036012664
 11
150.1518667936
 21
31.4326554468
 12
149.9784292936
 22
31.3358640533
 13
149.9784292936
 23
31.3358640533
  0
SOLID
  8
0
 62
7
  6
CONTINUOUS
 10
149.9784292936
 20
31.3358640533
 11
149.9206168074
 21
31.2713369632
 12
149.6315543091
 22
31.3036012664
 13
149.6315543091
 23
31.3036012664
  0
SOLID
  8
0
 62
7
  6
CONTINUOUS
 10
149.5737418074
 20
31.1100184796
 11
149.6315543091
 21
31.3036012664
 12
149.9206168074
 22
31.2713369632
 13
149.9206168074
 23
31.2713369632
  0
SOLID
  8
0
 62
7
  6
CONTINUOUS
 10
154.4299918074
 20
31.2390741763
 11
154.7768668074
 21
31.271336924
 12
155.412804528
 22
31.271336924
 13
155.412804528
 23
31.271336924
  0
SOLID
  8
0
 62
7
  6
CONTINUOUS
 10
154.4299918074
 20
31.2390741763
 11
155.412804528
 21
31.271336924
 12
154.1987416972
 22
31.1745462761
 13
154.1987416972
 23
31.1745462761
  0
SOLID
  8
0
 62
7
  6
CONTINUOUS
 10
154.1987416972
 20
31.1745462761
 11
155.412804528
 21
31.271336924
 12
154.7768668074
 22
31.1422827436
 13
154.7768668074
 23
31.1422827436
  0
SOLID
  8
0
 62
7
  6
CONTINUOUS
 10
155.412804528
 20
31.271336924
 11
155.412804528
 21
31.1422827436
 12
154.7768668074
 22
31.1422827436
 13
154.7768668074
 23
31.1422827436
  0
SOLID
  8
0
 62
7
  6
CONTINUOUS
 10
159.228429528
 20
31.2390745501
 11
159.401867028
 21
31.3681283566
 12
159.4596793074
 22
31.3036012664
 13
159.4596793074
 23
31.3036012664
  0
SOLID
  8
0
 62
7
  6
CONTINUOUS
 10
159.4596793074
 20
31.3036012664
 11
159.6331168074
 21
31.2390745501
 12
159.228429528
 22
31.2390745501
 13
159.228429528
 23
31.2390745501
  0
SOLID
  8
0
 62
7
  6
CONTINUOUS
 10
159.4596793074
 20
31.1422827828
 11
159.228429528
 21
31.2390745501
 12
159.6331168074
 22
31.2390745501
 13
159.6331168074
 23
31.2390745501
  0
SOLID
  8
0
 62
7
  6
CONTINUOUS
 10
159.6331168074
 20
31.2390745501
 11
160.615929528
 21
31.0777556927
 12
159.4596793074
 22
31.1422827828
 13
159.4596793074
 23
31.1422827828
  0
SOLID
  8
0
 62
7
  6
CONTINUOUS
 10
160.442492028
 20
30.9809646623
 11
159.4596793074
 21
31.1422827828
 12
160.615929528
 22
31.0777556927
 13
160.615929528
 23
31.0777556927
  0
SOLID
  8
0
 62
7
  6
CONTINUOUS
 10
160.615929528
 20
31.0777556927
 11
160.8471793074
 21
30.9809646623
 12
160.442492028
 22
30.9809646623
 13
160.442492028
 23
30.9809646623
  0
SOLID
  8
0
 62
7
  6
CONTINUOUS
 10
160.615929528
 20
30.9164372091
 11
160.442492028
 21
30.9809646623
 12
160.8471793074
 22
30.9809646623
 13
160.8471793074
 23
30.9809646623
  0
SOLID
  8
0
 62
7
  6
CONTINUOUS
 10
160.615929528
 20
30.9164372091
 11
160.8471793074
 21
30.9809646623
 12
160.6737418074
 22
30.8519089441
 13
160.6737418074
 23
30.8519089441
  0
SOLID
  8
0
 62
7
  6
CONTINUOUS
 10
160.8471793074
 20
30.9809646623
 11
160.9628038663
 21
30.8519089441
 12
160.6737418074
 22
30.8519089441
 13
160.6737418074
 23
30.8519089441
  0
SOLID
  8
0
 62
7
  6
CONTINUOUS
 10
160.615929528
 20
30.7873818593
 11
160.6737418074
 21
30.8519089441
 12
160.9628038663
 22
30.8519089441
 13
160.9628038663
 23
30.8519089441
  0
SOLID
  8
0
 62
7
  6
CONTINUOUS
 10
160.9628038663
 20
30.8519089441
 11
160.9628038663
 21
30.7873818593
 12
160.615929528
 22
30.7873818593
 13
160.615929528
 23
30.7873818593
  0
SOLID
  8
0
 62
7
  6
CONTINUOUS
 10
160.5003043074
 20
30.7551187255
 11
160.615929528
 21
30.7873818593
 12
160.9628038663
 22
30.7873818593
 13
160.9628038663
 23
30.7873818593
  0
SOLID
  8
0
 62
7
  6
CONTINUOUS
 10
160.5003043074
 20
30.7551187255
 11
160.9628038663
 21
30.7873818593
 12
160.269054528
 22
30.7228547745
 13
160.269054528
 23
30.7228547745
  0
SOLID
  8
0
 62
7
  6
CONTINUOUS
 10
160.9628038663
 20
30.7873818593
 11
160.8471793074
 21
30.6905916353
 12
160.269054528
 22
30.7228547745
 13
160.269054528
 23
30.7228547745
  0
SOLID
  8
0
 62
7
  6
CONTINUOUS
 10
160.8471793074
 20
30.6905916353
 11
159.401867028
 21
30.658327332
 12
160.269054528
 22
30.7228547745
 13
160.269054528
 23
30.7228547745
  0
SOLID
  8
0
 62
7
  6
CONTINUOUS
 10
160.269054528
 20
30.7228547745
 11
159.401867028
 21
30.658327332
 12
159.922179528
 22
30.7228547745
 13
159.922179528
 23
30.7228547745
  0
SOLID
  8
0
 62
7
  6
CONTINUOUS
 10
159.401867028
 20
30.658327332
 11
159.228429528
 21
30.7228547745
 12
159.922179528
 22
30.7228547745
 13
159.922179528
 23
30.7228547745
  0
SOLID
  8
0
 62
7
  6
CONTINUOUS
 10
159.401867028
 20
30.658327332
 11
160.8471793074
 21
30.6905916353
 12
159.575304528
 22
30.6260629858
 13
159.575304528
 23
30.6260629858
  0
SOLID
  8
0
 62
7
  6
CONTINUOUS
 10
160.8471793074
 20
30.6905916353
 11
160.615929528
 21
30.6260629858
 12
159.575304528
 22
30.6260629858
 13
159.575304528
 23
30.6260629858
  0
SOLID
  8
0
 62
7
  6
CONTINUOUS
 10
159.922179528
 20
30.5938006049
 11
159.575304528
 21
30.6260629858
 12
160.615929528
 22
30.6260629858
 13
160.615929528
 23
30.6260629858
  0
SOLID
  8
0
 62
7
  6
CONTINUOUS
 10
160.615929528
 20
30.6260629858
 11
160.269054528
 21
30.5938006049
 12
159.922179528
 22
30.5938006049
 13
159.922179528
 23
30.5938006049
  0
SOLID
  8
0
 62
7
  6
CONTINUOUS
 10
149.5737418074
 20
31.1100184796
 11
149.9206168074
 21
31.2713369632
 12
149.8628043005
 22
31.1422827828
 13
149.8628043005
 23
31.1422827828
  0
SOLID
  8
0
 62
7
  6
CONTINUOUS
 10
149.8628043005
 20
31.1422827828
 11
149.8628043005
 21
31.0454914852
 12
149.5737418074
 22
31.1100184796
 13
149.5737418074
 23
31.1100184796
  0
SOLID
  8
0
 62
7
  6
CONTINUOUS
 10
149.6315543091
 20
30.9164372091
 11
149.5737418074
 21
31.1100184796
 12
149.8628043005
 22
31.0454914852
 13
149.8628043005
 23
31.0454914852
  0
SOLID
  8
0
 62
7
  6
CONTINUOUS
 10
149.8628043005
 20
31.0454914852
 11
149.9784292936
 21
30.8841729058
 12
149.6315543091
 22
30.9164372091
 13
149.6315543091
 23
30.9164372091
  0
SOLID
  8
0
 62
7
  6
CONTINUOUS
 10
149.7471793074
 20
30.7873813202
 11
149.6315543091
 21
30.9164372091
 12
149.9784292936
 22
30.8841729058
 13
149.9784292936
 23
30.8841729058
  0
SOLID
  8
0
 62
7
  6
CONTINUOUS
 10
149.9784292936
 20
30.8841729058
 11
150.1518667936
 21
30.7873813202
 12
149.7471793074
 22
30.7873813202
 13
149.7471793074
 23
30.7873813202
  0
SOLID
  8
0
 62
7
  6
CONTINUOUS
 10
149.8628043005
 20
30.7228547004
 11
149.7471793074
 21
30.7873813202
 12
150.1518667936
 22
30.7873813202
 13
150.1518667936
 23
30.7873813202
  0
SOLID
  8
0
 62
7
  6
CONTINUOUS
 10
150.1518667936
 20
30.7873813202
 11
150.498741835
 21
30.7228547004
 12
149.8628043005
 22
30.7228547004
 13
149.8628043005
 23
30.7228547004
  0
SOLID
  8
0
 62
7
  6
CONTINUOUS
 10
150.0362418212
 20
30.658327332
 11
149.8628043005
 21
30.7228547004
 12
150.498741835
 22
30.7228547004
 13
150.498741835
 23
30.7228547004
  0
SOLID
  8
0
 62
7
  6
CONTINUOUS
 10
154.0831168074
 20
31.1100184386
 11
154.1987416972
 21
31.1745462761
 12
154.7768668074
 22
31.1422827828
 13
154.7768668074
 23
31.1422827828
  0
SOLID
  8
0
 62
7
  6
CONTINUOUS
 10
154.7768668074
 20
31.1422827828
 11
154.5456166972
 21
31.1100184386
 12
154.0831168074
 22
31.1100184386
 13
154.0831168074
 23
31.1100184386
  0
SOLID
  8
0
 62
7
  6
CONTINUOUS
 10
153.9674919177
 20
30.9809642992
 11
154.0831168074
 21
31.1100184386
 12
154.5456166972
 22
31.1100184386
 13
154.5456166972
 23
31.1100184386
  0
SOLID
  8
0
 62
7
  6
CONTINUOUS
 10
154.3143669177
 20
31.0132277988
 11
153.9674919177
 21
30.9809642992
 12
154.4299918074
 22
31.0777556927
 13
154.4299918074
 23
31.0777556927
  0
SOLID
  8
0
 62
7
  6
CONTINUOUS
 10
153.9674919177
 20
30.9809642992
 11
154.5456166972
 21
31.1100184796
 12
154.4299918074
 22
31.0777556927
 13
154.4299918074
 23
31.0777556927
  0
SOLID
  8
0
 62
7
  6
CONTINUOUS
 10
154.3143669177
 20
31.0132277988
 11
154.2565543074
 21
30.9164372091
 12
153.9674919177
 22
30.9809642992
 13
153.9674919177
 23
30.9809642992
  0
SOLID
  8
0
 62
7
  6
CONTINUOUS
 10
153.9674919177
 20
30.8841729058
 11
153.9674919177
 21
30.9809642992
 12
154.2565543074
 22
30.9164372091
 13
154.2565543074
 23
30.9164372091
  0
SOLID
  8
0
 62
7
  6
CONTINUOUS
 10
154.2565543074
 20
30.9164372091
 11
154.2565543074
 21
30.8519086025
 12
153.9674919177
 22
30.8841729058
 13
153.9674919177
 23
30.8841729058
  0
SOLID
  8
0
 62
7
  6
CONTINUOUS
 10
154.0253041972
 20
30.7551187255
 11
153.9674919177
 21
30.8841729058
 12
154.2565543074
 22
30.8519086025
 13
154.2565543074
 23
30.8519086025
  0
SOLID
  8
0
 62
7
  6
CONTINUOUS
 10
155.412804528
 20
30.9487004259
 11
155.7018665869
 21
30.8519086025
 12
155.3549915869
 22
30.8841729058
 13
155.3549915869
 23
30.8841729058
  0
SOLID
  8
0
 62
7
  6
CONTINUOUS
 10
155.1815540869
 20
30.7873815123
 11
155.3549915869
 21
30.8841729058
 12
155.7018665869
 22
30.8519086025
 13
155.7018665869
 23
30.8519086025
  0
SOLID
  8
0
 62
7
  6
CONTINUOUS
 10
155.1815540869
 20
30.7873815123
 11
155.7018665869
 21
30.8519086025
 12
155.412804528
 22
30.7551187255
 13
155.412804528
 23
30.7551187255
  0
SOLID
  8
0
 62
7
  6
CONTINUOUS
 10
155.7018665869
 20
30.8519086025
 11
155.759679528
 21
30.6905916353
 12
155.412804528
 22
30.7551187255
 13
155.412804528
 23
30.7551187255
  0
SOLID
  8
0
 62
7
  6
CONTINUOUS
 10
155.4706168074
 20
30.658327332
 11
155.412804528
 21
30.7551187255
 12
155.759679528
 22
30.6905916353
 13
155.759679528
 23
30.6905916353
  0
SOLID
  8
0
 62
7
  6
CONTINUOUS
 10
155.4706168074
 20
30.658327332
 11
155.759679528
 21
30.6905916353
 12
155.5284290869
 22
30.5938002079
 13
155.5284290869
 23
30.5938002079
  0
SOLID
  8
0
 62
7
  6
CONTINUOUS
 10
155.759679528
 20
30.6905916353
 11
155.8174918074
 21
30.5938002079
 12
155.5284290869
 22
30.5938002079
 13
155.5284290869
 23
30.5938002079
  0
SOLID
  8
0
 62
7
  6
CONTINUOUS
 10
151.0768668626
 20
30.8196456577
 11
151.1346793074
 21
30.9164373395
 12
151.4237418626
 22
30.9164373395
 13
151.4237418626
 23
30.9164373395
  0
SOLID
  8
0
 62
7
  6
CONTINUOUS
 10
151.4237418626
 20
30.9164373395
 11
151.3659292523
 21
30.7873815123
 12
151.0768668626
 22
30.8196456577
 13
151.0768668626
 23
30.8196456577
  0
SOLID
  8
0
 62
7
  6
CONTINUOUS
 10
150.9034292799
 20
30.7551187255
 11
151.0768668626
 21
30.8196456577
 12
151.3659292523
 22
30.7873815123
 13
151.3659292523
 23
30.7873815123
  0
SOLID
  8
0
 62
7
  6
CONTINUOUS
 10
150.9034292799
 20
30.7551187255
 11
151.3659292523
 21
30.7873815123
 12
150.498741835
 22
30.7228544222
 13
150.498741835
 23
30.7228544222
  0
SOLID
  8
0
 62
7
  6
CONTINUOUS
 10
151.3659292523
 20
30.7873815123
 11
151.1924917523
 21
30.6905916353
 12
150.498741835
 22
30.7228544222
 13
150.498741835
 23
30.7228544222
  0
SOLID
  8
0
 62
7
  6
CONTINUOUS
 10
150.0362418212
 20
30.658327332
 11
150.498741835
 21
30.7228544222
 12
151.1924917523
 22
30.6905916353
 13
151.1924917523
 23
30.6905916353
  0
SOLID
  8
0
 62
7
  6
CONTINUOUS
 10
150.0362418212
 20
30.658327332
 11
151.1924917523
 21
30.6905916353
 12
150.2096793212
 22
30.6260631011
 13
150.2096793212
 23
30.6260631011
  0
SOLID
  8
0
 62
7
  6
CONTINUOUS
 10
151.1924917523
 20
30.6905916353
 11
150.9612418074
 21
30.6260631011
 12
150.2096793212
 22
30.6260631011
 13
150.2096793212
 23
30.6260631011
  0
SOLID
  8
0
 62
7
  6
CONTINUOUS
 10
150.5565542799
 20
30.5938002419
 11
150.2096793212
 21
30.6260631011
 12
150.9612418074
 22
30.6260631011
 13
150.9612418074
 23
30.6260631011
  0
SOLID
  8
0
 62
7
  6
CONTINUOUS
 10
154.0253041972
 20
30.7551187255
 11
154.2565543074
 21
30.8519086025
 12
154.3143669177
 22
30.7873815123
 13
154.3143669177
 23
30.7873815123
  0
SOLID
  8
0
 62
7
  6
CONTINUOUS
 10
154.3143669177
 20
30.7873815123
 11
154.5456166972
 21
30.7228544222
 12
154.0253041972
 22
30.7551187255
 13
154.0253041972
 23
30.7551187255
  0
SOLID
  8
0
 62
7
  6
CONTINUOUS
 10
154.1987416972
 20
30.658327332
 11
154.0253041972
 21
30.7551187255
 12
154.5456166972
 22
30.7228544222
 13
154.5456166972
 23
30.7228544222
  0
SOLID
  8
0
 62
7
  6
CONTINUOUS
 10
154.8924916972
 20
30.7228544637
 11
155.1815540869
 21
30.7873815123
 12
155.412804528
 22
30.7551187255
 13
155.412804528
 23
30.7551187255
  0
SOLID
  8
0
 62
7
  6
CONTINUOUS
 10
155.412804528
 20
30.7551187255
 11
155.3549915869
 21
30.6905916353
 12
154.8924916972
 22
30.7228544637
 13
154.8924916972
 23
30.7228544637
  0
SOLID
  8
0
 62
7
  6
CONTINUOUS
 10
155.3549915869
 20
30.6905916353
 11
154.1987416972
 21
30.658327332
 12
154.8924916972
 22
30.7228544637
 13
154.8924916972
 23
30.7228544637
  0
SOLID
  8
0
 62
7
  6
CONTINUOUS
 10
154.1987416972
 20
30.658327332
 11
154.5456166972
 21
30.7228544637
 12
154.8924916972
 22
30.7228544637
 13
154.8924916972
 23
30.7228544637
  0
SOLID
  8
0
 62
7
  6
CONTINUOUS
 10
154.1987416972
 20
30.658327332
 11
155.3549915869
 21
30.6905916353
 12
154.3143669177
 22
30.6260630541
 13
154.3143669177
 23
30.6260630541
  0
SOLID
  8
0
 62
7
  6
CONTINUOUS
 10
155.3549915869
 20
30.6905916353
 11
155.1815540869
 21
30.6260630541
 12
154.3143669177
 22
30.6260630541
 13
154.3143669177
 23
30.6260630541
  0
SOLID
  8
0
 62
7
  6
CONTINUOUS
 10
154.5456166972
 20
30.5938002188
 11
154.3143669177
 21
30.6260630541
 12
155.1815540869
 22
30.6260630541
 13
155.1815540869
 23
30.6260630541
  0
SOLID
  8
0
 62
7
  6
CONTINUOUS
 10
155.1815540869
 20
30.6260630541
 11
154.8924916972
 21
30.5938002188
 12
154.5456166972
 22
30.5938002188
 13
154.5456166972
 23
30.5938002188
  0
SOLID
  8
0
 62
7
  6
CONTINUOUS
 10
159.575304528
 20
30.7551187255
 11
159.228429528
 21
30.7228544637
 12
159.4596793074
 22
30.7873815123
 13
159.4596793074
 23
30.7873815123
  0
SOLID
  8
0
 62
7
  6
CONTINUOUS
 10
159.4596793074
 20
30.7873815123
 11
159.228429528
 21
30.7228544637
 12
159.401867028
 22
30.851908644
 13
159.401867028
 23
30.851908644
  0
SOLID
  8
0
 62
7
  6
CONTINUOUS
 10
159.228429528
 20
30.7228544637
 11
159.1128043074
 21
30.851908644
 12
159.401867028
 22
30.851908644
 13
159.401867028
 23
30.851908644
  0
SOLID
  8
0
 62
7
  6
CONTINUOUS
 10
159.575304528
 20
30.7551187255
 11
159.922179528
 21
30.7228544637
 12
159.228429528
 22
30.7228544637
 13
159.228429528
 23
30.7228544637
  0
SOLID
  8
0
 62
7
  6
CONTINUOUS
 10
156.279992028
 20
30.5938002419
 11
156.279992028
 21
31.6262382337
 12
156.5690540869
 22
30.5938002419
 13
156.5690540869
 23
31.6262382337
  0
ENDBLK
  8
0
  6
BYBLOCK
 62
0
  0
BLOCK
  8
0
 62
2
  6
CONTINUOUS
  2
AMMEAAL_LOGO_BL0
 70
64
 10
32.1213064866
 20
19.8534310916
  0
TEXT
  8
0
 62
7
  6
CONTINUOUS
 10
18.3860103289
 20
19.2268451992
  7
TEXTSTYLE_3
 40
2.7338706658
  1
Ammeraal Beltech
 41
1.0
 51
15.0
 72
0
  0
TEXT
  8
0
 62
7
  6
CONTINUOUS
 10
29.1868111546
 20
16.9533085264
  7
TEXTSTYLE_4
 40
1.0935482663
  1
Innovation & Service in Belting
 41
1.0
 72
0
  0
LINE
  8
0
 62
7
  6
CONTINUOUS
 10
12.3614696776
 20
19.9934385078
 11
13.1396216709
 21
23.6543558055
  0
LINE
  8
0
 62
7
  6
CONTINUOUS
 10
23.2347899607
 20
27.3177497171
 11
13.6274394139
 21
24.1961322958
  0
LINE
  8
0
 62
7
  6
CONTINUOUS
 10
12.5867530099
 20
19.3000877048
 11
20.093828271
 21
12.5406867788
  0
LINE
  8
0
 62
7
  6
CONTINUOUS
 10
12.8492874206
 20
20.5352149982
 11
23.6575567857
 21
24.0470345971
  0
LINE
  8
0
 62
7
  6
CONTINUOUS
 10
23.6533516486
 20
13.6972460334
 11
15.2078919798
 21
21.3015720751
  0
LINE
  8
0
 62
7
  6
CONTINUOUS
 10
24.1731743684
 20
26.4728246013
 11
23.1966148312
 21
21.8784731989
  0
LINE
  8
0
 62
7
  6
CONTINUOUS
 10
22.4968128835
 20
18.5861638851
 11
21.810364672
 21
15.3566789607
  0
LINE
  8
0
 62
7
  6
CONTINUOUS
 10
24.8542704669
 20
14.087448211
 11
25.8105020025
 21
18.5861638851
  0
LINE
  8
0
 62
7
  6
CONTINUOUS
 10
26.5103039502
 20
21.8784731989
 11
26.9545457526
 21
23.9684665583
  0
LINE
  8
0
 62
7
  6
CONTINUOUS
 10
20.8069293463
 20
12.3891124661
 11
24.3664527239
 21
13.5456717207
  0
LINE
  8
0
 62
7
  6
CONTINUOUS
 10
23.9478910361
 20
27.1661754044
 11
26.7292624203
 21
24.6618173613
  0
ARC
  8
0
 62
7
  6
CONTINUOUS
 10
13.8527227462
 20
23.5027814928
 40
0.7290321776
 50
108.0
 51
168.0
  0
ARC
  8
0
 62
7
  6
CONTINUOUS
 10
23.4600732931
 20
26.624398914
 40
0.7290321776
 50
348.0
 51
108.0
  0
ARC
  8
0
 62
7
  6
CONTINUOUS
 10
26.2414446773
 20
24.120040871
 40
0.7290321776
 50
348.0
 51
48.0
  0
ARC
  8
0
 62
7
  6
CONTINUOUS
 10
20.581646014
 20
13.0824632691
 40
0.7290321776
 50
228.0
 51
288.0
  0
ARC
  8
0
 62
7
  6
CONTINUOUS
 10
13.0745707529
 20
19.8418641951
 40
0.7290321776
 50
108.0
 51
228.0
  0
ARC
  8
0
 62
7
  6
CONTINUOUS
 10
24.1411693916
 20
14.2390225237
 40
0.7290321776
 50
228.0
 51
348.0
  0
ENDBLK
  8
0
  6
BYBLOCK
 62
0
  0
ENDSEC
  0
SECTION
  2
ENTITIES
  0
TEXT
  8
0
 62
5
  6
CONTINUOUS
 10
96.0
 20
25.636
  7
TEXTSTYLE_2
 40
2.8
  1
Scale :
 41
0.6
 51
0.000019
 72
0
  0
TEXT
  8
0
 62
5
  6
CONTINUOUS
 10
116.0
 20
25.636
  7
TEXTSTYLE_2
 40
2.8
  1
Belt type:
 41
0.6
 51
0.000019
 72
0
  0
INSERT
  8
0
 62
2
  6
CONTINUOUS
  2
AMMEAAL_LOGO_BL0
 10
32.1213064866
 20
19.8534310916
  0
INSERT
  8
0
 62
2
  6
CONTINUOUS
  2
UNI_LOGO2_BL1
 10
173.5956734183
 20
35.5937998301
  0
LINE
  8
0
 62
2
  6
CONTINUOUS
 10
10.0
 20
30.0
 11
200.0
 21
30.0
  0
LINE
  8
0
 62
2
  6
CONTINUOUS
 10
10.0
 20
30.0
 11
10.0
 21
10.0
  0
LINE
  8
0
 62
2
  6
CONTINUOUS
 10
10.0
 20
10.0
 11
200.0
 21
10.0
  0
LINE
  8
0
 62
2
  6
CONTINUOUS
 10
95.0
 20
30.0
 11
95.0
 21
10.0
  0
LINE
  8
0
 62
2
  6
CONTINUOUS
 10
115.0
 20
30.0
 11
115.0
 21
10.0
  0
LINE
  8
0
 62
2
  6
CONTINUOUS
 10
200.0
 20
30.0
 11
200.0
 21
10.0
  0
TEXT
  8
0
 62
5
  6
CONTINUOUS
 10
13.0
 20
23.303
  7
TEXTSTYLE_5
 40
1.52
  1
                                                                     Ammeraal Beltech Modular A/S
 41
1.0
 72
0
  0
TEXT
  8
0
 62
5
  6
CONTINUOUS
 10
13.0
 20
20.595
  7
TEXTSTYLE_5
 40
1.5
  1
                                                                      Hjulmagervej 21,  7100 Vejle,  DK
 41
1.0
 72
0
  0
TEXT
  8
0
 62
5
  6
CONTINUOUS
 10
13.0
 20
17.881
  7
TEXTSTYLE_5
 40
1.495
  1
                                                                      tel: 
 41
1.0
 72
0
  0
TEXT
  8
0
 62
5
  6
CONTINUOUS
 10
57.9869465649
 20
17.881
  7
TEXTSTYLE_5
 40
1.51
  1
+45 75723100     fax: +45 75723348
 41
1.0
 72
0
  0
TEXT
  8
0
 62
5
  6
CONTINUOUS
 10
13.0
 20
15.177
  7
TEXTSTYLE_5
 40
1.5
  1
                                                                      admin@unichains.dk  www.unichains.com
 41
1.0
 72
0
  0
TEXT
  8
0
 62
5
  6
CONTINUOUS
 10
99.75
 20
13.75
  7
TEXTSTYLE_6
 40
5.0
  1
1:1
 41
0.7
 72
1
 11
105.0
 21
13.75
  0
TEXT
  8
0
 62
5
  6
CONTINUOUS
 10
118.0
 20
13.75
  7
TEXTSTYLE_7
 40
7.5
  1
Sprocket Z15 40X40 SQ
 41
0.435515873
 72
0
  0
LINE
  8
0
 62
7
  6
CONTINUOUS
 10
210.0
 20
0.0
 11
0.0
 21
0.0
  0
LINE
  8
0
 62
7
  6
CONTINUOUS
 10
10.0
 20
10.0
 11
200.0
 21
10.0
  0
LINE
  8
0
 62
7
  6
CONTINUOUS
 10
10.0
 20
30.0
 11
200.0
 21
30.0
  0
LINE
  8
0
 62
7
  6
CONTINUOUS
 10
0.0
 20
0.0
 11
0.0
 21
297.0
  0
LINE
  8
0
 62
7
  6
CONTINUOUS
 10
10.0
 20
10.0
 11
10.0
 21
287.0
  0
LINE
  8
0
 62
7
  6
CONTINUOUS
 10
200.0
 20
287.0
 11
200.0
 21
10.0
  0
LINE
  8
0
 62
7
  6
CONTINUOUS
 10
210.0
 20
0.0
 11
210.0
 21
297.0
  0
LINE
  8
0
 62
7
  6
CONTINUOUS
 10
10.0
 20
287.0
 11
200.0
 21
287.0
  0
LINE
  8
0
 62
7
  6
CONTINUOUS
 10
0.0
 20
297.0
 11
210.0
 21
297.0
  0
LINE
  8
0
 62
7
  6
CONTINUOUS
 10
39.648213145
 20
194.4337050157
 11
40.3207435369
 21
188.0350057606
  0
LINE
  8
0
 62
7
  6
CONTINUOUS
 10
43.6153944885
 20
219.381515664
 11
41.6271961181
 21
213.2624702708
  0
LINE
  8
0
 62
7
  6
CONTINUOUS
 10
57.3867837398
 20
240.5588767378
 11
53.0816341675
 21
235.7775237446
  0
LINE
  8
0
 62
7
  6
CONTINUOUS
 10
78.581182588
 20
254.304030117
 11
72.703481286
 21
251.6871088937
  0
LINE
  8
0
 62
7
  6
CONTINUOUS
 10
116.0765020093
 20
138.9053028131
 11
109.7831540666
 21
137.567610413
  0
LINE
  8
0
 62
7
  6
CONTINUOUS
 10
84.557326766
 20
138.9053028131
 11
90.8506747086
 21
137.567610413
  0
LINE
  8
0
 62
7
  6
CONTINUOUS
 10
62.0564753365
 20
150.387613944
 11
67.2616462466
 21
146.6058359123
  0
LINE
  8
0
 62
7
  6
CONTINUOUS
 10
46.1712014042
 20
170.0291478976
 11
49.3881739438
 21
164.4571880123
  0
LINE
  8
QUILTS
 62
7
  6
CONTINUOUS
 10
52.5008603385
 20
200.8266079979
 11
52.481358028
 21
200.3061398198
  0
LINE
  8
QUILTS
 62
7
  6
CONTINUOUS
 10
52.403348804
 20
198.2242675911
 11
52.3838464977
 21
197.7037995246
  0
LINE
  8
QUILTS
 62
7
  6
CONTINUOUS
 10
54.5178164027
 20
214.3152698261
 11
54.5682421004
 21
214.7423358215
  0
LINE
  8
QUILTS
 62
7
  6
CONTINUOUS
 10
52.8473876824
 20
204.0280930935
 11
52.7948592646
 21
203.6147505697
  0
LINE
  8
QUILTS
 62
7
  6
CONTINUOUS
 10
52.6766703808
 20
202.6847303346
 11
52.6110098773
 21
202.1680523276
  0
LINE
  8
QUILTS
 62
7
  6
CONTINUOUS
 10
53.9725665731
 20
214.971671259
 11
53.8847143161
 21
214.4473935736
  0
LINE
  8
QUILTS
 62
7
  6
CONTINUOUS
 10
51.6978525893
 20
206.8763373606
 11
51.602684748
 21
206.364272681
  0
LINE
  8
QUILTS
 62
7
  6
CONTINUOUS
 10
52.125644558
 20
206.2670799666
 11
52.2208123992
 21
206.7791446462
  0
LINE
  8
QUILTS
 62
7
  6
CONTINUOUS
 10
53.2667323122
 20
206.584759163
 11
53.171564471
 21
206.0726944833
  0
LINE
  8
QUILTS
 62
7
  6
CONTINUOUS
 10
54.2719769061
 20
215.7493592165
 11
53.9725665731
 21
214.971671259
  0
LINE
  8
QUILTS
 62
7
  6
CONTINUOUS
 10
54.5682421004
 20
214.7423358215
 11
54.8676524334
 21
215.520023779
  0
LINE
  8
QUILTS
 62
7
  6
CONTINUOUS
 10
57.8964561848
 20
214.8004124264
 11
57.6718985422
 21
214.2171467364
  0
LINE
  8
QUILTS
 62
7
  6
CONTINUOUS
 10
53.2169960586
 20
203.5611045579
 11
53.3750586749
 21
203.9610355788
  0
LINE
  8
QUILTS
 62
7
  6
CONTINUOUS
 10
52.9923181755
 20
204.3246883356
 11
52.8473876824
 21
204.0280930935
  0
LINE
  8
QUILTS
 62
7
  6
CONTINUOUS
 10
57.3694674356
 20
222.2758956316
 11
57.0809281214
 21
221.7214859779
  0
LINE
  8
QUILTS
 62
7
  6
CONTINUOUS
 10
55.8786806118
 20
219.4114450491
 11
55.4458721908
 21
218.5798316259
  0
LINE
  8
QUILTS
 62
7
  6
CONTINUOUS
 10
54.558387244
 20
216.1971906436
 11
54.2719769061
 21
215.7493592165
  0
LINE
  8
QUILTS
 62
7
  6
CONTINUOUS
 10
59.4681943551
 20
225.5391030903
 11
58.0799577277
 21
223.4599688795
  0
LINE
  8
QUILTS
 62
7
  6
CONTINUOUS
 10
58.9578595985
 20
223.6253090802
 11
60.0568807032
 21
225.2712909913
  0
LINE
  8
QUILTS
 62
7
  6
CONTINUOUS
 10
61.2955139502
 20
224.4442563379
 11
60.1964928455
 21
222.7982744268
  0
LINE
  8
QUILTS
 62
7
  6
CONTINUOUS
 10
60.7273355594
 20
222.4438310748
 11
61.8263566641
 21
224.0898129859
  0
LINE
  8
QUILTS
 62
7
  6
CONTINUOUS
 10
54.8676524334
 20
215.520023779
 11
55.1166366403
 21
215.8706446286
  0
LINE
  8
QUILTS
 62
7
  6
CONTINUOUS
 10
70.4333859858
 20
234.3424889562
 11
70.6956570887
 21
234.683283602
  0
LINE
  8
QUILTS
 62
7
  6
CONTINUOUS
 10
71.3190626234
 20
234.2257713905
 11
70.8928379702
 21
233.7564400574
  0
LINE
  8
QUILTS
 62
7
  6
CONTINUOUS
 10
70.4331130977
 20
235.018168687
 11
69.9249107311
 21
234.4845682748
  0
LINE
  8
QUILTS
 62
7
  6
CONTINUOUS
 10
59.8458849874
 20
225.9131834807
 11
59.4681943551
 21
225.5391030903
  0
LINE
  8
QUILTS
 62
7
  6
CONTINUOUS
 10
66.4719268526
 20
233.7016492568
 11
64.6674021609
 21
231.971420764
  0
LINE
  8
QUILTS
 62
7
  6
CONTINUOUS
 10
65.5602937474
 20
231.9432482336
 11
66.9888763686
 21
233.3130130071
  0
LINE
  8
QUILTS
 62
7
  6
CONTINUOUS
 10
68.0196508732
 20
232.2379769336
 11
66.591068252
 21
230.8682121601
  0
LINE
  8
QUILTS
 62
7
  6
CONTINUOUS
 10
67.0328286656
 20
230.4074825065
 11
68.4614112868
 21
231.77724728
  0
LINE
  8
QUILTS
 62
7
  6
CONTINUOUS
 10
70.9249775012
 20
235.4037816909
 11
70.4331130977
 21
235.018168687
  0
LINE
  8
QUILTS
 62
7
  6
CONTINUOUS
 10
70.6956570887
 20
234.683283602
 11
71.1875214923
 21
235.0688966059
  0
LINE
  8
QUILTS
 62
7
  6
CONTINUOUS
 10
69.9744760252
 20
233.5771754513
 11
70.3843627155
 21
233.898519376
  0
LINE
  8
QUILTS
 62
7
  6
CONTINUOUS
 10
72.220811841
 20
234.932726848
 11
71.3190626234
 21
234.2257713905
  0
LINE
  8
QUILTS
 62
7
  6
CONTINUOUS
 10
71.5816067064
 20
233.8908861882
 11
72.483355924
 21
234.5978416457
  0
LINE
  8
QUILTS
 62
7
  6
CONTINUOUS
 10
60.0568807032
 20
225.2712909913
 11
60.3188840673
 21
225.4721088757
  0
LINE
  8
QUILTS
 62
7
  6
CONTINUOUS
 10
72.4646649933
 20
238.4970604324
 11
72.0356458765
 21
238.2017443065
  0
LINE
  8
QUILTS
 62
7
  6
CONTINUOUS
 10
73.722636992
 20
239.3255466718
 11
73.2848312189
 21
239.0434205974
  0
LINE
  8
QUILTS
 62
7
  6
CONTINUOUS
 10
66.9214973796
 20
233.9853263505
 11
66.4719268526
 21
233.7016492568
  0
LINE
  8
QUILTS
 62
7
  6
CONTINUOUS
 10
71.4824760263
 20
235.7056719525
 11
70.9249775012
 21
235.4037816909
  0
LINE
  8
QUILTS
 62
7
  6
CONTINUOUS
 10
66.9888763686
 20
233.3130130071
 11
67.2880686907
 21
233.4525032931
  0
LINE
  8
QUILTS
 62
7
  6
CONTINUOUS
 10
71.1875214923
 20
235.0688966059
 11
71.5810645907
 21
235.2422487092
  0
LINE
  8
QUILTS
 62
7
  6
CONTINUOUS
 10
93.8750052211
 20
244.1913875576
 11
94.2756539103
 21
244.347617356
  0
LINE
  8
QUILTS
 62
7
  6
CONTINUOUS
 10
94.2110128553
 20
244.8755898179
 11
93.7069711243
 21
244.7067013379
  0
LINE
  8
QUILTS
 62
7
  6
CONTINUOUS
 10
52.7948592646
 20
203.6147505697
 11
52.8478650453
 21
203.1879965429
  0
LINE
  8
QUILTS
 62
7
  6
CONTINUOUS
 10
53.2700018393
 20
203.1343505312
 11
53.2169960586
 21
203.5611045579
  0
LINE
  8
QUILTS
 62
7
  6
CONTINUOUS
 10
53.8847143161
 20
214.4473935736
 11
53.9335678728
 21
213.9821050053
  0
LINE
  8
QUILTS
 62
7
  6
CONTINUOUS
 10
55.4228882467
 20
199.257760833
 11
55.4072863994
 21
198.8413863203
  0
LINE
  8
QUILTS
 62
7
  6
CONTINUOUS
 10
55.8325198802
 20
198.8254525212
 11
55.8481217275
 21
199.2418270339
  0
LINE
  8
QUILTS
 62
7
  6
CONTINUOUS
 10
55.8910268006
 20
200.3868567578
 11
55.9105291112
 21
200.907324936
  0
LINE
  8
QUILTS
 62
7
  6
CONTINUOUS
 10
58.3554263961
 20
214.5120889575
 11
58.3424268293
 21
214.1822335396
  0
LINE
  8
QUILTS
 62
7
  6
CONTINUOUS
 10
59.0259542462
 20
214.4771746516
 11
59.0389538043
 21
214.8070300729
  0
LINE
  8
QUILTS
 62
7
  6
CONTINUOUS
 10
61.907994464
 20
224.7868182145
 11
61.9352066227
 21
225.0191526298
  0
LINE
  8
QUILTS
 62
7
  6
CONTINUOUS
 10
55.9881045249
 20
201.7388841959
 11
56.0537650284
 21
202.2555622028
  0
LINE
  8
QUILTS
 62
7
  6
CONTINUOUS
 10
56.290142796
 20
204.1156026731
 11
56.3558032619
 21
204.6322803844
  0
LINE
  8
QUILTS
 62
7
  6
CONTINUOUS
 10
58.9381024261
 20
213.9528980754
 11
59.0259542462
 21
214.4771746516
  0
LINE
  8
QUILTS
 62
7
  6
CONTINUOUS
 10
56.5185075479
 20
205.4506610567
 11
56.6136753891
 21
205.9627257364
  0
LINE
  8
QUILTS
 62
7
  6
CONTINUOUS
 10
61.380569743
 20
224.7632220062
 11
61.2955139502
 21
224.4442563379
  0
LINE
  8
QUILTS
 62
7
  6
CONTINUOUS
 10
63.2385194276
 20
223.5226701501
 11
63.1534636348
 21
223.2037044818
  0
LINE
  8
QUILTS
 62
7
  6
CONTINUOUS
 10
55.7106096655
 20
198.4130615326
 11
55.8325198802
 21
198.8254525212
  0
LINE
  8
QUILTS
 62
7
  6
CONTINUOUS
 10
68.6916622529
 20
232.44016923
 11
68.7684120013
 21
232.6611426633
  0
LINE
  8
QUILTS
 62
7
  6
CONTINUOUS
 10
58.3424268293
 20
214.1822335396
 11
58.0430164963
 21
213.4045455821
  0
LINE
  8
QUILTS
 62
7
  6
CONTINUOUS
 10
58.6386920931
 20
213.1752101179
 11
58.9381024261
 21
213.9528980754
  0
LINE
  8
QUILTS
 62
7
  6
CONTINUOUS
 10
59.3123650211
 20
214.9250071879
 11
59.5369226637
 21
215.5082728779
  0
LINE
  8
QUILTS
 62
7
  6
CONTINUOUS
 10
63.6264627766
 20
222.7626298354
 11
63.8272058298
 21
223.254858015
  0
LINE
  8
QUILTS
 62
7
  6
CONTINUOUS
 10
69.9249107311
 20
234.4845682748
 11
69.8265913023
 21
234.2723088453
  0
LINE
  8
QUILTS
 62
7
  6
CONTINUOUS
 10
70.335066557
 20
234.1302295267
 11
70.4333859858
 21
234.3424889562
  0
LINE
  8
QUILTS
 62
7
  6
CONTINUOUS
 10
70.8928379702
 20
233.7564400574
 11
70.6962009888
 21
233.3319226693
  0
LINE
  8
QUILTS
 62
7
  6
CONTINUOUS
 10
71.221018051
 20
233.3378335838
 11
71.3193356035
 21
233.5500915424
  0
LINE
  8
QUILTS
 62
7
  6
CONTINUOUS
 10
68.1715897241
 20
232.5310437708
 11
68.0196508732
 21
232.2379769336
  0
LINE
  8
QUILTS
 62
7
  6
CONTINUOUS
 10
69.7177513263
 20
230.9184898219
 11
69.5658124754
 21
230.6254229847
  0
LINE
  8
QUILTS
 62
7
  6
CONTINUOUS
 10
59.8811494205
 20
216.271517112
 11
60.1696887348
 21
216.8259267657
  0
LINE
  8
QUILTS
 62
7
  6
CONTINUOUS
 10
61.371935694
 20
219.135966637
 11
61.8047446654
 21
219.9675811176
  0
LINE
  8
QUILTS
 62
7
  6
CONTINUOUS
 10
55.4072863994
 20
198.8413863203
 11
55.1790677959
 21
198.4329787822
  0
LINE
  8
QUILTS
 62
7
  6
CONTINUOUS
 10
72.8774448447
 20
233.4198342287
 11
72.598830173
 21
232.9310477322
  0
LINE
  8
QUILTS
 62
7
  6
CONTINUOUS
 10
58.3522813183
 20
212.7273775816
 11
58.6386920931
 21
213.1752101179
  0
LINE
  8
QUILTS
 62
7
  6
CONTINUOUS
 10
63.1534636348
 20
223.2037044818
 11
62.0544425301
 21
221.5577225707
  0
LINE
  8
QUILTS
 62
7
  6
CONTINUOUS
 10
62.2382261491
 20
220.6834956246
 11
63.6264627766
 21
222.7626298354
  0
LINE
  8
QUILTS
 62
7
  6
CONTINUOUS
 10
53.3750586749
 20
203.9610355788
 11
53.5068570448
 21
204.1542950421
  0
LINE
  8
QUILTS
 62
7
  6
CONTINUOUS
 10
69.9323838381
 20
230.0925998734
 11
70.2347008875
 21
230.5298535251
  0
LINE
  8
QUILTS
 62
7
  6
CONTINUOUS
 10
58.0430164963
 20
213.4045455821
 11
57.7940322895
 21
213.0539247325
  0
LINE
  8
QUILTS
 62
7
  6
CONTINUOUS
 10
71.3193356035
 20
233.5500915424
 11
71.5816067064
 21
233.8908861882
  0
LINE
  8
QUILTS
 62
7
  6
CONTINUOUS
 10
72.861374187
 20
232.5961626178
 11
73.2056248738
 21
233.0012278211
  0
LINE
  8
QUILTS
 62
7
  6
CONTINUOUS
 10
53.2427828671
 20
204.6078720748
 11
52.9923181755
 21
204.3246883356
  0
LINE
  8
QUILTS
 62
7
  6
CONTINUOUS
 10
69.5658124754
 20
230.6254229847
 11
68.1372298542
 21
229.2556582112
  0
LINE
  8
QUILTS
 62
7
  6
CONTINUOUS
 10
68.1278591465
 20
228.3623713807
 11
69.9323838381
 21
230.0925998734
  0
LINE
  8
QUILTS
 62
7
  6
CONTINUOUS
 10
54.9066511337
 20
216.5095900328
 11
54.558387244
 21
216.1971906436
  0
LINE
  8
QUILTS
 62
7
  6
CONTINUOUS
 10
93.7069711243
 20
244.7067013379
 11
93.2287810823
 21
244.3266232937
  0
LINE
  8
QUILTS
 62
7
  6
CONTINUOUS
 10
72.598830173
 20
232.9310477322
 11
72.1069676457
 21
232.5454361993
  0
LINE
  8
QUILTS
 62
7
  6
CONTINUOUS
 10
72.3695116597
 20
232.210551085
 11
72.861374187
 21
232.5961626178
  0
LINE
  8
QUILTS
 62
7
  6
CONTINUOUS
 10
73.7631234046
 20
233.3031180754
 11
74.1730063422
 21
233.6244590581
  0
LINE
  8
QUILTS
 62
7
  6
CONTINUOUS
 10
61.8263566641
 20
224.0898129859
 11
62.0883600282
 21
224.2906308702
  0
LINE
  8
QUILTS
 62
7
  6
CONTINUOUS
 10
55.1166366403
 20
215.8706446286
 11
55.4274739707
 21
216.0858323278
  0
LINE
  8
QUILTS
 62
7
  6
CONTINUOUS
 10
74.8706720334
 20
234.0831733541
 11
75.2996911502
 21
234.37848948
  0
LINE
  8
QUILTS
 62
7
  6
CONTINUOUS
 10
75.9932332676
 20
234.840498002
 11
76.4310390407
 21
235.1226240764
  0
LINE
  8
QUILTS
 62
7
  6
CONTINUOUS
 10
62.112154194
 20
224.9010048458
 11
61.907994464
 21
224.7868182145
  0
LINE
  8
QUILTS
 62
7
  6
CONTINUOUS
 10
68.4614112868
 20
231.77724728
 11
68.7606036089
 21
231.916737566
  0
LINE
  8
QUILTS
 62
7
  6
CONTINUOUS
 10
71.9759666793
 20
232.037197518
 11
72.3695116597
 21
232.210551085
  0
LINE
  8
QUILTS
 62
7
  6
CONTINUOUS
 10
95.5552392965
 20
242.4679109128
 11
95.1545858743
 21
242.3116805349
  0
LINE
  8
QUILTS
 62
7
  6
CONTINUOUS
 10
60.342678233
 20
226.0824828513
 11
59.8458849874
 21
225.9131834807
  0
LINE
  8
QUILTS
 62
7
  6
CONTINUOUS
 10
95.2192269384
 20
241.783707999
 11
95.7232734012
 21
241.9525970677
  0
LINE
  8
QUILTS
 62
7
  6
CONTINUOUS
 10
68.9156654725
 20
232.5075661121
 11
68.6916622529
 21
232.44016923
  0
LINE
  8
QUILTS
 62
7
  6
CONTINUOUS
 10
52.8478650453
 20
203.1879965429
 11
53.0195371853
 21
202.8511670877
  0
LINE
  8
QUILTS
 62
7
  6
CONTINUOUS
 10
54.6040960904
 20
213.9471918353
 11
54.5178164027
 21
214.3152698261
  0
LINE
  8
QUILTS
 62
7
  6
CONTINUOUS
 10
55.3321816904
 20
199.6781186477
 11
55.4228882467
 21
199.257760833
  0
LINE
  8
QUILTS
 62
7
  6
CONTINUOUS
 10
55.8481217275
 20
199.2418270339
 11
55.7574151991
 21
199.6621848475
  0
LINE
  8
QUILTS
 62
7
  6
CONTINUOUS
 10
63.8272058298
 20
223.254858015
 11
63.7931563383
 21
223.7786007531
  0
LINE
  8
QUILTS
 62
7
  6
CONTINUOUS
 10
69.8265913023
 20
234.2723088453
 11
69.7939097475
 21
233.9763296155
  0
LINE
  8
QUILTS
 62
7
  6
CONTINUOUS
 10
70.2347008875
 20
230.5298535251
 11
70.3145736293
 21
231.0485886875
  0
LINE
  8
QUILTS
 62
7
  6
CONTINUOUS
 10
73.2056248738
 20
233.0012278211
 11
73.3202841246
 21
233.361476152
  0
LINE
  8
QUILTS
 62
7
  6
CONTINUOUS
 10
55.4862915303
 20
198.108747548
 11
55.7106096655
 21
198.4130615326
  0
LINE
  8
QUILTS
 62
7
  6
CONTINUOUS
 10
93.500212954
 20
243.8239687744
 11
93.8750052211
 21
244.1913875576
  0
LINE
  8
QUILTS
 62
7
  6
CONTINUOUS
 10
58.0040178308
 20
212.414979315
 11
58.3522813183
 21
212.7273775816
  0
LINE
  8
QUILTS
 62
7
  6
CONTINUOUS
 10
95.8395667329
 20
242.7170765219
 11
95.5552392965
 21
242.4679109128
  0
LINE
  8
QUILTS
 62
7
  6
CONTINUOUS
 10
95.7232734012
 20
241.9525970677
 11
96.2014634398
 21
242.3326751397
  0
LINE
  8
QUILTS
 62
7
  6
CONTINUOUS
 10
53.4801154355
 20
204.7877200352
 11
53.2427828671
 21
204.6078720748
  0
LINE
  8
QUILTS
 62
7
  6
CONTINUOUS
 10
57.7940322895
 20
213.0539247325
 11
57.4831948895
 21
212.8387370601
  0
LINE
  8
QUILTS
 62
7
  6
CONTINUOUS
 10
55.4534731042
 20
216.7455431636
 11
54.9066511337
 21
216.5095900328
  0
LINE
  8
QUILTS
 62
7
  6
CONTINUOUS
 10
53.0195371853
 20
202.8511670877
 11
53.2043413733
 21
202.6176728199
  0
LINE
  8
QUILTS
 62
7
  6
CONTINUOUS
 10
55.1312663527
 20
199.9983663939
 11
55.3321816904
 21
199.6781186477
  0
LINE
  8
QUILTS
 62
7
  6
CONTINUOUS
 10
53.4416739792
 20
202.7975210759
 11
53.2700018393
 21
203.1343505312
  0
LINE
  8
QUILTS
 62
7
  6
CONTINUOUS
 10
55.7574151991
 20
199.6621848475
 11
55.6589077553
 21
199.8743556281
  0
LINE
  8
QUILTS
 62
7
  6
CONTINUOUS
 10
53.9335678728
 20
213.9821050053
 11
54.1809799387
 21
213.4403712911
  0
LINE
  8
QUILTS
 62
7
  6
CONTINUOUS
 10
68.1747127369
 20
232.8288054797
 11
68.1715897241
 21
232.5310437708
  0
LINE
  8
QUILTS
 62
7
  6
CONTINUOUS
 10
69.7208742876
 20
231.2162515846
 11
69.7177513263
 21
230.9184898219
  0
LINE
  8
QUILTS
 62
7
  6
CONTINUOUS
 10
70.6962009888
 20
233.3319226693
 11
70.6635195259
 21
233.0359433222
  0
LINE
  8
QUILTS
 62
7
  6
CONTINUOUS
 10
71.1883346199
 20
233.041852883
 11
71.221018051
 21
233.3378335838
  0
LINE
  8
QUILTS
 62
7
  6
CONTINUOUS
 10
72.9264680691
 20
233.8638038675
 11
72.8774448447
 21
233.4198342287
  0
LINE
  8
QUILTS
 62
7
  6
CONTINUOUS
 10
86.5993746554
 20
240.6037008671
 11
89.0199017266
 21
245.0497422283
  0
LINE
  8
QUILTS
 62
7
  6
CONTINUOUS
 10
90.6413460642
 20
246.1207183677
 11
90.1739618082
 21
245.2682358781
  0
LINE
  8
QUILTS
 62
7
  6
CONTINUOUS
 10
90.3403159119
 20
244.4335884741
 11
90.8077001097
 21
245.2860712559
  0
LINE
  8
QUILTS
 62
7
  6
CONTINUOUS
 10
88.4607779731
 20
245.1123440406
 11
85.9400372499
 21
240.6378845995
  0
LINE
  8
QUILTS
 62
7
  6
CONTINUOUS
 10
55.1556650271
 20
197.8084170689
 11
55.4862915303
 21
198.108747548
  0
LINE
  8
QUILTS
 62
7
  6
CONTINUOUS
 10
53.5068570448
 20
204.1542950421
 11
53.7441896131
 21
204.3341430025
  0
LINE
  8
QUILTS
 62
7
  6
CONTINUOUS
 10
59.5369226637
 20
215.5082728779
 11
58.8533948098
 21
215.2133306567
  0
LINE
  8
QUILTS
 62
7
  6
CONTINUOUS
 10
58.3065727698
 20
214.9773775526
 11
57.8964561848
 21
214.8004124264
  0
LINE
  8
QUILTS
 62
7
  6
CONTINUOUS
 10
59.0389538043
 20
214.8070300729
 11
59.3123650211
 21
214.9250071879
  0
LINE
  8
QUILTS
 62
7
  6
CONTINUOUS
 10
57.6718985422
 20
214.2171467364
 11
58.3554263961
 21
214.5120889575
  0
LINE
  8
QUILTS
 62
7
  6
CONTINUOUS
 10
57.4571958255
 20
212.1790261975
 11
58.0040178308
 21
212.414979315
  0
LINE
  8
QUILTS
 62
7
  6
CONTINUOUS
 10
55.6589077553
 20
199.8743556281
 11
55.3516839953
 21
200.1985866769
  0
LINE
  8
QUILTS
 62
7
  6
CONTINUOUS
 10
53.6264781673
 20
202.5640268081
 11
53.4416739792
 21
202.7975210759
  0
LINE
  8
QUILTS
 62
7
  6
CONTINUOUS
 10
58.8533948098
 20
215.2133306567
 11
58.729688991
 21
215.48419807
  0
LINE
  8
QUILTS
 62
7
  6
CONTINUOUS
 10
61.319308116
 20
225.0546303135
 11
61.380569743
 21
224.7632220062
  0
LINE
  8
QUILTS
 62
7
  6
CONTINUOUS
 10
63.1772577386
 20
223.8140784988
 11
63.2385194276
 21
223.5226701501
  0
LINE
  8
QUILTS
 62
7
  6
CONTINUOUS
 10
96.0075681744
 20
243.0591774363
 11
95.8395667329
 21
242.7170765219
  0
LINE
  8
QUILTS
 62
7
  6
CONTINUOUS
 10
96.2014634398
 20
242.3326751397
 11
96.4599344497
 21
242.7930297706
  0
LINE
  8
QUILTS
 62
7
  6
CONTINUOUS
 10
55.1790677959
 20
198.4329787822
 11
54.8523417152
 21
198.2367418769
  0
LINE
  8
QUILTS
 62
7
  6
CONTINUOUS
 10
54.8201421164
 20
200.2185039268
 11
55.1312663527
 21
199.9983663939
  0
LINE
  8
QUILTS
 62
7
  6
CONTINUOUS
 10
54.1809799387
 20
213.4403712911
 11
54.5032442666
 21
213.0930587319
  0
LINE
  8
QUILTS
 62
7
  6
CONTINUOUS
 10
54.8270814419
 20
213.638101742
 11
54.6040960904
 21
213.9471918353
  0
LINE
  8
QUILTS
 62
7
  6
CONTINUOUS
 10
58.0835876964
 20
215.2864675389
 11
58.3065727698
 21
214.9773775526
  0
LINE
  8
QUILTS
 62
7
  6
CONTINUOUS
 10
61.9352066227
 20
225.0191526298
 11
61.7548410585
 21
225.5153399742
  0
LINE
  8
QUILTS
 62
7
  6
CONTINUOUS
 10
63.7931563383
 20
223.7786007531
 11
63.6127907431
 21
224.2747881181
  0
LINE
  8
QUILTS
 62
7
  6
CONTINUOUS
 10
69.7939097475
 20
233.9763296155
 11
69.8432040297
 21
233.7446179938
  0
LINE
  8
QUILTS
 62
7
  6
CONTINUOUS
 10
68.7684120013
 20
232.6611426633
 11
68.6994706454
 21
233.1845743273
  0
LINE
  8
QUILTS
 62
7
  6
CONTINUOUS
 10
70.3145736293
 20
231.0485886875
 11
70.2456322476
 21
231.5720203784
  0
LINE
  8
0
 62
7
  6
CONTINUOUS
 10
84.0354236676
 20
141.9766763357
 11
84.0522109855
 21
141.7623509031
  0
LINE
  8
0
 62
7
  6
CONTINUOUS
 10
96.01185036
 20
255.5507186533
 11
95.9508691222
 21
255.3445670253
  0
LINE
  8
0
 62
7
  6
CONTINUOUS
 10
62.8289332878
 20
153.4057303885
 11
62.7570952589
 21
153.2031063458
  0
LINE
  8
0
 62
7
  6
CONTINUOUS
 10
119.9646682043
 20
252.2895292649
 11
119.8251096504
 21
252.1260036856
  0
LINE
  8
0
 62
7
  6
CONTINUOUS
 10
48.1044554078
 20
172.4721475121
 11
47.9564134799
 21
172.3162603971
  0
LINE
  8
0
 62
7
  6
CONTINUOUS
 10
96.4532110825
 20
221.9961178829
 11
75.8963464453
 21
201.4392532457
  0
LINE
  8
0
 62
7
  6
CONTINUOUS
 10
140.5202109194
 20
239.5677957905
 11
140.3262059912
 21
239.4751713181
  0
LINE
  8
QUILTS
 62
7
  6
CONTINUOUS
 10
55.9105291112
 20
200.907324936
 11
55.694011902
 21
200.8111980212
  0
LINE
  8
QUILTS
 62
7
  6
CONTINUOUS
 10
54.9391478438
 20
197.7122903489
 11
55.1556650271
 21
197.8084170689
  0
LINE
  8
0
 62
7
  6
CONTINUOUS
 10
42.4079860208
 20
195.8791709729
 11
42.2093379881
 21
195.7969750838
  0
LINE
  8
QUILTS
 62
7
  6
CONTINUOUS
 10
55.3516839953
 20
200.1985866769
 11
55.8910268006
 21
200.3868567578
  0
LINE
  8
0
 62
7
  6
CONTINUOUS
 10
52.2614775076
 20
164.8596707713
 11
52.4705006733
 21
164.9099352842
  0
LINE
  8
0
 62
7
  6
CONTINUOUS
 10
157.3130907502
 20
187.1949157475
 11
157.524487333
 21
187.2340142109
  0
LINE
  8
0
 62
7
  6
CONTINUOUS
 10
43.1093414423
 20
187.2340142109
 11
43.3207380251
 21
187.1949157475
  0
LINE
  8
0
 62
7
  6
CONTINUOUS
 10
148.163328102
 20
164.9099352842
 11
148.3723512677
 21
164.8596707713
  0
LINE
  8
0
 62
7
  6
CONTINUOUS
 10
43.8489144537
 20
211.396503128
 11
44.026132064
 21
211.2748021679
  0
LINE
  8
0
 62
7
  6
CONTINUOUS
 10
130.7404858515
 20
148.2731363528
 11
130.9109935959
 21
148.1422000546
  0
LINE
  8
0
 62
7
  6
CONTINUOUS
 10
75.8963464453
 20
193.7118466354
 11
96.4532110825
 21
173.1549819982
  0
LINE
  8
QUILTS
 62
7
  6
CONTINUOUS
 10
58.729688991
 20
215.48419807
 11
58.4074245936
 21
215.831510656
  0
LINE
  8
0
 62
7
  6
CONTINUOUS
 10
54.3523176494
 20
233.1692236795
 11
54.4647137523
 21
232.9859634244
  0
LINE
  8
0
 62
7
  6
CONTINUOUS
 10
108.0571317055
 20
140.161172629
 11
108.1596416905
 21
139.972204621
  0
LINE
  8
QUILTS
 62
7
  6
CONTINUOUS
 10
70.3843627155
 20
233.898519376
 11
70.335066557
 21
234.1302295267
  0
LINE
  8
QUILTS
 62
7
  6
CONTINUOUS
 10
70.6635195259
 20
233.0359433222
 11
70.7621080904
 21
232.5725200789
  0
LINE
  8
QUILTS
 62
7
  6
CONTINUOUS
 10
72.8771719106
 20
234.0955140182
 11
72.9264680691
 21
233.8638038675
  0
LINE
  8
QUILTS
 62
7
  6
CONTINUOUS
 10
73.3202841246
 20
233.361476152
 11
73.2709879431
 21
233.593186332
  0
LINE
  8
0
 62
7
  6
CONTINUOUS
 10
72.8034171964
 20
248.7874746833
 11
72.8315574847
 21
248.574342496
  0
LINE
  8
0
 62
7
  6
CONTINUOUS
 10
84.0497730386
 20
140.9704451167
 11
83.9666545947
 21
139.7314636432
  0
LINE
  8
0
 62
7
  6
CONTINUOUS
 10
96.3504087857
 20
257.5550143278
 11
96.1741121591
 21
256.325826276
  0
LINE
  8
QUILTS
 62
7
  6
CONTINUOUS
 10
96.0721813162
 20
243.3886201746
 11
96.0075681744
 21
243.0591774363
  0
LINE
  8
QUILTS
 62
7
  6
CONTINUOUS
 10
96.4599344497
 20
242.7930297706
 11
96.6020794691
 21
243.3463196698
  0
LINE
  8
0
 62
7
  6
CONTINUOUS
 10
62.4327709824
 20
152.4806560141
 11
61.8528993401
 21
151.3825974337
  0
LINE
  8
0
 62
7
  6
CONTINUOUS
 10
121.0891772106
 20
253.9828403567
 11
120.4281664063
 21
252.9316274934
  0
LINE
  8
0
 62
7
  6
CONTINUOUS
 10
47.3662814876
 20
171.7881837456
 11
46.3899217219
 21
171.0209123624
  0
LINE
  8
0
 62
7
  6
CONTINUOUS
 10
142.2362326834
 20
240.6573334284
 11
141.2048024745
 21
239.9658600077
  0
LINE
  8
QUILTS
 62
7
  6
CONTINUOUS
 10
54.8523417152
 20
198.2367418769
 11
54.5295161707
 21
198.144598597
  0
LINE
  8
0
 62
7
  6
CONTINUOUS
 10
159.5531922581
 20
187.3612120313
 11
158.3123098116
 21
187.3143663142
  0
LINE
  8
0
 62
7
  6
CONTINUOUS
 10
42.3215189637
 20
187.3143663142
 11
41.0806365171
 21
187.3612120313
  0
LINE
  8
0
 62
7
  6
CONTINUOUS
 10
150.2774014514
 20
164.1507231314
 11
149.1247450592
 21
164.6126398001
  0
LINE
  8
0
 62
7
  6
CONTINUOUS
 10
43.1618849518
 20
211.7903446973
 11
42.0473362989
 21
212.3378527501
  0
LINE
  8
QUILTS
 62
7
  6
CONTINUOUS
 10
54.5032442666
 20
213.0930587319
 11
54.9622146864
 21
212.8047351828
  0
LINE
  8
QUILTS
 62
7
  6
CONTINUOUS
 10
55.1867723291
 20
213.3880008728
 11
54.8270814419
 21
213.638101742
  0
LINE
  8
0
 62
7
  6
CONTINUOUS
 10
132.3629885546
 20
146.7196904418
 11
131.4978629785
 21
147.6104999079
  0
LINE
  8
0
 62
7
  6
CONTINUOUS
 10
53.0893754948
 20
234.7619572018
 11
53.8848747664
 21
233.8084559295
  0
LINE
  8
QUILTS
 62
7
  6
CONTINUOUS
 10
61.1117303931
 20
225.3184832425
 11
61.319308116
 21
225.0546303135
  0
LINE
  8
QUILTS
 62
7
  6
CONTINUOUS
 10
61.7548410585
 20
225.5153399742
 11
61.5472633356
 21
225.7791929032
  0
LINE
  8
QUILTS
 62
7
  6
CONTINUOUS
 10
62.9696800158
 20
224.0779314278
 11
63.1772577386
 21
223.8140784988
  0
LINE
  8
QUILTS
 62
7
  6
CONTINUOUS
 10
63.6127907431
 20
224.2747881181
 11
63.4052129583
 21
224.5386410885
  0
LINE
  8
QUILTS
 62
7
  6
CONTINUOUS
 10
68.0290216326
 20
233.1312637104
 11
68.1747127369
 21
232.8288054797
  0
LINE
  8
QUILTS
 62
7
  6
CONTINUOUS
 10
68.6994706454
 20
233.1845743273
 11
68.5537795411
 21
233.487032558
  0
LINE
  8
QUILTS
 62
7
  6
CONTINUOUS
 10
69.5751831832
 20
231.5187098152
 11
69.7208742876
 21
231.2162515846
  0
LINE
  8
QUILTS
 62
7
  6
CONTINUOUS
 10
70.2456322476
 20
231.5720203784
 11
70.0999410917
 21
231.8744786628
  0
LINE
  8
0
 62
7
  6
CONTINUOUS
 10
108.4795116164
 20
139.2477710846
 11
108.9075183049
 21
138.0820978705
  0
LINE
  8
QUILTS
 62
7
  6
CONTINUOUS
 10
71.3032667762
 20
232.7264214611
 11
71.1883346199
 21
233.041852883
  0
LINE
  8
0
 62
7
  6
CONTINUOUS
 10
72.2974852139
 20
250.7561940101
 11
72.6363860534
 21
249.5615685507
  0
LINE
  8
QUILTS
 62
7
  6
CONTINUOUS
 10
58.4074245936
 20
215.831510656
 11
57.9484544519
 21
216.119834098
  0
LINE
  8
QUILTS
 62
7
  6
CONTINUOUS
 10
57.7238968092
 20
215.536568408
 11
58.0835876964
 21
215.2864675389
  0
LINE
  8
1_AXIS
 62
2
  6
CONTINUOUS
 10
100.3169143876
 20
198.4555499405
 11
100.3169143876
 21
196.6955499405
  0
LINE
  8
1_AXIS
 62
2
  6
CENTER
 10
100.3169143876
 20
193.1755499405
 11
100.3169143876
 21
134.8255499405
  0
LINE
  8
1_AXIS
 62
2
  6
CENTER
 10
100.3169143876
 20
201.9755499405
 11
100.3169143876
 21
260.3255499405
  0
LINE
  8
QUILTS
 62
7
  6
CONTINUOUS
 10
140.7454668083
 20
226.2023870951
 11
136.5555520844
 21
223.4739049884
  0
LINE
  8
QUILTS
 62
7
  6
CONTINUOUS
 10
136.8966123477
 20
222.9501656479
 11
138.7687019318
 21
224.1692746916
  0
LINE
  8
QUILTS
 62
7
  6
CONTINUOUS
 10
139.3035845987
 20
224.5175915148
 11
140.6407915158
 21
225.3883837353
  0
LINE
  8
QUILTS
 62
7
  6
CONTINUOUS
 10
143.9792173467
 20
216.0487077242
 11
143.2824551542
 21
215.7858924187
  0
LINE
  8
QUILTS
 62
7
  6
CONTINUOUS
 10
143.9639556107
 20
215.4863017578
 11
144.1630305228
 21
215.5613918451
  0
LINE
  8
QUILTS
 62
7
  6
CONTINUOUS
 10
142.905807436
 20
214.9758394801
 11
143.2044198042
 21
215.088474611
  0
LINE
  8
0
 62
7
  6
CONTINUOUS
 10
74.7805220519
 20
193.5763610246
 11
75.8963464453
 21
193.7118466354
  0
LINE
  8
1_AXIS
 62
2
  6
CONTINUOUS
 10
101.1969143876
 20
197.5755499405
 11
99.4369143876
 21
197.5755499405
  0
LINE
  8
1_AXIS
 62
2
  6
CENTER
 10
95.9169143876
 20
197.5755499405
 11
37.5669143876
 21
197.5755499405
  0
LINE
  8
1_AXIS
 62
2
  6
CENTER
 10
104.7169143876
 20
197.5755499405
 11
163.0669143876
 21
197.5755499405
  0
LINE
  8
QUILTS
 62
7
  6
CONTINUOUS
 10
52.3838464977
 20
197.7037995246
 11
54.5100138643
 21
197.6241305305
  0
LINE
  8
QUILTS
 62
7
  6
CONTINUOUS
 10
54.5295161707
 20
198.144598597
 11
52.403348804
 21
198.2242675911
  0
LINE
  8
QUILTS
 62
7
  6
CONTINUOUS
 10
52.6110098773
 20
202.1680523276
 11
55.9881045249
 21
201.7388841959
  0
LINE
  8
QUILTS
 62
7
  6
CONTINUOUS
 10
56.0537650284
 20
202.2555622028
 11
53.6264781673
 21
202.5640268081
  0
LINE
  8
QUILTS
 62
7
  6
CONTINUOUS
 10
53.2043413733
 20
202.6176728199
 11
52.6766703808
 21
202.6847303346
  0
LINE
  8
QUILTS
 62
7
  6
CONTINUOUS
 10
51.602684748
 20
206.364272681
 11
52.125644558
 21
206.2670799666
  0
LINE
  8
QUILTS
 62
7
  6
CONTINUOUS
 10
53.171564471
 20
206.0726944833
 11
56.5185075479
 21
205.4506610567
  0
LINE
  8
QUILTS
 62
7
  6
CONTINUOUS
 10
56.6136753891
 20
205.9627257364
 11
53.2667323122
 21
206.584759163
  0
LINE
  8
QUILTS
 62
7
  6
CONTINUOUS
 10
52.2208123992
 20
206.7791446462
 11
51.6978525893
 21
206.8763373606
  0
LINE
  8
QUILTS
 62
7
  6
CONTINUOUS
 10
54.9622146864
 20
212.8047351828
 11
56.4514036437
 21
212.2313965355
  0
LINE
  8
QUILTS
 62
7
  6
CONTINUOUS
 10
56.6759612864
 20
212.8146622255
 11
55.1867723291
 21
213.3880008728
  0
LINE
  8
QUILTS
 62
7
  6
CONTINUOUS
 10
55.4458721908
 20
218.5798316259
 11
59.8811494205
 21
216.271517112
  0
LINE
  8
QUILTS
 62
7
  6
CONTINUOUS
 10
60.1696887348
 20
216.8259267657
 11
56.3006170413
 21
218.8395628662
  0
LINE
  8
QUILTS
 62
7
  6
CONTINUOUS
 10
58.0799577277
 20
223.4599688795
 11
62.2382261491
 21
220.6834956246
  0
LINE
  8
QUILTS
 62
7
  6
CONTINUOUS
 10
62.0544425301
 20
221.5577225707
 11
60.7273355594
 21
222.4438310748
  0
LINE
  8
QUILTS
 62
7
  6
CONTINUOUS
 10
60.1964928455
 20
222.7982744268
 11
58.9578595985
 21
223.6253090802
  0
LINE
  8
QUILTS
 62
7
  6
CONTINUOUS
 10
64.6674021609
 20
231.971420764
 11
68.1278591465
 21
228.3623713807
  0
LINE
  8
QUILTS
 62
7
  6
CONTINUOUS
 10
68.1372298542
 20
229.2556582112
 11
67.0328286656
 21
230.4074825065
  0
LINE
  8
QUILTS
 62
7
  6
CONTINUOUS
 10
66.591068252
 20
230.8682121601
 11
65.5602937474
 21
231.9432482336
  0
LINE
  8
QUILTS
 62
7
  6
CONTINUOUS
 10
69.8432040297
 20
233.7446179938
 11
69.9744760252
 21
233.5771754513
  0
LINE
  8
QUILTS
 62
7
  6
CONTINUOUS
 10
70.7621080904
 20
232.5725200789
 11
70.9590160837
 21
232.3213562652
  0
LINE
  8
QUILTS
 62
7
  6
CONTINUOUS
 10
71.4345388177
 20
232.55897886
 11
71.3032667762
 21
232.7264214611
  0
LINE
  8
QUILTS
 62
7
  6
CONTINUOUS
 10
72.0356458765
 20
238.2017443065
 11
74.8706720334
 21
234.0831733541
  0
LINE
  8
QUILTS
 62
7
  6
CONTINUOUS
 10
75.2996911502
 20
234.37848948
 11
72.4646649933
 21
238.4970604324
  0
LINE
  8
QUILTS
 62
7
  6
CONTINUOUS
 10
73.2848312189
 20
239.0434205974
 11
75.9932332676
 21
234.840498002
  0
LINE
  8
QUILTS
 62
7
  6
CONTINUOUS
 10
76.4310390407
 20
235.1226240764
 11
73.722636992
 21
239.3255466718
  0
LINE
  8
QUILTS
 62
7
  6
CONTINUOUS
 10
84.8081338947
 20
244.6294339682
 11
84.9532496912
 21
244.117696934
  0
LINE
  8
QUILTS
 62
7
  6
CONTINUOUS
 10
85.9400372499
 20
240.6378845995
 11
86.1722225446
 21
239.8191052731
  0
LINE
  8
QUILTS
 62
7
  6
CONTINUOUS
 10
90.1739618082
 20
245.2682358781
 11
90.3403159119
 21
244.4335884741
  0
LINE
  8
QUILTS
 62
7
  6
CONTINUOUS
 10
90.8077001097
 20
245.2860712559
 11
91.6186761979
 21
241.2171660013
  0
LINE
  8
QUILTS
 62
7
  6
CONTINUOUS
 10
92.2316202437
 20
241.339332268
 11
91.25429011
 21
246.2428846344
  0
LINE
  8
QUILTS
 62
7
  6
CONTINUOUS
 10
92.4403139401
 20
246.4808133627
 11
92.7764474624
 21
243.7353562646
  0
LINE
  8
QUILTS
 62
7
  6
CONTINUOUS
 10
93.2287810823
 20
244.3266232937
 11
93.0219296701
 21
246.0161354678
  0
LINE
  8
0
 62
7
  6
CONTINUOUS
 10
96.3177254717
 20
223.1119422763
 11
96.4532110825
 21
221.9961178829
  0
LINE
  8
QUILTS
 62
7
  6
CONTINUOUS
 10
141.5269950141
 20
222.8578169962
 11
141.2595534309
 21
222.683658422
  0
LINE
  8
QUILTS
 62
7
  6
CONTINUOUS
 10
141.5114665831
 20
222.1018662777
 11
141.8680552775
 21
222.3340776557
  0
LINE
  8
QUILTS
 62
7
  6
CONTINUOUS
 10
143.2824551542
 20
215.7858924187
 11
142.6224568037
 21
215.4256103156
  0
LINE
  8
QUILTS
 62
7
  6
CONTINUOUS
 10
144.1234924165
 20
212.6518773694
 11
143.8248800483
 21
212.5392422385
  0
LINE
  8
QUILTS
 62
7
  6
CONTINUOUS
 10
143.9091557684
 20
212.0143813157
 11
144.4068431882
 21
212.2021065865
  0
LINE
  8
0
 62
7
  6
CONTINUOUS
 10
125.8533067234
 20
201.5747388565
 11
124.7374823299
 21
201.4392532457
  0
LINE
  8
QUILTS
 62
7
  6
CONTINUOUS
 10
52.481358028
 20
200.3061398198
 11
54.8201421164
 21
200.2185039268
  0
LINE
  8
QUILTS
 62
7
  6
CONTINUOUS
 10
55.2648779449
 20
200.7230383045
 11
52.5008603385
 21
200.8266079979
  0
LINE
  8
QUILTS
 62
7
  6
CONTINUOUS
 10
54.2849927289
 20
204.3704212666
 11
56.290142796
 21
204.1156026731
  0
LINE
  8
QUILTS
 62
7
  6
CONTINUOUS
 10
56.3558032619
 20
204.6322803844
 11
54.3506531948
 21
204.8870989779
  0
LINE
  8
QUILTS
 62
7
  6
CONTINUOUS
 10
56.234707852
 20
216.1099070553
 11
57.7238968092
 21
215.536568408
  0
LINE
  8
QUILTS
 62
7
  6
CONTINUOUS
 10
57.9484544519
 20
216.119834098
 11
56.4592654946
 21
216.6931727453
  0
LINE
  8
QUILTS
 62
7
  6
CONTINUOUS
 10
57.0809281214
 20
221.7214859779
 11
60.8556321594
 21
219.7569629807
  0
LINE
  8
QUILTS
 62
7
  6
CONTINUOUS
 10
61.8047446654
 20
219.9675811176
 11
57.3694674356
 21
222.2758956316
  0
LINE
  8
QUILTS
 62
7
  6
CONTINUOUS
 10
60.9347828218
 20
225.4366310265
 11
61.1117303931
 21
225.3184832425
  0
LINE
  8
QUILTS
 62
7
  6
CONTINUOUS
 10
62.7042586588
 20
224.2551531038
 11
62.9696800158
 21
224.0779314278
  0
LINE
  8
QUILTS
 62
7
  6
CONTINUOUS
 10
63.4052129583
 20
224.5386410885
 11
62.96284403
 21
224.8340105485
  0
LINE
  8
QUILTS
 62
7
  6
CONTINUOUS
 10
61.5472633356
 20
225.7791929032
 11
61.1933679452
 21
226.0154886367
  0
LINE
  8
QUILTS
 62
7
  6
CONTINUOUS
 10
67.8817681614
 20
233.2848402616
 11
68.0290216326
 21
233.1312637104
  0
LINE
  8
QUILTS
 62
7
  6
CONTINUOUS
 10
69.3543029764
 20
231.749074642
 11
69.5751831832
 21
231.5187098152
  0
LINE
  8
QUILTS
 62
7
  6
CONTINUOUS
 10
70.0999410917
 20
231.8744786628
 11
69.7318074138
 21
232.2584200408
  0
LINE
  8
QUILTS
 62
7
  6
CONTINUOUS
 10
68.5537795411
 20
233.487032558
 11
68.2592723925
 21
233.7941858755
  0
LINE
  8
QUILTS
 62
7
  6
CONTINUOUS
 10
72.0239038477
 20
235.1838906618
 11
72.220811841
 21
234.932726848
  0
LINE
  8
QUILTS
 62
7
  6
CONTINUOUS
 10
72.483355924
 20
234.5978416457
 11
72.8771719106
 21
234.0955140182
  0
LINE
  8
QUILTS
 62
7
  6
CONTINUOUS
 10
73.4839666401
 20
234.1656940705
 11
72.4337905379
 21
235.5052345865
  0
LINE
  8
QUILTS
 62
7
  6
CONTINUOUS
 10
90.1808282614
 20
240.9558453811
 11
90.0066892852
 21
241.5699298938
  0
LINE
  8
QUILTS
 62
7
  6
CONTINUOUS
 10
89.0199017266
 20
245.0497422283
 11
88.8167396114
 21
245.7661740762
  0
LINE
  8
QUILTS
 62
7
  6
CONTINUOUS
 10
96.0463248942
 20
243.5998091594
 11
96.0721813162
 21
243.3886201746
  0
LINE
  8
QUILTS
 62
7
  6
CONTINUOUS
 10
96.0203752121
 20
246.3832430297
 11
95.9557341571
 21
246.9112154917
  0
LINE
  8
QUILTS
 62
7
  6
CONTINUOUS
 10
96.6020794691
 20
243.3463196698
 11
96.5503666251
 21
243.7686976394
  0
LINE
  8
0
 62
7
  6
CONTINUOUS
 10
104.3161033036
 20
172.0391576048
 11
104.1806176928
 21
173.1549819982
  0
LINE
  8
QUILTS
 62
7
  6
CONTINUOUS
 10
144.7127435207
 20
216.2140562846
 11
143.9792173467
 21
216.0487077242
  0
LINE
  8
QUILTS
 62
7
  6
CONTINUOUS
 10
54.5100138643
 20
197.6241305305
 11
54.9391478438
 21
197.7122903489
  0
LINE
  8
QUILTS
 62
7
  6
CONTINUOUS
 10
55.694011902
 20
200.8111980212
 11
55.2648779449
 21
200.7230383045
  0
LINE
  8
QUILTS
 62
7
  6
CONTINUOUS
 10
144.1630305228
 20
215.5613918451
 11
144.7970192408
 21
215.6891953619
  0
LINE
  8
QUILTS
 62
7
  6
CONTINUOUS
 10
53.7441896131
 20
204.3341430025
 11
54.2849927289
 21
204.3704212666
  0
LINE
  8
QUILTS
 62
7
  6
CONTINUOUS
 10
54.3506531948
 20
204.8870989779
 11
53.8098501542
 21
204.8508213051
  0
LINE
  8
QUILTS
 62
7
  6
CONTINUOUS
 10
57.1105044355
 20
212.7589825114
 11
56.6759612864
 21
212.8146622255
  0
LINE
  8
QUILTS
 62
7
  6
CONTINUOUS
 10
56.4514036437
 20
212.2313965355
 11
56.9852260475
 21
212.1374942485
  0
LINE
  8
QUILTS
 62
7
  6
CONTINUOUS
 10
56.4592654946
 20
216.6931727453
 11
55.9254428127
 21
216.7870751394
  0
LINE
  8
QUILTS
 62
7
  6
CONTINUOUS
 10
70.9590160837
 20
232.3213562652
 11
71.303537834
 21
232.0507402006
  0
LINE
  8
QUILTS
 62
7
  6
CONTINUOUS
 10
73.8941224889
 20
233.811355293
 11
73.4839666401
 21
234.1656940705
  0
LINE
  8
0
 62
7
  6
CONTINUOUS
 10
116.5840557367
 20
140.9704451167
 11
116.6671741806
 21
139.7314636432
  0
LINE
  8
0
 62
7
  6
CONTINUOUS
 10
128.3363435614
 20
250.7561940101
 11
127.9974427218
 21
249.5615685507
  0
LINE
  8
0
 62
7
  6
CONTINUOUS
 10
92.1543171588
 20
139.2477710846
 11
91.7263104704
 21
138.0820978705
  0
LINE
  8
QUILTS
 62
7
  6
CONTINUOUS
 10
141.7375912357
 20
223.1192679618
 11
141.5269950141
 21
222.8578169962
  0
LINE
  8
QUILTS
 62
7
  6
CONTINUOUS
 10
141.8680552775
 20
222.3340776557
 11
142.078651499
 21
222.5955286213
  0
LINE
  8
0
 62
7
  6
CONTINUOUS
 10
147.5444532805
 20
234.7619572018
 11
146.7489540088
 21
233.8084559295
  0
LINE
  8
0
 62
7
  6
CONTINUOUS
 10
69.1359657968
 20
147.6104999079
 11
68.2708402206
 21
146.7196904418
  0
LINE
  8
QUILTS
 62
7
  6
CONTINUOUS
 10
140.9649555698
 20
215.8053890088
 11
144.6740871391
 21
219.5497355974
  0
LINE
  8
QUILTS
 62
7
  6
CONTINUOUS
 10
141.633822703
 20
217.3111743562
 11
140.6828093854
 21
216.3630793625
  0
LINE
  8
QUILTS
 62
7
  6
CONTINUOUS
 10
144.1062842224
 20
219.7294324961
 11
141.9665009292
 21
217.596225092
  0
LINE
  8
QUILTS
 62
7
  6
CONTINUOUS
 10
142.6224568037
 20
215.4256103156
 11
142.198294051
 21
215.042960504
  0
LINE
  8
QUILTS
 62
7
  6
CONTINUOUS
 10
142.6439590493
 20
214.7657376041
 11
142.905807436
 21
214.9758394801
  0
LINE
  8
QUILTS
 62
7
  6
CONTINUOUS
 10
144.3853409426
 20
212.861979298
 11
144.1234924165
 21
212.6518773694
  0
LINE
  8
QUILTS
 62
7
  6
CONTINUOUS
 10
146.124993079
 20
213.0728420443
 11
146.3868414657
 21
213.2829439203
  0
LINE
  8
0
 62
7
  6
CONTINUOUS
 10
158.5864924763
 20
212.3378527501
 11
157.4719438235
 21
211.7903446973
  0
LINE
  8
0
 62
7
  6
CONTINUOUS
 10
51.5090837161
 20
164.6126398001
 11
50.3564273238
 21
164.1507231314
  0
LINE
  8
QUILTS
 62
7
  6
CONTINUOUS
 10
141.1871801377
 20
222.01500042
 11
141.5114665831
 21
222.1018662777
  0
LINE
  8
QUILTS
 62
7
  6
CONTINUOUS
 10
141.2595534309
 20
222.683658422
 11
140.9352669855
 21
222.5967925644
  0
LINE
  8
0
 62
7
  6
CONTINUOUS
 10
41.4554374626
 20
195.5545813631
 11
40.2514110469
 21
195.2507653697
  0
LINE
  8
QUILTS
 62
7
  6
CONTINUOUS
 10
53.8098501542
 20
204.8508213051
 11
53.4801154355
 21
204.7877200352
  0
LINE
  8
0
 62
7
  6
CONTINUOUS
 10
156.1350571978
 20
219.8825947494
 11
154.9115512376
 21
219.6704228075
  0
LINE
  8
QUILTS
 62
7
  6
CONTINUOUS
 10
139.3661257562
 20
218.9656371829
 11
140.6933368566
 21
219.1701393653
  0
LINE
  8
QUILTS
 62
7
  6
CONTINUOUS
 10
141.1200623758
 20
219.2692961531
 11
144.1062842224
 21
219.7294324961
  0
LINE
  8
QUILTS
 62
7
  6
CONTINUOUS
 10
144.2978936616
 20
220.2933198991
 11
139.0839795718
 21
219.5233275366
  0
LINE
  8
QUILTS
 62
7
  6
CONTINUOUS
 10
143.8248800483
 20
212.5392422385
 11
143.4895036985
 21
212.5240738526
  0
LINE
  8
QUILTS
 62
7
  6
CONTINUOUS
 10
143.2044198042
 20
215.088474611
 11
143.5397962934
 21
215.1036430495
  0
LINE
  8
QUILTS
 62
7
  6
CONTINUOUS
 10
144.7970192408
 20
215.6891953619
 11
145.1323958694
 21
215.704363853
  0
LINE
  8
QUILTS
 62
7
  6
CONTINUOUS
 10
143.337943821
 20
212.0215806382
 11
143.9091557684
 21
212.0143813157
  0
LINE
  8
QUILTS
 62
7
  6
CONTINUOUS
 10
55.8001647028
 20
216.1655867695
 11
56.234707852
 21
216.1099070553
  0
LINE
  8
0
 62
7
  6
CONTINUOUS
 10
45.7222775376
 20
219.6704228075
 11
44.4987715775
 21
219.8825947494
  0
LINE
  8
0
 62
7
  6
CONTINUOUS
 10
160.3824177284
 20
195.2507653697
 11
159.1783913127
 21
195.5545813631
  0
LINE
  8
QUILTS
 62
7
  6
CONTINUOUS
 10
62.3809935438
 20
224.3457436095
 11
62.7042586588
 21
224.2551531038
  0
LINE
  8
QUILTS
 62
7
  6
CONTINUOUS
 10
62.96284403
 20
224.8340105485
 11
62.639578915
 21
224.9246010542
  0
LINE
  8
QUILTS
 62
7
  6
CONTINUOUS
 10
60.6115175829
 20
225.527221615
 11
60.9347828218
 21
225.4366310265
  0
LINE
  8
QUILTS
 62
7
  6
CONTINUOUS
 10
61.1933679452
 20
226.0154886367
 11
60.8701029541
 21
226.1060790596
  0
LINE
  8
QUILTS
 62
7
  6
CONTINUOUS
 10
69.0582335641
 20
231.9073461725
 11
69.3543029764
 21
231.749074642
  0
LINE
  8
QUILTS
 62
7
  6
CONTINUOUS
 10
69.7318074138
 20
232.2584200408
 11
69.4357380014
 21
232.4166915713
  0
LINE
  8
QUILTS
 62
7
  6
CONTINUOUS
 10
67.5856986459
 20
233.4431118996
 11
67.8817681614
 21
233.2848402616
  0
LINE
  8
QUILTS
 62
7
  6
CONTINUOUS
 10
68.2592723925
 20
233.7941858755
 11
67.9632030832
 21
233.9524572984
  0
LINE
  8
QUILTS
 62
7
  6
CONTINUOUS
 10
73.2709879431
 20
233.593186332
 11
73.5498718079
 21
233.4062900824
  0
LINE
  8
QUILTS
 62
7
  6
CONTINUOUS
 10
74.1730063422
 20
233.6244590581
 11
73.8941224889
 21
233.811355293
  0
LINE
  8
QUILTS
 62
7
  6
CONTINUOUS
 10
72.4337905379
 20
235.5052345865
 11
72.154902955
 21
235.6921278502
  0
LINE
  8
0
 62
7
  6
CONTINUOUS
 10
58.3975960919
 20
240.6573334284
 11
59.4290263008
 21
239.9658600077
  0
LINE
  8
0
 62
7
  6
CONTINUOUS
 10
154.2439070534
 20
171.0209123624
 11
153.2675472877
 21
171.7881837456
  0
LINE
  8
0
 62
7
  6
CONTINUOUS
 10
79.5446515646
 20
253.9828403567
 11
80.2056623689
 21
252.9316274934
  0
LINE
  8
0
 62
7
  6
CONTINUOUS
 10
138.2010577929
 20
152.4806560141
 11
138.7809294351
 21
151.3825974337
  0
LINE
  8
QUILTS
 62
7
  6
CONTINUOUS
 10
95.9041424682
 20
243.9039335233
 11
96.0463248942
 21
243.5998091594
  0
LINE
  8
0
 62
7
  6
CONTINUOUS
 10
104.2834199896
 20
257.5550143278
 11
104.4597166161
 21
256.325826276
  0
LINE
  8
0
 62
7
  6
CONTINUOUS
 10
116.5816177898
 20
141.7623509031
 11
116.5984051077
 21
141.9766763357
  0
LINE
  8
0
 62
7
  6
CONTINUOUS
 10
127.8022712906
 20
248.574342496
 11
127.8304115789
 21
248.7874746833
  0
LINE
  8
0
 62
7
  6
CONTINUOUS
 10
92.4741870848
 20
139.972204621
 11
92.5766970698
 21
140.161172629
  0
LINE
  8
0
 62
7
  6
CONTINUOUS
 10
146.169115023
 20
232.9859634244
 11
146.2815111259
 21
233.1692236795
  0
LINE
  8
0
 62
7
  6
CONTINUOUS
 10
104.1806176928
 20
173.1549819982
 11
124.7374823299
 21
193.7118466354
  0
LINE
  8
QUILTS
 62
7
  6
CONTINUOUS
 10
144.4068431882
 20
212.2021065865
 11
144.8310058712
 21
212.5847563718
  0
LINE
  8
0
 62
7
  6
CONTINUOUS
 10
69.7228351794
 20
148.1422000546
 11
69.8933429237
 21
148.2731363528
  0
LINE
  8
0
 62
7
  6
CONTINUOUS
 10
156.6076967113
 20
211.2748021679
 11
156.7849143216
 21
211.396503128
  0
LINE
  8
QUILTS
 62
7
  6
CONTINUOUS
 10
56.9852260475
 20
212.1374942485
 11
57.4571958255
 21
212.1790261975
  0
LINE
  8
QUILTS
 62
7
  6
CONTINUOUS
 10
55.9254428127
 20
216.7870751394
 11
55.4534731042
 21
216.7455431636
  0
LINE
  8
QUILTS
 62
7
  6
CONTINUOUS
 10
56.3006170413
 20
218.8395628662
 11
61.371935694
 21
219.135966637
  0
LINE
  8
0
 62
7
  6
CONTINUOUS
 10
154.1242384288
 20
219.5852215211
 11
153.9093323408
 21
219.5795137682
  0
LINE
  8
QUILTS
 62
7
  6
CONTINUOUS
 10
145.2839556773
 20
216.206857041
 11
144.7127435207
 21
216.2140562846
  0
LINE
  8
0
 62
7
  6
CONTINUOUS
 10
46.7244964344
 20
219.5795137682
 11
46.5095903465
 21
219.5852215211
  0
LINE
  8
0
 62
7
  6
CONTINUOUS
 10
158.4244907872
 20
195.7969750838
 11
158.2258427545
 21
195.8791709729
  0
LINE
  8
0
 62
7
  6
CONTINUOUS
 10
60.307622784
 20
239.4751713181
 11
60.1136178558
 21
239.5677957905
  0
LINE
  8
QUILTS
 62
7
  6
CONTINUOUS
 10
71.6477866502
 20
232.4558039256
 11
71.4345388177
 21
232.55897886
  0
LINE
  8
QUILTS
 62
7
  6
CONTINUOUS
 10
73.5498718079
 20
233.4062900824
 11
73.7631234046
 21
233.3031180754
  0
LINE
  8
QUILTS
 62
7
  6
CONTINUOUS
 10
71.8106560151
 20
235.2870655962
 11
72.0239038477
 21
235.1838906618
  0
LINE
  8
0
 62
7
  6
CONTINUOUS
 10
124.7374823299
 20
201.4392532457
 11
104.1806176928
 21
221.9961178829
  0
LINE
  8
0
 62
7
  6
CONTINUOUS
 10
152.6774152954
 20
172.3162603971
 11
152.5293733674
 21
172.4721475121
  0
LINE
  8
0
 62
7
  6
CONTINUOUS
 10
80.8087191249
 20
252.1260036856
 11
80.669160571
 21
252.2895292649
  0
LINE
  8
QUILTS
 62
7
  6
CONTINUOUS
 10
92.8928013795
 20
242.7850056852
 11
93.1513050492
 21
242.3879455844
  0
LINE
  8
QUILTS
 62
7
  6
CONTINUOUS
 10
93.771672766
 20
242.4638988331
 11
93.5131690963
 21
242.8609589339
  0
LINE
  8
QUILTS
 62
7
  6
CONTINUOUS
 10
96.5503666251
 20
243.7686976394
 11
96.2789394684
 21
244.271352886
  0
LINE
  8
0
 62
7
  6
CONTINUOUS
 10
137.8767335164
 20
153.2031063458
 11
137.8048954875
 21
153.4057303885
  0
LINE
  8
0
 62
7
  6
CONTINUOUS
 10
104.6829596531
 20
255.3445670253
 11
104.6219784153
 21
255.5507186533
  0
LINE
  8
QUILTS
 62
7
  6
CONTINUOUS
 10
142.198294051
 20
215.042960504
 11
141.9104327707
 21
214.6003890042
  0
LINE
  8
QUILTS
 62
7
  6
CONTINUOUS
 10
142.4188712087
 20
214.4581778799
 11
142.6439590493
 21
214.7657376041
  0
LINE
  8
QUILTS
 62
7
  6
CONTINUOUS
 10
146.166264308
 20
213.8677265444
 11
145.9411765371
 21
213.5601668465
  0
LINE
  8
QUILTS
 62
7
  6
CONTINUOUS
 10
57.4831948895
 20
212.8387370601
 11
57.1105044355
 21
212.7589825114
  0
LINE
  8
QUILTS
 62
7
  6
CONTINUOUS
 10
55.4274739707
 20
216.0858323278
 11
55.8001647028
 21
216.1655867695
  0
LINE
  8
QUILTS
 62
7
  6
CONTINUOUS
 10
60.8556321594
 20
219.7569629807
 11
55.8786806118
 21
219.4114450491
  0
LINE
  8
QUILTS
 62
7
  6
CONTINUOUS
 10
62.639578915
 20
224.9246010542
 11
62.112154194
 21
224.9010048458
  0
LINE
  8
QUILTS
 62
7
  6
CONTINUOUS
 10
140.6600615614
 20
222.0446588749
 11
141.1871801377
 21
222.01500042
  0
LINE
  8
QUILTS
 62
7
  6
CONTINUOUS
 10
69.4357380014
 20
232.4166915713
 11
68.9156654725
 21
232.5075661121
  0
LINE
  8
QUILTS
 62
7
  6
CONTINUOUS
 10
143.4895036985
 20
212.5240738526
 11
143.1173666633
 21
212.6063632624
  0
LINE
  8
QUILTS
 62
7
  6
CONTINUOUS
 10
145.1323958694
 20
215.704363853
 11
145.504532835
 21
215.6220744169
  0
LINE
  8
QUILTS
 62
7
  6
CONTINUOUS
 10
142.829505383
 20
212.1637917626
 11
143.337943821
 21
212.0215806382
  0
LINE
  8
QUILTS
 62
7
  6
CONTINUOUS
 10
93.1513050492
 20
242.3879455844
 11
93.5132017561
 21
242.0035442022
  0
LINE
  8
QUILTS
 62
7
  6
CONTINUOUS
 10
96.2789394684
 20
244.271352886
 11
95.917042766
 21
244.6557542312
  0
LINE
  8
QUILTS
 62
7
  6
CONTINUOUS
 10
95.6585717517
 20
244.1953996373
 11
95.9041424682
 21
243.9039335233
  0
LINE
  8
QUILTS
 62
7
  6
CONTINUOUS
 10
141.8022004383
 20
223.4099506858
 11
141.7375912357
 21
223.1192679618
  0
LINE
  8
QUILTS
 62
7
  6
CONTINUOUS
 10
142.078651499
 20
222.5955286213
 11
142.264709812
 21
223.089609507
  0
LINE
  8
QUILTS
 62
7
  6
CONTINUOUS
 10
144.5108912575
 20
213.1319939523
 11
144.3853409426
 21
212.861979298
  0
LINE
  8
QUILTS
 62
7
  6
CONTINUOUS
 10
144.8310058712
 20
212.5847563718
 11
145.0193296606
 21
212.9897828148
  0
LINE
  8
QUILTS
 62
7
  6
CONTINUOUS
 10
146.3868414657
 20
213.2829439203
 11
146.6747027112
 21
213.7255154069
  0
LINE
  8
QUILTS
 62
7
  6
CONTINUOUS
 10
62.0883600282
 20
224.2906308702
 11
62.3809935438
 21
224.3457436095
  0
LINE
  8
QUILTS
 62
7
  6
CONTINUOUS
 10
60.3188840673
 20
225.4721088757
 11
60.6115175829
 21
225.527221615
  0
LINE
  8
QUILTS
 62
7
  6
CONTINUOUS
 10
60.8701029541
 20
226.1060790596
 11
60.342678233
 21
226.0824828513
  0
LINE
  8
QUILTS
 62
7
  6
CONTINUOUS
 10
68.7606036089
 20
231.916737566
 11
69.0582335641
 21
231.9073461725
  0
LINE
  8
QUILTS
 62
7
  6
CONTINUOUS
 10
67.2880686907
 20
233.4525032931
 11
67.5856986459
 21
233.4431118996
  0
LINE
  8
QUILTS
 62
7
  6
CONTINUOUS
 10
71.303537834
 20
232.0507402006
 11
71.7463771254
 21
231.9923821093
  0
LINE
  8
QUILTS
 62
7
  6
CONTINUOUS
 10
72.154902955
 20
235.6921278502
 11
71.8596792854
 21
235.7310351764
  0
LINE
  8
QUILTS
 62
7
  6
CONTINUOUS
 10
67.9632030832
 20
233.9524572984
 11
67.4431305544
 21
234.0433318392
  0
LINE
  8
QUILTS
 62
7
  6
CONTINUOUS
 10
140.9352669855
 20
222.5967925644
 11
140.6432877435
 21
222.655264073
  0
LINE
  8
QUILTS
 62
7
  6
CONTINUOUS
 10
145.7923940804
 20
216.0646459035
 11
145.2839556773
 21
216.206857041
  0
LINE
  8
QUILTS
 62
7
  6
CONTINUOUS
 10
143.5397962934
 20
215.1036430495
 11
143.8123958028
 21
214.9838085698
  0
LINE
  8
QUILTS
 62
7
  6
CONTINUOUS
 10
142.264709812
 20
223.089609507
 11
142.3047759018
 21
223.6129301427
  0
LINE
  8
QUILTS
 62
7
  6
CONTINUOUS
 10
141.9104327707
 20
214.6003890042
 11
141.7956335525
 21
214.0004379844
  0
LINE
  8
QUILTS
 62
7
  6
CONTINUOUS
 10
145.0193296606
 20
212.9897828148
 11
145.1341254869
 21
213.5897427479
  0
LINE
  8
QUILTS
 62
7
  6
CONTINUOUS
 10
142.3300848754
 20
214.0906964805
 11
142.4188712087
 21
214.4581778799
  0
LINE
  8
QUILTS
 62
7
  6
CONTINUOUS
 10
144.5996775908
 20
213.4994753516
 11
144.5108912575
 21
213.1319939523
  0
LINE
  8
QUILTS
 62
7
  6
CONTINUOUS
 10
146.2550506413
 20
214.2352079438
 11
146.166264308
 21
213.8677265444
  0
LINE
  8
QUILTS
 62
7
  6
CONTINUOUS
 10
71.7463771254
 20
231.9923821093
 11
71.9759666793
 21
232.037197518
  0
LINE
  8
QUILTS
 62
7
  6
CONTINUOUS
 10
72.1069676457
 20
232.5454361993
 11
71.6477866502
 21
232.4558039256
  0
LINE
  8
QUILTS
 62
7
  6
CONTINUOUS
 10
67.4431305544
 20
234.0433318392
 11
66.9214973796
 21
233.9853263505
  0
LINE
  8
QUILTS
 62
7
  6
CONTINUOUS
 10
71.8596792854
 20
235.7310351764
 11
71.4824760263
 21
235.7056719525
  0
LINE
  8
QUILTS
 62
7
  6
CONTINUOUS
 10
140.1652449843
 20
222.2196626875
 11
140.6600615614
 21
222.0446588749
  0
LINE
  8
QUILTS
 62
7
  6
CONTINUOUS
 10
93.5132017561
 20
242.0035442022
 11
94.0689610675
 21
241.7500552643
  0
LINE
  8
QUILTS
 62
7
  6
CONTINUOUS
 10
95.917042766
 20
244.6557542312
 11
95.361283458
 21
244.9092431413
  0
LINE
  8
QUILTS
 62
7
  6
CONTINUOUS
 10
94.1077130464
 20
242.2906864726
 11
93.771672766
 21
242.4638988331
  0
LINE
  8
QUILTS
 62
7
  6
CONTINUOUS
 10
95.3225314713
 20
244.3686119977
 11
95.6585717517
 21
244.1953996373
  0
LINE
  8
QUILTS
 62
7
  6
CONTINUOUS
 10
143.1173666633
 20
212.6063632624
 11
142.8080031723
 21
212.8236644872
  0
LINE
  8
QUILTS
 62
7
  6
CONTINUOUS
 10
143.8123958028
 20
214.9838085698
 11
144.1217592938
 21
214.766507345
  0
LINE
  8
QUILTS
 62
7
  6
CONTINUOUS
 10
144.5826825927
 20
215.0516993082
 11
143.9639556107
 21
215.4863017578
  0
LINE
  8
QUILTS
 62
7
  6
CONTINUOUS
 10
145.504532835
 20
215.6220744169
 11
145.813896326
 21
215.4047731921
  0
LINE
  8
QUILTS
 62
7
  6
CONTINUOUS
 10
142.3470764467
 20
212.538481424
 11
142.829505383
 21
212.1637917626
  0
LINE
  8
QUILTS
 62
7
  6
CONTINUOUS
 10
142.3408359981
 20
213.7607601248
 11
142.3300848754
 21
214.0906964805
  0
LINE
  8
QUILTS
 62
7
  6
CONTINUOUS
 10
144.588926468
 20
213.8294117073
 11
144.5996775908
 21
213.4994753516
  0
LINE
  8
QUILTS
 62
7
  6
CONTINUOUS
 10
146.2442995186
 20
214.5651442995
 11
146.2550506413
 21
214.2352079438
  0
LINE
  8
QUILTS
 62
7
  6
CONTINUOUS
 10
146.6747027112
 20
213.7255154069
 11
146.7895019032
 21
214.3254664169
  0
LINE
  8
QUILTS
 62
7
  6
CONTINUOUS
 10
86.1722225446
 20
239.8191052731
 11
90.1808282614
 21
240.9558453811
  0
LINE
  8
QUILTS
 62
7
  6
CONTINUOUS
 10
90.0066892852
 20
241.5699298938
 11
86.5993746554
 21
240.6037008671
  0
LINE
  8
QUILTS
 62
7
  6
CONTINUOUS
 10
91.6186761979
 20
241.2171660013
 11
92.2316202437
 21
241.339332268
  0
LINE
  8
QUILTS
 62
7
  6
CONTINUOUS
 10
71.5810645907
 20
235.2422487092
 11
71.8106560151
 21
235.2870655962
  0
LINE
  8
QUILTS
 62
7
  6
CONTINUOUS
 10
94.5988592216
 20
241.7077547503
 11
95.2192269384
 21
241.783707999
  0
LINE
  8
QUILTS
 62
7
  6
CONTINUOUS
 10
95.1545858743
 20
242.3116805349
 11
94.5342181575
 21
242.2357272862
  0
LINE
  8
QUILTS
 62
7
  6
CONTINUOUS
 10
93.5131690963
 20
242.8609589339
 11
92.8928013795
 21
242.7850056852
  0
LINE
  8
QUILTS
 62
7
  6
CONTINUOUS
 10
92.7764474624
 20
243.7353562646
 11
93.500212954
 21
243.8239687744
  0
LINE
  8
QUILTS
 62
7
  6
CONTINUOUS
 10
94.0689610675
 20
241.7500552643
 11
94.5988592216
 21
241.7077547503
  0
LINE
  8
QUILTS
 62
7
  6
CONTINUOUS
 10
95.361283458
 20
244.9092431413
 11
94.831380572
 21
244.9515430666
  0
LINE
  8
QUILTS
 62
7
  6
CONTINUOUS
 10
94.5342181575
 20
242.2357272862
 11
94.1077130464
 21
242.2906864726
  0
LINE
  8
QUILTS
 62
7
  6
CONTINUOUS
 10
94.8960216271
 20
244.4235706047
 11
95.3225314713
 21
244.3686119977
  0
LINE
  8
QUILTS
 62
7
  6
CONTINUOUS
 10
146.2748196248
 20
215.6899651553
 11
145.7923940804
 21
216.0646459035
  0
LINE
  8
QUILTS
 62
7
  6
CONTINUOUS
 10
140.6432877435
 20
222.655264073
 11
140.3836105006
 21
222.8590809393
  0
LINE
  8
QUILTS
 62
7
  6
CONTINUOUS
 10
139.7918827218
 20
222.5980566701
 11
140.1652449843
 21
222.2196626875
  0
LINE
  8
QUILTS
 62
7
  6
CONTINUOUS
 10
142.8080031723
 20
212.8236644872
 11
142.5981771374
 21
213.0785107556
  0
LINE
  8
QUILTS
 62
7
  6
CONTINUOUS
 10
144.1217592938
 20
214.766507345
 11
144.3315853288
 21
214.5116610765
  0
LINE
  8
QUILTS
 62
7
  6
CONTINUOUS
 10
145.813896326
 20
215.4047731921
 11
146.0237223609
 21
215.1499269236
  0
LINE
  8
QUILTS
 62
7
  6
CONTINUOUS
 10
136.5555520844
 20
223.4739049884
 11
136.8966123477
 21
222.9501656479
  0
LINE
  8
QUILTS
 62
7
  6
CONTINUOUS
 10
138.7687019318
 20
224.1692746916
 11
139.7918827218
 21
222.5980566701
  0
LINE
  8
QUILTS
 62
7
  6
CONTINUOUS
 10
142.0637258058
 20
212.9882522562
 11
142.3470764467
 21
212.538481424
  0
LINE
  8
QUILTS
 62
7
  6
CONTINUOUS
 10
144.8660365907
 20
214.6019195497
 11
144.5826825927
 21
215.0516993082
  0
LINE
  8
QUILTS
 62
7
  6
CONTINUOUS
 10
139.0839795718
 20
219.5233275366
 11
139.3661257562
 21
218.9656371829
  0
LINE
  8
QUILTS
 62
7
  6
CONTINUOUS
 10
140.6828093854
 20
216.3630793625
 11
140.9649555698
 21
215.8053890088
  0
LINE
  8
QUILTS
 62
7
  6
CONTINUOUS
 10
140.6933368566
 20
219.1701393653
 11
141.633822703
 21
217.3111743562
  0
LINE
  8
QUILTS
 62
7
  6
CONTINUOUS
 10
141.9665009292
 20
217.596225092
 11
141.1200623758
 21
219.2692961531
  0
LINE
  8
QUILTS
 62
7
  6
CONTINUOUS
 10
141.8799126296
 20
213.4755681353
 11
142.0637258058
 21
212.9882522562
  0
LINE
  8
QUILTS
 62
7
  6
CONTINUOUS
 10
142.5981771374
 20
213.0785107556
 11
142.3408359981
 21
213.7607601248
  0
LINE
  8
QUILTS
 62
7
  6
CONTINUOUS
 10
141.7208174178
 20
223.7298731599
 11
141.8022004383
 21
223.4099506858
  0
LINE
  8
QUILTS
 62
7
  6
CONTINUOUS
 10
141.7956335525
 20
214.0004379844
 11
141.8799126296
 21
213.4755681353
  0
LINE
  8
QUILTS
 62
7
  6
CONTINUOUS
 10
145.1341254869
 20
213.5897427479
 11
145.0498497668
 21
214.1146036706
  0
LINE
  8
QUILTS
 62
7
  6
CONTINUOUS
 10
84.9532496912
 20
244.117696934
 11
88.4607779731
 21
245.1123440406
  0
LINE
  8
QUILTS
 62
7
  6
CONTINUOUS
 10
88.8167396114
 20
245.7661740762
 11
84.8081338947
 21
244.6294339682
  0
LINE
  8
QUILTS
 62
7
  6
CONTINUOUS
 10
91.25429011
 20
246.2428846344
 11
90.6413460642
 21
246.1207183677
  0
LINE
  8
QUILTS
 62
7
  6
CONTINUOUS
 10
94.2756539103
 20
244.347617356
 11
94.8960216271
 21
244.4235706047
  0
LINE
  8
QUILTS
 62
7
  6
CONTINUOUS
 10
94.831380572
 20
244.9515430666
 11
94.2110128553
 21
244.8755898179
  0
LINE
  8
QUILTS
 62
7
  6
CONTINUOUS
 10
93.0219296701
 20
246.0161354678
 11
96.0203752121
 21
246.3832430297
  0
LINE
  8
QUILTS
 62
7
  6
CONTINUOUS
 10
95.9557341571
 20
246.9112154917
 11
92.4403139401
 21
246.4808133627
  0
LINE
  8
QUILTS
 62
7
  6
CONTINUOUS
 10
140.3836105006
 20
222.8590809393
 11
139.3035845987
 21
224.5175915148
  0
LINE
  8
QUILTS
 62
7
  6
CONTINUOUS
 10
140.6407915158
 20
225.3883837353
 11
141.7208174178
 21
223.7298731599
  0
LINE
  8
QUILTS
 62
7
  6
CONTINUOUS
 10
142.1097078616
 20
224.1074297331
 11
140.7454668083
 21
226.2023870951
  0
LINE
  8
QUILTS
 62
7
  6
CONTINUOUS
 10
146.5581736228
 20
215.2401853968
 11
146.2748196248
 21
215.6899651553
  0
LINE
  8
QUILTS
 62
7
  6
CONTINUOUS
 10
144.6740871391
 20
219.5497355974
 11
144.2978936616
 21
220.2933198991
  0
LINE
  8
QUILTS
 62
7
  6
CONTINUOUS
 10
142.3047759018
 20
223.6129301427
 11
142.1097078616
 21
224.1074297331
  0
LINE
  8
QUILTS
 62
7
  6
CONTINUOUS
 10
144.3315853288
 20
214.5116610765
 11
144.588926468
 21
213.8294117073
  0
LINE
  8
QUILTS
 62
7
  6
CONTINUOUS
 10
145.0498497668
 20
214.1146036706
 11
144.8660365907
 21
214.6019195497
  0
LINE
  8
QUILTS
 62
7
  6
CONTINUOUS
 10
145.9411765371
 20
213.5601668465
 11
146.124993079
 21
213.0728420443
  0
LINE
  8
QUILTS
 62
7
  6
CONTINUOUS
 10
146.0237223609
 20
215.1499269236
 11
146.2442995186
 21
214.5651442995
  0
LINE
  8
QUILTS
 62
7
  6
CONTINUOUS
 10
146.7052228174
 20
214.8503362627
 11
146.5581736228
 21
215.2401853968
  0
LINE
  8
QUILTS
 62
7
  6
CONTINUOUS
 10
146.7895019032
 20
214.3254664169
 11
146.7052228174
 21
214.8503362627
  0
LINE
  8
0
 62
7
  6
CONTINUOUS
 10
160.3130852384
 20
188.0350057606
 11
160.9856156303
 21
194.4337050157
  0
LINE
  8
0
 62
7
  6
CONTINUOUS
 10
151.2456548314
 20
164.4571880123
 11
154.4626273711
 21
170.0291478976
  0
LINE
  8
0
 62
7
  6
CONTINUOUS
 10
138.5773534387
 20
150.387613944
 11
133.3721825287
 21
146.6058359123
  0
LINE
  8
0
 62
7
  6
CONTINUOUS
 10
103.5338869273
 20
258.2403139117
 11
97.099941848
 21
258.2403139117
  0
LINE
  8
0
 62
7
  6
CONTINUOUS
 10
127.9303474892
 20
251.6871088937
 11
122.0526461873
 21
254.304030117
  0
LINE
  8
0
 62
7
  6
CONTINUOUS
 10
143.2470450355
 20
240.5588767378
 11
147.5521946077
 21
235.7775237446
  0
LINE
  8
0
 62
7
  6
CONTINUOUS
 10
159.0066326571
 20
213.2624702708
 11
157.0184342867
 21
219.381515664
  0
POLYLINE
  8
0
 62
7
  6
CONTINUOUS
 66
1
 70
0
  0
VERTEX
  8
0
 62
7
  6
CONTINUOUS
 10
39.6471434768
 20
87.1017494086
  0
VERTEX
  8
0
 62
7
  6
CONTINUOUS
 10
39.6477081935
 20
87.0779923401
  0
VERTEX
  8
0
 62
7
  6
CONTINUOUS
 10
39.6550236385
 20
87.0133291445
  0
VERTEX
  8
0
 62
7
  6
CONTINUOUS
 10
39.6703643176
 20
86.9511442887
  0
VERTEX
  8
0
 62
7
  6
CONTINUOUS
 10
39.6930201182
 20
86.8925305061
  0
VERTEX
  8
0
 62
7
  6
CONTINUOUS
 10
39.7221127545
 20
86.8384057413
  0
VERTEX
  8
0
 62
7
  6
CONTINUOUS
 10
39.7566376264
 20
86.7894886989
  0
VERTEX
  8
0
 62
7
  6
CONTINUOUS
 10
39.7955084269
 20
86.7462847792
  0
VERTEX
  8
0
 62
7
  6
CONTINUOUS
 10
39.8376003278
 20
86.7090837406
  0
VERTEX
  8
0
 62
7
  6
CONTINUOUS
 10
39.8817933825
 20
86.6779641468
  0
VERTEX
  8
0
 62
7
  6
CONTINUOUS
 10
39.9270094331
 20
86.6528089243
  0
VERTEX
  8
0
 62
7
  6
CONTINUOUS
 10
39.9722281383
 20
86.6333326189
  0
VERTEX
  8
0
 62
7
  6
CONTINUOUS
 10
40.0165064741
 20
86.619100904
  0
VERTEX
  8
0
 62
7
  6
CONTINUOUS
 10
40.0577890097
 20
86.6097669145
  0
VERTEX
  8
0
 62
7
  6
CONTINUOUS
 10
40.08724234
 20
86.6052668913
  0
VERTEX
  8
0
 62
7
  6
CONTINUOUS
 10
40.1034299069
 20
86.6034253763
  0
VERTEX
  8
0
 62
7
  6
CONTINUOUS
 10
40.1206081873
 20
86.6016903095
  0
VERTEX
  8
0
 62
7
  6
CONTINUOUS
 10
40.173513784
 20
86.5966941702
  0
SEQEND
  0
LINE
  8
2_FEATURE
 62
7
  6
CONTINUOUS
 10
39.6471425441
 20
93.6835731989
 11
39.6471425441
 21
87.1016527227
  0
LINE
  8
2_FEATURE
 62
7
  6
CONTINUOUS
 10
41.6000648361
 20
93.6844337047
 11
41.6000648361
 21
87.1007922168
  0
POLYLINE
  8
0
 62
7
  6
CONTINUOUS
 66
1
 70
0
  0
VERTEX
  8
0
 62
7
  6
CONTINUOUS
 10
41.600065178
 20
87.1008984464
  0
VERTEX
  8
0
 62
7
  6
CONTINUOUS
 10
41.6158518
 20
86.9762295696
  0
VERTEX
  8
0
 62
7
  6
CONTINUOUS
 10
41.6554221668
 20
86.8721821907
  0
VERTEX
  8
0
 62
7
  6
CONTINUOUS
 10
41.7141650119
 20
86.7828991748
  0
VERTEX
  8
0
 62
7
  6
CONTINUOUS
 10
41.7864360489
 20
86.7113881702
  0
VERTEX
  8
0
 62
7
  6
CONTINUOUS
 10
41.8662186132
 20
86.6587836017
  0
VERTEX
  8
0
 62
7
  6
CONTINUOUS
 10
41.9472599055
 20
86.6245037829
  0
VERTEX
  8
0
 62
7
  6
CONTINUOUS
 10
42.0151441375
 20
86.607383616
  0
SEQEND
  0
LINE
  8
1_AXIS
 62
7
  6
CONTINUOUS
 10
47.8169143876
 20
100.8926129608
 11
47.8169143876
 21
95.3926129608
  0
LINE
  8
1_AXIS
 62
7
  6
CONTINUOUS
 10
47.8169143876
 20
85.3926129608
 11
47.8169143876
 21
79.8926129608
  0
LINE
  8
2_FEATURE
 62
7
  6
CONTINUOUS
 10
52.903662549
 20
93.6893510135
 11
52.903662549
 21
87.095874908
  0
POLYLINE
  8
0
 62
7
  6
CONTINUOUS
 66
1
 70
0
  0
VERTEX
  8
0
 62
7
  6
CONTINUOUS
 10
52.903663321
 20
87.0959683383
  0
VERTEX
  8
0
 62
7
  6
CONTINUOUS
 10
52.9041626518
 20
87.1183295362
  0
VERTEX
  8
0
 62
7
  6
CONTINUOUS
 10
52.9205152227
 20
86.9671312085
  0
VERTEX
  8
0
 62
7
  6
CONTINUOUS
 10
52.9785118817
 20
86.8325332182
  0
VERTEX
  8
0
 62
7
  6
CONTINUOUS
 10
53.0659114328
 20
86.7267640954
  0
VERTEX
  8
0
 62
7
  6
CONTINUOUS
 10
53.1155990014
 20
86.6865890541
  0
VERTEX
  8
0
 62
7
  6
CONTINUOUS
 10
53.2170090383
 20
86.6307989325
  0
VERTEX
  8
0
 62
7
  6
CONTINUOUS
 10
53.3087529329
 20
86.602042722
  0
VERTEX
  8
0
 62
7
  6
CONTINUOUS
 10
53.3893864213
 20
86.5875571352
  0
SEQEND
  0
POLYLINE
  8
0
 62
7
  6
CONTINUOUS
 66
1
 70
0
  0
VERTEX
  8
0
 62
7
  6
CONTINUOUS
 10
72.2671153981
 20
87.0875156463
  0
VERTEX
  8
0
 62
7
  6
CONTINUOUS
 10
72.2768293688
 20
86.9892556369
  0
VERTEX
  8
0
 62
7
  6
CONTINUOUS
 10
72.3398245026
 20
86.8272979402
  0
VERTEX
  8
0
 62
7
  6
CONTINUOUS
 10
72.4444611463
 20
86.7044396978
  0
VERTEX
  8
0
 62
7
  6
CONTINUOUS
 10
72.567260958
 20
86.6269695503
  0
VERTEX
  8
0
 62
7
  6
CONTINUOUS
 10
72.6286953497
 20
86.6036695501
  0
SEQEND
  0
LINE
  8
2_FEATURE
 62
7
  6
CONTINUOUS
 10
72.267114973
 20
93.6977619056
 11
72.267114973
 21
87.0874640159
  0
POLYLINE
  8
0
 62
7
  6
CONTINUOUS
 66
1
 70
0
  0
VERTEX
  8
0
 62
7
  6
CONTINUOUS
 10
41.9739761309
 20
94.1685887373
  0
VERTEX
  8
0
 62
7
  6
CONTINUOUS
 10
41.901701139
 20
94.1435118432
  0
VERTEX
  8
0
 62
7
  6
CONTINUOUS
 10
41.8269907227
 20
94.103304371
  0
VERTEX
  8
0
 62
7
  6
CONTINUOUS
 10
41.7547349347
 20
94.0460036993
  0
VERTEX
  8
0
 62
7
  6
CONTINUOUS
 10
41.6910005321
 20
93.9719009851
  0
VERTEX
  8
0
 62
7
  6
CONTINUOUS
 10
41.6413826342
 20
93.8833848238
  0
VERTEX
  8
0
 62
7
  6
CONTINUOUS
 10
41.6101922488
 20
93.784465538
  0
VERTEX
  8
0
 62
7
  6
CONTINUOUS
 10
41.600065178
 20
93.684327487
  0
SEQEND
  0
LINE
  8
0
 62
7
  6
CONTINUOUS
 10
73.0539797955
 20
94.319562824
 11
73.0542853905
 21
94.3197820598
  0
LINE
  8
0
 62
7
  6
CONTINUOUS
 10
73.0546328045
 20
94.3199271323
 11
73.0539797955
 21
94.319562824
  0
LINE
  8
0
 62
7
  6
CONTINUOUS
 10
73.0546329867
 20
86.4652988651
 11
73.0539996057
 21
86.4656522038
  0
LINE
  8
0
 62
7
  6
CONTINUOUS
 10
73.0542853905
 20
94.3197820598
 11
73.0516258127
 21
94.3185229727
  0
LINE
  8
0
 62
7
  6
CONTINUOUS
 10
73.0516258127
 20
94.3185229727
 11
73.0187633787
 21
94.3052557934
  0
LINE
  8
0
 62
7
  6
CONTINUOUS
 10
73.1966279848
 20
94.3763735282
 11
73.0546328797
 21
94.3199269973
  0
POLYLINE
  8
0
 62
7
  6
CONTINUOUS
 66
1
 70
0
  0
VERTEX
  8
0
 62
7
  6
CONTINUOUS
 10
72.6286771345
 20
94.1815506506
  0
VERTEX
  8
0
 62
7
  6
CONTINUOUS
 10
72.5706821425
 20
94.1597808568
  0
VERTEX
  8
0
 62
7
  6
CONTINUOUS
 10
72.4467900006
 20
94.0827558238
  0
VERTEX
  8
0
 62
7
  6
CONTINUOUS
 10
72.3409648396
 20
93.9598009669
  0
VERTEX
  8
0
 62
7
  6
CONTINUOUS
 10
72.2770648802
 20
93.7971425815
  0
VERTEX
  8
0
 62
7
  6
CONTINUOUS
 10
72.2671153981
 20
93.6977102461
  0
SEQEND
  0
LINE
  8
0
 62
7
  6
CONTINUOUS
 10
73.0187633787
 20
94.3052557934
 11
72.9678432663
 21
94.2880570321
  0
POLYLINE
  8
0
 62
7
  6
CONTINUOUS
 66
1
 70
0
  0
VERTEX
  8
0
 62
7
  6
CONTINUOUS
 10
147.280547027
 20
86.5932274324
  0
VERTEX
  8
0
 62
7
  6
CONTINUOUS
 10
147.3553286764
 20
86.6096971022
  0
VERTEX
  8
0
 62
7
  6
CONTINUOUS
 10
147.4467688003
 20
86.6442469841
  0
VERTEX
  8
0
 62
7
  6
CONTINUOUS
 10
147.5420708037
 20
86.7045706445
  0
VERTEX
  8
0
 62
7
  6
CONTINUOUS
 10
147.6279734206
 20
86.7927113003
  0
VERTEX
  8
0
 62
7
  6
CONTINUOUS
 10
147.6923435271
 20
86.9050159753
  0
VERTEX
  8
0
 62
7
  6
CONTINUOUS
 10
147.7270932718
 20
87.0405756205
  0
VERTEX
  8
0
 62
7
  6
CONTINUOUS
 10
147.7301660546
 20
87.0959737934
  0
SEQEND
  0
LINE
  8
1_AXIS
 62
7
  6
CONTINUOUS
 10
150.8169143876
 20
77.8926129608
 11
49.8169143876
 21
77.8926129608
  0
POLYLINE
  8
0
 62
7
  6
CONTINUOUS
 66
1
 70
0
  0
VERTEX
  8
0
 62
7
  6
CONTINUOUS
 10
42.0151441375
 20
86.607383616
  0
VERTEX
  8
0
 62
7
  6
CONTINUOUS
 10
42.0593902036
 20
86.6004288456
  0
VERTEX
  8
0
 62
7
  6
CONTINUOUS
 10
42.1039517781
 20
86.5949558893
  0
VERTEX
  8
0
 62
7
  6
CONTINUOUS
 10
42.1648396879
 20
86.5884237203
  0
SEQEND
  0
POLYLINE
  8
0
 62
7
  6
CONTINUOUS
 66
1
 70
0
  0
VERTEX
  8
0
 62
7
  6
CONTINUOUS
 10
72.9678502674
 20
86.4971666947
  0
VERTEX
  8
0
 62
7
  6
CONTINUOUS
 10
73.017768488
 20
86.4803353316
  0
VERTEX
  8
0
 62
7
  6
CONTINUOUS
 10
73.0388332482
 20
86.4722183584
  0
SEQEND
  0
LINE
  8
0
 62
7
  6
CONTINUOUS
 10
73.0546329867
 20
86.4652988651
 11
73.1947969349
 21
86.4093116101
  0
LINE
  8
0
 62
7
  6
CONTINUOUS
 10
73.0388332482
 20
86.4722183584
 11
73.0539995283
 21
86.4656520655
  0
LINE
  8
0
 62
7
  6
CONTINUOUS
 10
72.9676654332
 20
94.2880012312
 11
72.6286469656
 21
94.1815421011
  0
LINE
  8
0
 62
7
  6
CONTINUOUS
 10
147.2267930989
 20
86.5851097614
 11
147.280547027
 21
86.5932274324
  0
POLYLINE
  8
0
 62
7
  6
CONTINUOUS
 66
1
 70
0
  0
VERTEX
  8
0
 62
7
  6
CONTINUOUS
 10
145.9358239211
 20
86.4079266262
  0
VERTEX
  8
0
 62
7
  6
CONTINUOUS
 10
146.0726650448
 20
86.4284859702
  0
VERTEX
  8
0
 62
7
  6
CONTINUOUS
 10
146.269043778
 20
86.4565600999
  0
SEQEND
  0
LINE
  8
0
 62
7
  6
CONTINUOUS
 10
145.8850842507
 20
86.4011099913
 11
145.9358011541
 21
86.4079232487
  0
LINE
  8
0
 62
7
  6
CONTINUOUS
 10
146.269043778
 20
86.4565600999
 11
147.2268512116
 21
86.5851172591
  0
POLYLINE
  8
0
 62
7
  6
CONTINUOUS
 66
1
 70
0
  0
VERTEX
  8
0
 62
7
  6
CONTINUOUS
 10
158.4712273696
 20
86.5886522568
  0
VERTEX
  8
0
 62
7
  6
CONTINUOUS
 10
158.5446672611
 20
86.5966781653
  0
VERTEX
  8
0
 62
7
  6
CONTINUOUS
 10
158.5994923708
 20
86.6040778677
  0
VERTEX
  8
0
 62
7
  6
CONTINUOUS
 10
158.659876036
 20
86.6166433944
  0
SEQEND
  0
POLYLINE
  8
0
 62
7
  6
CONTINUOUS
 66
1
 70
0
  0
VERTEX
  8
0
 62
7
  6
CONTINUOUS
 10
160.5125103343
 20
86.6016207653
  0
VERTEX
  8
0
 62
7
  6
CONTINUOUS
 10
160.5311528854
 20
86.6035049703
  0
VERTEX
  8
0
 62
7
  6
CONTINUOUS
 10
160.5501130513
 20
86.6057181527
  0
VERTEX
  8
0
 62
7
  6
CONTINUOUS
 10
160.5834004294
 20
86.6111654172
  0
VERTEX
  8
0
 62
7
  6
CONTINUOUS
 10
160.6243065305
 20
86.6210474288
  0
VERTEX
  8
0
 62
7
  6
CONTINUOUS
 10
160.6683516565
 20
86.6359105684
  0
VERTEX
  8
0
 62
7
  6
CONTINUOUS
 10
160.6906830005
 20
86.6452500383
  0
VERTEX
  8
0
 62
7
  6
CONTINUOUS
 10
160.7349612296
 20
86.6677410493
  0
VERTEX
  8
0
 62
7
  6
CONTINUOUS
 10
160.7788569315
 20
86.6959932416
  0
VERTEX
  8
0
 62
7
  6
CONTINUOUS
 10
160.8221364643
 20
86.7309754385
  0
VERTEX
  8
0
 62
7
  6
CONTINUOUS
 10
160.8636771207
 20
86.7733035119
  0
VERTEX
  8
0
 62
7
  6
CONTINUOUS
 10
160.9017980294
 20
86.8230383312
  0
VERTEX
  8
0
 62
7
  6
CONTINUOUS
 10
160.9348424707
 20
86.8800453949
  0
VERTEX
  8
0
 62
7
  6
CONTINUOUS
 10
160.9611538641
 20
86.94402698
  0
VERTEX
  8
0
 62
7
  6
CONTINUOUS
 10
160.9789818462
 20
87.0143401692
  0
VERTEX
  8
0
 62
7
  6
CONTINUOUS
 10
160.9865415403
 20
87.0899280088
  0
VERTEX
  8
0
 62
7
  6
CONTINUOUS
 10
160.9866812929
 20
87.1017488379
  0
SEQEND
  0
LINE
  8
0
 62
7
  6
CONTINUOUS
 10
158.4082061568
 20
86.5824506036
 11
158.4712273696
 21
86.5886522568
  0
LINE
  8
0
 62
7
  6
CONTINUOUS
 10
156.5583242848
 20
86.4045597769
 11
158.4082061568
 21
86.5824506036
  0
LINE
  8
0
 62
7
  6
CONTINUOUS
 10
160.4522972282
 20
86.5959556358
 11
160.5125103343
 21
86.6016207653
  0
LINE
  8
0
 62
7
  6
CONTINUOUS
 10
160.4522972282
 20
86.5959556358
 11
158.2849053842
 21
86.4040288665
  0
LINE
  8
0
 62
7
  6
CONTINUOUS
 10
156.5003836251
 20
86.3995097372
 11
156.5583237744
 21
86.4045598368
  0
LINE
  8
0
 62
7
  6
CONTINUOUS
 10
44.0755047706
 20
86.4045598597
 11
44.1269849464
 21
86.4000046935
  0
LINE
  8
0
 62
7
  6
CONTINUOUS
 10
40.173513784
 20
86.5966941702
 11
42.348923391
 21
86.4040288665
  0
LINE
  8
0
 62
7
  6
CONTINUOUS
 10
42.1648396879
 20
86.5884237203
 11
43.8549758421
 21
86.4262709253
  0
LINE
  8
0
 62
7
  6
CONTINUOUS
 10
43.8549758421
 20
86.4262709253
 11
44.0755044714
 21
86.4045597808
  0
POLYLINE
  8
0
 62
7
  6
CONTINUOUS
 66
1
 70
0
  0
VERTEX
  8
0
 62
7
  6
CONTINUOUS
 10
53.4069775647
 20
86.5851172589
  0
VERTEX
  8
0
 62
7
  6
CONTINUOUS
 10
54.3605841885
 20
86.4571443856
  0
VERTEX
  8
0
 62
7
  6
CONTINUOUS
 10
54.5572593906
 20
86.4290596707
  0
VERTEX
  8
0
 62
7
  6
CONTINUOUS
 10
54.6980051455
 20
86.4079265819
  0
SEQEND
  0
LINE
  8
0
 62
7
  6
CONTINUOUS
 10
54.6980258739
 20
86.4079235172
 11
54.7434737745
 21
86.4017266016
  0
LINE
  8
0
 62
7
  6
CONTINUOUS
 10
53.3893864213
 20
86.5875571352
 11
53.4070897587
 21
86.5851024917
  0
LINE
  8
0
 62
7
  6
CONTINUOUS
 10
72.628646964
 20
86.6036838209
 11
72.9676654333
 21
86.4972246904
  0
LINE
  8
0
 62
7
  6
CONTINUOUS
 10
127.3054538245
 20
86.3926130833
 11
127.4371964075
 21
86.4088513027
  0
LINE
  8
0
 62
7
  6
CONTINUOUS
 10
158.2849053842
 20
86.4040288665
 11
158.0266921366
 21
86.3926129608
  0
POLYLINE
  8
0
 62
7
  6
CONTINUOUS
 66
1
 70
0
  0
VERTEX
  8
0
 62
7
  6
CONTINUOUS
 10
145.7383636063
 20
86.3926130668
  0
VERTEX
  8
0
 62
7
  6
CONTINUOUS
 10
145.7784918691
 20
86.3932551301
  0
VERTEX
  8
0
 62
7
  6
CONTINUOUS
 10
145.8850842507
 20
86.4011099913
  0
SEQEND
  0
POLYLINE
  8
0
 62
7
  6
CONTINUOUS
 66
1
 70
0
  0
VERTEX
  8
0
 62
7
  6
CONTINUOUS
 10
156.3175977719
 20
86.3926130654
  0
VERTEX
  8
0
 62
7
  6
CONTINUOUS
 10
156.3704012488
 20
86.3931913437
  0
VERTEX
  8
0
 62
7
  6
CONTINUOUS
 10
156.5003836251
 20
86.3995097372
  0
SEQEND
  0
LINE
  8
0
 62
7
  6
CONTINUOUS
 10
158.0266921359
 20
86.3926129608
 11
156.338372831
 21
86.3926129608
  0
LINE
  8
0
 62
7
  6
CONTINUOUS
 10
156.3175953014
 20
86.3926129613
 11
127.3263226982
 21
86.3926129608
  0
LINE
  8
0
 62
7
  6
CONTINUOUS
 10
127.3055130596
 20
86.3926129608
 11
44.3162847481
 21
86.3926129608
  0
LINE
  8
0
 62
7
  6
CONTINUOUS
 10
44.2952309987
 20
86.3926129608
 11
42.6071366394
 21
86.3926129608
  0
LINE
  8
0
 62
7
  6
CONTINUOUS
 10
42.6071366386
 20
86.3926129608
 11
42.348923391
 21
86.4040288665
  0
POLYLINE
  8
0
 62
7
  6
CONTINUOUS
 66
1
 70
0
  0
VERTEX
  8
0
 62
7
  6
CONTINUOUS
 10
44.1269849464
 20
86.4000046935
  0
VERTEX
  8
0
 62
7
  6
CONTINUOUS
 10
44.2570074907
 20
86.393340223
  0
VERTEX
  8
0
 62
7
  6
CONTINUOUS
 10
44.3162381577
 20
86.3926130655
  0
SEQEND
  0
POLYLINE
  8
0
 62
7
  6
CONTINUOUS
 66
1
 70
0
  0
VERTEX
  8
0
 62
7
  6
CONTINUOUS
 10
54.7434737745
 20
86.4017266016
  0
VERTEX
  8
0
 62
7
  6
CONTINUOUS
 10
54.8500466532
 20
86.3934353355
  0
VERTEX
  8
0
 62
7
  6
CONTINUOUS
 10
54.8954714715
 20
86.3926130673
  0
SEQEND
  0
LINE
  8
0
 62
7
  6
CONTINUOUS
 10
73.1947969349
 20
86.4093116101
 11
73.3283790559
 21
86.392613086
  0
LINE
  8
1_AXIS
 62
2
  6
CENTER
 10
100.3169143876
 20
75.8926129608
 11
100.3169143876
 21
104.8926129608
  0
POLYLINE
  8
0
 62
7
  6
CONTINUOUS
 66
1
 70
0
  0
VERTEX
  8
0
 62
7
  6
CONTINUOUS
 10
44.3162714266
 20
94.3926128554
  0
VERTEX
  8
0
 62
7
  6
CONTINUOUS
 10
44.2634321631
 20
94.3920346747
  0
VERTEX
  8
0
 62
7
  6
CONTINUOUS
 10
44.1334498521
 20
94.3857165425
  0
SEQEND
  0
LINE
  8
1_AXIS
 62
7
  6
CONTINUOUS
 10
156.3175440278
 20
94.3926129608
 11
153.9139397407
 21
94.3926129608
  0
LINE
  8
1_AXIS
 62
7
  6
CONTINUOUS
 10
127.3055130596
 20
94.3926129608
 11
120.1997492395
 21
94.3926129608
  0
LINE
  8
1_AXIS
 62
7
  6
CONTINUOUS
 10
104.2060278197
 20
94.3926129608
 11
96.4278009556
 21
94.3926129608
  0
LINE
  8
1_AXIS
 62
7
  6
CONTINUOUS
 10
80.4340795358
 20
94.3926129608
 11
73.3283157156
 21
94.3926129608
  0
LINE
  8
1_AXIS
 62
7
  6
CONTINUOUS
 10
46.7198890345
 20
94.3926129608
 11
44.3162847474
 21
94.3926129608
  0
LINE
  8
0
 62
7
  6
CONTINUOUS
 10
42.6071366394
 20
94.3926129608
 11
44.2952309999
 21
94.3926129608
  0
LINE
  8
0
 62
7
  6
CONTINUOUS
 10
44.3162847481
 20
94.3926129608
 11
73.3075060771
 21
94.3926129608
  0
LINE
  8
0
 62
7
  6
CONTINUOUS
 10
73.3283157157
 20
94.3926129608
 11
156.3175440271
 21
94.3926129608
  0
LINE
  8
0
 62
7
  6
CONTINUOUS
 10
156.3383728329
 20
94.3926129608
 11
158.0266921359
 21
94.3926129608
  0
LINE
  8
0
 62
7
  6
CONTINUOUS
 10
73.3283751445
 20
94.392612837
 11
73.1966279848
 21
94.3763735282
  0
LINE
  8
0
 62
7
  6
CONTINUOUS
 10
44.1334498521
 20
94.3857165425
 11
44.0755050688
 21
94.3806660922
  0
LINE
  8
0
 62
7
  6
CONTINUOUS
 10
42.348923391
 20
94.381197055
 11
42.6071366386
 21
94.3926129608
  0
POLYLINE
  8
0
 62
7
  6
CONTINUOUS
 66
1
 70
0
  0
VERTEX
  8
0
 62
7
  6
CONTINUOUS
 10
54.8954667522
 20
94.3926128535
  0
VERTEX
  8
0
 62
7
  6
CONTINUOUS
 10
54.8553423395
 20
94.3919709597
  0
VERTEX
  8
0
 62
7
  6
CONTINUOUS
 10
54.7487500211
 20
94.384116565
  0
SEQEND
  0
LINE
  8
0
 62
7
  6
CONTINUOUS
 10
158.0266921366
 20
94.3926129608
 11
158.2849053842
 21
94.381197055
  0
POLYLINE
  8
0
 62
7
  6
CONTINUOUS
 66
1
 70
0
  0
VERTEX
  8
0
 62
7
  6
CONTINUOUS
 10
156.5068390416
 20
94.3852216074
  0
VERTEX
  8
0
 62
7
  6
CONTINUOUS
 10
156.3768165447
 20
94.391885812
  0
VERTEX
  8
0
 62
7
  6
CONTINUOUS
 10
156.3175504781
 20
94.3926128554
  0
SEQEND
  0
POLYLINE
  8
0
 62
7
  6
CONTINUOUS
 66
1
 70
0
  0
VERTEX
  8
0
 62
7
  6
CONTINUOUS
 10
145.8903494063
 20
94.3834999905
  0
VERTEX
  8
0
 62
7
  6
CONTINUOUS
 10
145.7837765739
 20
94.3917907827
  0
VERTEX
  8
0
 62
7
  6
CONTINUOUS
 10
145.7383558211
 20
94.3926128531
  0
SEQEND
  0
LINE
  8
0
 62
7
  6
CONTINUOUS
 10
127.4390360488
 20
94.375913249
 11
127.3054495284
 21
94.3926128344
  0
LINE
  8
0
 62
7
  6
CONTINUOUS
 10
127.6150652725
 20
86.4799700807
 11
127.6659853581
 21
86.4971688504
  0
LINE
  8
0
 62
7
  6
CONTINUOUS
 10
127.6661633419
 20
86.4972246903
 11
128.0051818124
 21
86.6036838213
  0
LINE
  8
0
 62
7
  6
CONTINUOUS
 10
53.4070324765
 20
94.2001157796
 11
53.3532936188
 21
94.192000553
  0
POLYLINE
  8
0
 62
7
  6
CONTINUOUS
 66
1
 70
0
  0
VERTEX
  8
0
 62
7
  6
CONTINUOUS
 10
54.6980048653
 20
94.3772992972
  0
VERTEX
  8
0
 62
7
  6
CONTINUOUS
 10
54.5611740188
 20
94.3567414615
  0
VERTEX
  8
0
 62
7
  6
CONTINUOUS
 10
54.3647959176
 20
94.3286673432
  0
SEQEND
  0
LINE
  8
0
 62
7
  6
CONTINUOUS
 10
54.7487500211
 20
94.384116565
 11
54.6980278429
 21
94.3773027076
  0
LINE
  8
0
 62
7
  6
CONTINUOUS
 10
54.3647959176
 20
94.3286673432
 11
53.406977566
 21
94.2001086628
  0
POLYLINE
  8
0
 62
7
  6
CONTINUOUS
 66
1
 70
0
  0
VERTEX
  8
0
 62
7
  6
CONTINUOUS
 10
42.1626379623
 20
94.1965774075
  0
VERTEX
  8
0
 62
7
  6
CONTINUOUS
 10
42.0891770947
 20
94.1885495802
  0
VERTEX
  8
0
 62
7
  6
CONTINUOUS
 10
42.0343507219
 20
94.1811503804
  0
VERTEX
  8
0
 62
7
  6
CONTINUOUS
 10
41.9739761309
 20
94.1685887373
  0
SEQEND
  0
POLYLINE
  8
0
 62
7
  6
CONTINUOUS
 66
1
 70
0
  0
VERTEX
  8
0
 62
7
  6
CONTINUOUS
 10
40.1213139792
 20
94.1836047317
  0
VERTEX
  8
0
 62
7
  6
CONTINUOUS
 10
40.1026768688
 20
94.1817210459
  0
VERTEX
  8
0
 62
7
  6
CONTINUOUS
 10
40.0837092783
 20
94.1795069069
  0
VERTEX
  8
0
 62
7
  6
CONTINUOUS
 10
40.0504388456
 20
94.1740626626
  0
VERTEX
  8
0
 62
7
  6
CONTINUOUS
 10
40.0095349435
 20
94.1641824576
  0
VERTEX
  8
0
 62
7
  6
CONTINUOUS
 10
39.9654795677
 20
94.1493169415
  0
VERTEX
  8
0
 62
7
  6
CONTINUOUS
 10
39.943146066
 20
94.1399768253
  0
VERTEX
  8
0
 62
7
  6
CONTINUOUS
 10
39.8988642117
 20
94.1174841965
  0
VERTEX
  8
0
 62
7
  6
CONTINUOUS
 10
39.8549648857
 20
94.0892294377
  0
VERTEX
  8
0
 62
7
  6
CONTINUOUS
 10
39.8116832731
 20
94.0542447865
  0
VERTEX
  8
0
 62
7
  6
CONTINUOUS
 10
39.7701426418
 20
94.0119155241
  0
VERTEX
  8
0
 62
7
  6
CONTINUOUS
 10
39.7320227169
 20
93.9621805005
  0
VERTEX
  8
0
 62
7
  6
CONTINUOUS
 10
39.6989795029
 20
93.905173854
  0
VERTEX
  8
0
 62
7
  6
CONTINUOUS
 10
39.6726693091
 20
93.841193231
  0
VERTEX
  8
0
 62
7
  6
CONTINUOUS
 10
39.6548422899
 20
93.7708814214
  0
VERTEX
  8
0
 62
7
  6
CONTINUOUS
 10
39.6472831788
 20
93.6952951929
  0
VERTEX
  8
0
 62
7
  6
CONTINUOUS
 10
39.6471434764
 20
93.6834765125
  0
SEQEND
  0
LINE
  8
0
 62
7
  6
CONTINUOUS
 10
44.0755044928
 20
94.3806661442
 11
42.2256226184
 21
94.202775318
  0
LINE
  8
0
 62
7
  6
CONTINUOUS
 10
42.2256226184
 20
94.202775318
 11
42.1626379623
 21
94.1965774075
  0
LINE
  8
0
 62
7
  6
CONTINUOUS
 10
40.1815208798
 20
94.1892693065
 11
40.1213139792
 21
94.1836047317
  0
LINE
  8
0
 62
7
  6
CONTINUOUS
 10
40.1815208798
 20
94.1892693065
 11
42.348923391
 21
94.381197055
  0
LINE
  8
1_AXIS
 62
7
  6
CONTINUOUS
 10
150.8169143876
 20
102.8926129608
 11
49.8169143876
 21
102.8926129608
  0
LINE
  8
0
 62
7
  6
CONTINUOUS
 10
156.5583239443
 20
94.3806660686
 11
156.5068390416
 21
94.3852216074
  0
LINE
  8
0
 62
7
  6
CONTINUOUS
 10
158.8466820837
 20
94.3314094849
 11
160.3036156251
 21
94.2026248537
  0
LINE
  8
0
 62
7
  6
CONTINUOUS
 10
158.2849053842
 20
94.381197055
 11
158.8466820837
 21
94.3314094849
  0
LINE
  8
0
 62
7
  6
CONTINUOUS
 10
160.4603016285
 20
94.1885329881
 11
160.3041262581
 21
94.2025841344
  0
LINE
  8
0
 62
7
  6
CONTINUOUS
 10
158.4690207038
 20
94.1967989756
 11
156.558324287
 21
94.3806661453
  0
POLYLINE
  8
0
 62
7
  6
CONTINUOUS
 66
1
 70
0
  0
VERTEX
  8
0
 62
7
  6
CONTINUOUS
 10
147.2268512105
 20
94.2001086626
  0
VERTEX
  8
0
 62
7
  6
CONTINUOUS
 10
146.2732542471
 20
94.328080191
  0
VERTEX
  8
0
 62
7
  6
CONTINUOUS
 10
146.076578558
 20
94.3561649059
  0
VERTEX
  8
0
 62
7
  6
CONTINUOUS
 10
145.9358236129
 20
94.3772993426
  0
SEQEND
  0
LINE
  8
0
 62
7
  6
CONTINUOUS
 10
145.9358026432
 20
94.3773024447
 11
145.8903494063
 21
94.3834999905
  0
LINE
  8
0
 62
7
  6
CONTINUOUS
 10
147.2446790466
 20
94.1976345674
 11
147.2267333554
 21
94.2001241382
  0
POLYLINE
  8
0
 62
7
  6
CONTINUOUS
 66
1
 70
0
  0
VERTEX
  8
0
 62
7
  6
CONTINUOUS
 10
158.6186725937
 20
94.1778446143
  0
VERTEX
  8
0
 62
7
  6
CONTINUOUS
 10
158.574439873
 20
94.1847969124
  0
VERTEX
  8
0
 62
7
  6
CONTINUOUS
 10
158.5298901998
 20
94.190268499
  0
VERTEX
  8
0
 62
7
  6
CONTINUOUS
 10
158.4690207038
 20
94.1967989756
  0
SEQEND
  0
LINE
  8
0
 62
7
  6
CONTINUOUS
 10
128.0051818111
 20
94.1815421006
 11
127.6661633419
 21
94.2880012312
  0
POLYLINE
  8
0
 62
7
  6
CONTINUOUS
 66
1
 70
0
  0
VERTEX
  8
0
 62
7
  6
CONTINUOUS
 10
127.6659783432
 20
94.2880592699
  0
VERTEX
  8
0
 62
7
  6
CONTINUOUS
 10
127.6160601674
 20
94.304890636
  0
VERTEX
  8
0
 62
7
  6
CONTINUOUS
 10
127.5949952228
 20
94.3130076912
  0
SEQEND
  0
LINE
  8
0
 62
7
  6
CONTINUOUS
 10
127.5791962605
 20
86.4652989549
 11
127.5798488916
 21
86.4656630527
  0
LINE
  8
0
 62
7
  6
CONTINUOUS
 10
127.5795432265
 20
86.4654438085
 11
127.5822027484
 21
86.4667028748
  0
LINE
  8
0
 62
7
  6
CONTINUOUS
 10
127.5822027484
 20
86.4667028748
 11
127.6150652725
 21
86.4799700807
  0
LINE
  8
0
 62
7
  6
CONTINUOUS
 10
127.4371964075
 20
86.4088513027
 11
127.579196187
 21
86.4652990869
  0
POLYLINE
  8
0
 62
7
  6
CONTINUOUS
 66
1
 70
0
  0
VERTEX
  8
0
 62
7
  6
CONTINUOUS
 10
128.0051991121
 20
86.6036903669
  0
VERTEX
  8
0
 62
7
  6
CONTINUOUS
 10
128.0631340094
 20
86.6254400456
  0
VERTEX
  8
0
 62
7
  6
CONTINUOUS
 10
128.1870404906
 20
86.7024712998
  0
VERTEX
  8
0
 62
7
  6
CONTINUOUS
 10
128.2928646673
 20
86.825427143
  0
VERTEX
  8
0
 62
7
  6
CONTINUOUS
 10
128.3567640452
 20
86.9880855018
  0
VERTEX
  8
0
 62
7
  6
CONTINUOUS
 10
128.3667139059
 20
87.087522437
  0
SEQEND
  0
POLYLINE
  8
0
 62
7
  6
CONTINUOUS
 66
1
 70
0
  0
VERTEX
  8
0
 62
7
  6
CONTINUOUS
 10
53.3532936188
 20
94.192000553
  0
VERTEX
  8
0
 62
7
  6
CONTINUOUS
 10
53.2785073873
 20
94.1755311338
  0
VERTEX
  8
0
 62
7
  6
CONTINUOUS
 10
53.187050253
 20
94.1409739114
  0
VERTEX
  8
0
 62
7
  6
CONTINUOUS
 10
53.091723232
 20
94.0806282079
  0
VERTEX
  8
0
 62
7
  6
CONTINUOUS
 10
53.005827022
 20
93.9924792715
  0
VERTEX
  8
0
 62
7
  6
CONTINUOUS
 10
52.9414702442
 20
93.8801759156
  0
VERTEX
  8
0
 62
7
  6
CONTINUOUS
 10
52.906733495
 20
93.7446309668
  0
VERTEX
  8
0
 62
7
  6
CONTINUOUS
 10
52.903663321
 20
93.6892576077
  0
SEQEND
  0
LINE
  8
0
 62
7
  6
CONTINUOUS
 10
127.5791955437
 20
94.3199271931
 11
127.4390360488
 21
94.375913249
  0
LINE
  8
0
 62
7
  6
CONTINUOUS
 10
127.5949952228
 20
94.3130076912
 11
127.579829389
 21
94.3195737629
  0
LINE
  8
0
 62
7
  6
CONTINUOUS
 10
127.5791955437
 20
94.3199271931
 11
127.5798293176
 21
94.3195736353
  0
LINE
  8
0
 62
7
  6
CONTINUOUS
 10
127.5798488916
 20
86.4656630527
 11
127.5795432265
 21
86.4654438085
  0
POLYLINE
  8
0
 62
7
  6
CONTINUOUS
 66
1
 70
0
  0
VERTEX
  8
0
 62
7
  6
CONTINUOUS
 10
158.659876036
 20
86.6166433944
  0
VERTEX
  8
0
 62
7
  6
CONTINUOUS
 10
158.7321343626
 20
86.641717526
  0
VERTEX
  8
0
 62
7
  6
CONTINUOUS
 10
158.8068388277
 20
86.6819228504
  0
VERTEX
  8
0
 62
7
  6
CONTINUOUS
 10
158.8790920377
 20
86.7392213044
  0
VERTEX
  8
0
 62
7
  6
CONTINUOUS
 10
158.9428263425
 20
86.8133228703
  0
VERTEX
  8
0
 62
7
  6
CONTINUOUS
 10
158.9924450871
 20
86.9018388893
  0
VERTEX
  8
0
 62
7
  6
CONTINUOUS
 10
159.0236364328
 20
87.0007589264
  0
VERTEX
  8
0
 62
7
  6
CONTINUOUS
 10
159.0337640342
 20
87.1008998129
  0
SEQEND
  0
POLYLINE
  8
0
 62
7
  6
CONTINUOUS
 66
1
 70
0
  0
VERTEX
  8
0
 62
7
  6
CONTINUOUS
 10
128.3667139061
 20
93.6977035142
  0
VERTEX
  8
0
 62
7
  6
CONTINUOUS
 10
128.3569998352
 20
93.7959667382
  0
VERTEX
  8
0
 62
7
  6
CONTINUOUS
 10
128.2940062818
 20
93.9579236548
  0
VERTEX
  8
0
 62
7
  6
CONTINUOUS
 10
128.1893719002
 20
94.0807828139
  0
VERTEX
  8
0
 62
7
  6
CONTINUOUS
 10
128.0665577299
 20
94.1582604308
  0
VERTEX
  8
0
 62
7
  6
CONTINUOUS
 10
128.0051806101
 20
94.1815413678
  0
SEQEND
  0
LINE
  8
0
 62
7
  6
CONTINUOUS
 10
128.3667138023
 20
93.69776311
 11
128.3667138023
 21
87.0874628115
  0
LINE
  8
0
 62
7
  6
CONTINUOUS
 10
147.7301662262
 20
93.6893521348
 11
147.7301662262
 21
87.0958737868
  0
POLYLINE
  8
0
 62
7
  6
CONTINUOUS
 66
1
 70
0
  0
VERTEX
  8
0
 62
7
  6
CONTINUOUS
 10
147.7301660547
 20
93.6892521085
  0
VERTEX
  8
0
 62
7
  6
CONTINUOUS
 10
147.7296620115
 20
93.6667872448
  0
VERTEX
  8
0
 62
7
  6
CONTINUOUS
 10
147.7133810372
 20
93.8178390677
  0
VERTEX
  8
0
 62
7
  6
CONTINUOUS
 10
147.6555085024
 20
93.9523801435
  0
VERTEX
  8
0
 62
7
  6
CONTINUOUS
 10
147.5682438397
 20
94.0581603044
  0
VERTEX
  8
0
 62
7
  6
CONTINUOUS
 10
147.5186223214
 20
94.0983578509
  0
VERTEX
  8
0
 62
7
  6
CONTINUOUS
 10
147.4173269801
 20
94.1542181582
  0
VERTEX
  8
0
 62
7
  6
CONTINUOUS
 10
147.3255272783
 20
94.1830802259
  0
VERTEX
  8
0
 62
7
  6
CONTINUOUS
 10
147.2446790466
 20
94.1976345674
  0
SEQEND
  0
LINE
  8
1_AXIS
 62
7
  6
CONTINUOUS
 10
152.8169143876
 20
100.8926129608
 11
152.8169143876
 21
95.3926129608
  0
LINE
  8
1_AXIS
 62
7
  6
CONTINUOUS
 10
152.8169143876
 20
85.3926129608
 11
152.8169143876
 21
79.8926129608
  0
POLYLINE
  8
0
 62
7
  6
CONTINUOUS
 66
1
 70
0
  0
VERTEX
  8
0
 62
7
  6
CONTINUOUS
 10
160.9866812921
 20
93.683477084
  0
VERTEX
  8
0
 62
7
  6
CONTINUOUS
 10
160.9861166604
 20
93.7072324138
  0
VERTEX
  8
0
 62
7
  6
CONTINUOUS
 10
160.9788015985
 20
93.7718949387
  0
VERTEX
  8
0
 62
7
  6
CONTINUOUS
 10
160.9634614893
 20
93.834079242
  0
VERTEX
  8
0
 62
7
  6
CONTINUOUS
 10
160.9408064002
 20
93.892692619
  0
VERTEX
  8
0
 62
7
  6
CONTINUOUS
 10
160.9117145662
 20
93.9468171414
  0
VERTEX
  8
0
 62
7
  6
CONTINUOUS
 10
160.877190536
 20
93.9957341072
  0
VERTEX
  8
0
 62
7
  6
CONTINUOUS
 10
160.8383205717
 20
94.0389381039
  0
VERTEX
  8
0
 62
7
  6
CONTINUOUS
 10
160.7962294729
 20
94.0761393452
  0
VERTEX
  8
0
 62
7
  6
CONTINUOUS
 10
160.7520371618
 20
94.1072592435
  0
VERTEX
  8
0
 62
7
  6
CONTINUOUS
 10
160.7068217954
 20
94.1324148404
  0
VERTEX
  8
0
 62
7
  6
CONTINUOUS
 10
160.6616037993
 20
94.1518915387
  0
VERTEX
  8
0
 62
7
  6
CONTINUOUS
 10
160.617326155
 20
94.1661236905
  0
VERTEX
  8
0
 62
7
  6
CONTINUOUS
 10
160.5760450223
 20
94.175458004
  0
VERTEX
  8
0
 62
7
  6
CONTINUOUS
 10
160.5465749041
 20
94.1799604817
  0
VERTEX
  8
0
 62
7
  6
CONTINUOUS
 10
160.5303969531
 20
94.181800759
  0
VERTEX
  8
0
 62
7
  6
CONTINUOUS
 10
160.5132117753
 20
94.1835364637
  0
VERTEX
  8
0
 62
7
  6
CONTINUOUS
 10
160.4603016285
 20
94.1885329881
  0
SEQEND
  0
LINE
  8
0
 62
7
  6
CONTINUOUS
 10
159.0337639392
 20
93.684434115
 11
159.0337639392
 21
87.1007918066
  0
LINE
  8
0
 62
7
  6
CONTINUOUS
 10
160.9866862312
 20
93.6835732033
 11
160.9866862312
 21
87.1016527182
  0
POLYLINE
  8
0
 62
7
  6
CONTINUOUS
 66
1
 70
0
  0
VERTEX
  8
0
 62
7
  6
CONTINUOUS
 10
159.0337640341
 20
93.684326099
  0
VERTEX
  8
0
 62
7
  6
CONTINUOUS
 10
159.0179787723
 20
93.8089899023
  0
VERTEX
  8
0
 62
7
  6
CONTINUOUS
 10
158.9784108246
 20
93.9130351353
  0
VERTEX
  8
0
 62
7
  6
CONTINUOUS
 10
158.9196711505
 20
94.0023170521
  0
VERTEX
  8
0
 62
7
  6
CONTINUOUS
 10
158.8474035214
 20
94.0738282272
  0
VERTEX
  8
0
 62
7
  6
CONTINUOUS
 10
158.7676256441
 20
94.1264334166
  0
VERTEX
  8
0
 62
7
  6
CONTINUOUS
 10
158.6865916852
 20
94.1607145295
  0
VERTEX
  8
0
 62
7
  6
CONTINUOUS
 10
158.6186725937
 20
94.1778446143
  0
SEQEND
  0
ARC
  8
0
 62
7
  6
CONTINUOUS
 10
53.8153817195
 20
158.8575560024
 40
6.2
 50
104.5147783931
 51
111.838
  0
ARC
  8
0
 62
7
  6
CONTINUOUS
 10
53.8153817195
 20
158.8575560024
 40
6.2
 50
88.058871156
 51
102.5279766092
  0
ARC
  8
0
 62
7
  6
CONTINUOUS
 10
56.950287922
 20
155.3758899411
 40
6.2
 50
341.4720233908
 51
355.941128844
  0
ARC
  8
0
 62
7
  6
CONTINUOUS
 10
56.950287922
 20
155.3758899411
 40
6.2
 50
332.162
 51
339.4852216069
  0
ARC
  8
0
 62
7
  6
CONTINUOUS
 10
53.9576466768
 20
163.0551458682
 40
2.0
 50
36.6723979408
 51
88.058871156
  0
ARC
  8
0
 62
7
  6
CONTINUOUS
 10
61.1397536887
 20
155.078607938
 40
2.0
 50
355.941128844
 51
47.3276020592
  0
ARC
  8
0
 62
7
  6
CONTINUOUS
 10
50.0588404847
 20
164.8933145892
 40
0.8
 50
213.0354765661
 51
291.838
  0
ARC
  8
0
 62
7
  6
CONTINUOUS
 10
67.6969419588
 20
147.2770420229
 40
0.8
 50
237.0354765661
 51
315.838
  0
ARC
  8
0
 62
7
  6
CONTINUOUS
 10
62.5603165092
 20
151.0090188624
 40
0.8
 50
152.162
 51
230.9645234339
  0
ARC
  8
0
 62
7
  6
CONTINUOUS
 10
42.0876235642
 20
181.1187797446
 40
6.2
 50
80.5147783931
 51
87.838
  0
ARC
  8
0
 62
7
  6
CONTINUOUS
 10
42.0876235642
 20
181.1187797446
 40
6.2
 50
64.058871156
 51
78.5279766092
  0
ARC
  8
0
 62
7
  6
CONTINUOUS
 10
43.5353817195
 20
176.6630383042
 40
6.2
 50
317.4720233908
 51
331.941128844
  0
ARC
  8
0
 62
7
  6
CONTINUOUS
 10
43.5353817195
 20
176.6630383042
 40
6.2
 50
308.162
 51
315.4852216069
  0
ARC
  8
0
 62
7
  6
CONTINUOUS
 10
43.9249026808
 20
184.8956045284
 40
2.0
 50
12.6723979408
 51
64.058871156
  0
ARC
  8
0
 62
7
  6
CONTINUOUS
 10
47.2417336567
 20
174.6874484383
 40
2.0
 50
331.941128844
 51
23.3276020592
  0
ARC
  8
0
 62
7
  6
CONTINUOUS
 10
41.1108165687
 20
188.1606425564
 40
0.8
 50
189.0354765661
 51
267.838
  0
ARC
  8
0
 62
7
  6
CONTINUOUS
 10
40.4471425441
 20
194.4750791052
 40
0.8
 50
104.162
 51
182.9645234339
  0
ARC
  8
0
 62
7
  6
CONTINUOUS
 10
46.8842313694
 20
170.391898871
 40
0.8
 50
128.162
 51
206.9645234339
  0
ARC
  8
0
 62
7
  6
CONTINUOUS
 10
73.5836773263
 20
143.291025154
 40
6.2
 50
128.5147783931
 51
135.838
  0
ARC
  8
0
 62
7
  6
CONTINUOUS
 10
73.5836773263
 20
143.291025154
 40
6.2
 50
112.058871156
 51
126.5279766092
  0
ARC
  8
0
 62
7
  6
CONTINUOUS
 10
97.9743924848
 20
137.1107818006
 40
6.2
 50
152.5147783931
 51
159.838
  0
ARC
  8
0
 62
7
  6
CONTINUOUS
 10
97.9743924848
 20
137.1107818006
 40
6.2
 50
136.058871156
 51
150.5279766092
  0
ARC
  8
0
 62
7
  6
CONTINUOUS
 10
77.8636778138
 20
141.3854461638
 40
6.2
 50
5.4720233908
 51
19.941128844
  0
ARC
  8
0
 62
7
  6
CONTINUOUS
 10
77.8636778138
 20
141.3854461638
 40
6.2
 50
356.162
 51
3.4852216069
  0
ARC
  8
0
 62
7
  6
CONTINUOUS
 10
72.0063292208
 20
147.1835786801
 40
2.0
 50
60.6723979408
 51
112.058871156
  0
ARC
  8
0
 62
7
  6
CONTINUOUS
 10
94.9501691337
 20
140.0252411197
 40
2.0
 50
84.6723979408
 51
136.058871156
  0
ARC
  8
0
 62
7
  6
CONTINUOUS
 10
81.8118607189
 20
142.8178747825
 40
2.0
 50
19.941128844
 51
71.3276020592
  0
ARC
  8
0
 62
7
  6
CONTINUOUS
 10
90.9753330089
 20
138.3578384233
 40
0.8
 50
261.0354765661
 51
339.838
  0
ARC
  8
0
 62
7
  6
CONTINUOUS
 10
84.7648604302
 20
139.6779151209
 40
0.8
 50
176.162
 51
254.9645234339
  0
ARC
  8
0
 62
7
  6
CONTINUOUS
 10
40.4282387888
 20
206.2255285587
 40
6.2
 50
56.5147783931
 51
63.838
  0
ARC
  8
0
 62
7
  6
CONTINUOUS
 10
40.4282387888
 20
206.2255285587
 40
6.2
 50
40.058871156
 51
54.5279766092
  0
ARC
  8
0
 62
7
  6
CONTINUOUS
 10
46.7816281931
 20
225.7792505338
 40
6.2
 50
269.4720233908
 51
283.941128844
  0
ARC
  8
0
 62
7
  6
CONTINUOUS
 10
46.7816281931
 20
225.7792505338
 40
6.2
 50
260.162
 51
267.4852216069
  0
ARC
  8
0
 62
7
  6
CONTINUOUS
 10
39.9385183594
 20
201.5661499133
 40
6.2
 50
293.4720233908
 51
307.941128844
  0
ARC
  8
0
 62
7
  6
CONTINUOUS
 10
39.9385183594
 20
201.5661499133
 40
6.2
 50
284.162
 51
291.4852216069
  0
ARC
  8
0
 62
7
  6
CONTINUOUS
 10
43.6428498142
 20
208.9285409441
 40
2.0
 50
348.6723979408
 51
40.058871156
  0
ARC
  8
0
 62
7
  6
CONTINUOUS
 10
47.7935123261
 20
221.7029666254
 40
2.0
 50
283.941128844
 51
335.3276020592
  0
ARC
  8
0
 62
7
  6
CONTINUOUS
 10
42.5208945459
 20
198.2538496203
 40
2.0
 50
307.941128844
 51
359.3276020592
  0
ARC
  8
0
 62
7
  6
CONTINUOUS
 10
42.4000648361
 20
213.0558935422
 40
0.8
 50
165.0354765661
 51
243.838
  0
ARC
  8
0
 62
7
  6
CONTINUOUS
 10
44.3620811703
 20
219.0943589137
 40
0.8
 50
80.162
 51
158.9645234339
  0
ARC
  8
0
 62
7
  6
CONTINUOUS
 10
66.6717554208
 20
247.8694747543
 40
6.2
 50
8.5147783931
 51
15.838
  0
ARC
  8
0
 62
7
  6
CONTINUOUS
 10
66.6717554208
 20
247.8694747543
 40
6.2
 50
352.058871156
 51
6.5279766092
  0
ARC
  8
0
 62
7
  6
CONTINUOUS
 10
49.1241500959
 20
229.8366174872
 40
6.2
 50
32.5147783931
 51
39.838
  0
ARC
  8
0
 62
7
  6
CONTINUOUS
 10
49.1241500959
 20
229.8366174872
 40
6.2
 50
16.058871156
 51
30.5279766092
  0
ARC
  8
0
 62
7
  6
CONTINUOUS
 10
62.8814753627
 20
245.1156750991
 40
6.2
 50
245.4720233908
 51
259.941128844
  0
ARC
  8
0
 62
7
  6
CONTINUOUS
 10
62.8814753627
 20
245.1156750991
 40
6.2
 50
236.162
 51
243.4852216069
  0
ARC
  8
0
 62
7
  6
CONTINUOUS
 10
53.1602575801
 20
230.9984420765
 40
2.0
 50
324.6723979408
 51
16.058871156
  0
ARC
  8
0
 62
7
  6
CONTINUOUS
 10
62.1479034829
 20
240.9802340951
 40
2.0
 50
259.941128844
 51
311.3276020592
  0
ARC
  8
0
 62
7
  6
CONTINUOUS
 10
53.703662549
 20
235.2744524847
 40
0.8
 50
141.0354765661
 51
219.838
  0
ARC
  8
0
 62
7
  6
CONTINUOUS
 10
57.9521187936
 20
239.9928411585
 40
0.8
 50
56.162
 51
134.9645234339
  0
ARC
  8
0
 62
7
  6
CONTINUOUS
 10
74.8610702649
 20
197.5755499405
 40
4.0
 50
75.0
 51
268.8461538462
  0
ARC
  8
0
 62
7
  6
CONTINUOUS
 10
90.0369143876
 20
257.2060555151
 40
6.2
 50
344.5147783931
 51
351.838
  0
ARC
  8
0
 62
7
  6
CONTINUOUS
 10
90.0369143876
 20
257.2060555151
 40
6.2
 50
328.058871156
 51
342.5279766092
  0
ARC
  8
0
 62
7
  6
CONTINUOUS
 10
85.4542500299
 20
256.231980136
 40
6.2
 50
221.4720233908
 51
235.941128844
  0
ARC
  8
0
 62
7
  6
CONTINUOUS
 10
85.4542500299
 20
256.2319801359
 40
6.2
 50
212.162
 51
219.4852216069
  0
ARC
  8
0
 62
7
  6
CONTINUOUS
 10
93.6010013675
 20
254.9840555151
 40
2.0
 50
276.6723979408
 51
328.058871156
  0
ARC
  8
0
 62
7
  6
CONTINUOUS
 10
70.8314797128
 20
247.2892215212
 40
2.0
 50
300.6723979408
 51
352.058871156
  0
ARC
  8
0
 62
7
  6
CONTINUOUS
 10
83.1020633797
 20
252.7524373553
 40
2.0
 50
235.941128844
 51
287.3276020592
  0
ARC
  8
0
 62
7
  6
CONTINUOUS
 10
97.1423052723
 20
257.4414363615
 40
0.8
 50
93.0354765661
 51
171.838
  0
ARC
  8
0
 62
7
  6
CONTINUOUS
 10
73.067114973
 20
250.9745286935
 40
0.8
 50
117.0354765661
 51
195.838
  0
ARC
  8
0
 62
7
  6
CONTINUOUS
 10
78.8674144471
 20
253.5569884028
 40
0.8
 50
32.162
 51
110.9645234339
  0
ARC
  8
0
 62
7
  6
CONTINUOUS
 10
122.7701509615
 20
141.3854461638
 40
6.2
 50
176.5147783931
 51
183.838
  0
ARC
  8
0
 62
7
  6
CONTINUOUS
 10
122.7701509615
 20
141.3854461638
 40
6.2
 50
160.058871156
 51
174.5279766092
  0
ARC
  8
0
 62
7
  6
CONTINUOUS
 10
102.6594362904
 20
137.1107818006
 40
6.2
 50
29.4720233908
 51
43.941128844
  0
ARC
  8
0
 62
7
  6
CONTINUOUS
 10
102.6594362904
 20
137.1107818006
 40
6.2
 50
20.162
 51
27.4852216069
  0
ARC
  8
0
 62
7
  6
CONTINUOUS
 10
127.0501514489
 20
143.291025154
 40
6.2
 50
53.4720233908
 51
67.941128844
  0
ARC
  8
0
 62
7
  6
CONTINUOUS
 10
127.0501514489
 20
143.291025154
 40
6.2
 50
44.162
 51
51.4852216069
  0
ARC
  8
0
 62
7
  6
CONTINUOUS
 10
118.8219680564
 20
142.8178747825
 40
2.0
 50
108.6723979408
 51
160.058871156
  0
ARC
  8
0
 62
7
  6
CONTINUOUS
 10
105.6836596416
 20
140.0252411197
 40
2.0
 50
43.941128844
 51
95.3276020592
  0
ARC
  8
0
 62
7
  6
CONTINUOUS
 10
128.6274995545
 20
147.1835786801
 40
2.0
 50
67.941128844
 51
119.3276020592
  0
ARC
  8
0
 62
7
  6
CONTINUOUS
 10
115.8689683451
 20
139.6779151209
 40
0.8
 50
285.0354765661
 51
3.838
  0
ARC
  8
0
 62
7
  6
CONTINUOUS
 10
109.6584957663
 20
138.3578384233
 40
0.8
 50
200.162
 51
278.9645234339
  0
ARC
  8
0
 62
7
  6
CONTINUOUS
 10
100.3169143876
 20
172.1197058178
 40
4.0
 50
165.0
 51
358.8461538462
  0
ARC
  8
0
 62
7
  6
CONTINUOUS
 10
146.8184470557
 20
158.8575560024
 40
6.2
 50
68.162
 51
75.4852216069
  0
ARC
  8
0
 62
7
  6
CONTINUOUS
 10
146.8184470557
 20
158.8575560024
 40
6.2
 50
77.4720233908
 51
91.941128844
  0
ARC
  8
0
 62
7
  6
CONTINUOUS
 10
143.6835408533
 20
155.3758899411
 40
6.2
 50
200.5147783931
 51
207.838
  0
ARC
  8
0
 62
7
  6
CONTINUOUS
 10
143.6835408533
 20
155.3758899411
 40
6.2
 50
184.058871156
 51
198.5279766092
  0
ARC
  8
0
 62
7
  6
CONTINUOUS
 10
146.6761820984
 20
163.0551458682
 40
2.0
 50
91.941128844
 51
143.3276020592
  0
ARC
  8
0
 62
7
  6
CONTINUOUS
 10
139.4940750866
 20
155.078607938
 40
2.0
 50
132.6723979408
 51
184.058871156
  0
ARC
  8
0
 62
7
  6
CONTINUOUS
 10
150.5749882906
 20
164.8933145892
 40
0.8
 50
248.162
 51
326.9645234339
  0
ARC
  8
0
 62
7
  6
CONTINUOUS
 10
138.073512266
 20
151.0090188624
 40
0.8
 50
309.0354765661
 51
27.838
  0
ARC
  8
0
 62
7
  6
CONTINUOUS
 10
132.9368868165
 20
147.2770420229
 40
0.8
 50
224.162
 51
302.9645234339
  0
ARC
  8
0
 62
7
  6
CONTINUOUS
 10
158.546205211
 20
181.1187797446
 40
6.2
 50
92.162
 51
99.4852216069
  0
ARC
  8
0
 62
7
  6
CONTINUOUS
 10
158.546205211
 20
181.1187797446
 40
6.2
 50
101.4720233908
 51
115.941128844
  0
ARC
  8
0
 62
7
  6
CONTINUOUS
 10
157.0984470557
 20
176.6630383042
 40
6.2
 50
208.058871156
 51
222.5279766092
  0
ARC
  8
0
 62
7
  6
CONTINUOUS
 10
157.0984470557
 20
176.6630383042
 40
6.2
 50
224.5147783931
 51
231.838
  0
ARC
  8
0
 62
7
  6
CONTINUOUS
 10
156.7089260945
 20
184.8956045284
 40
2.0
 50
115.941128844
 51
167.3276020592
  0
ARC
  8
0
 62
7
  6
CONTINUOUS
 10
153.3920951186
 20
174.6874484383
 40
2.0
 50
156.6723979408
 51
208.058871156
  0
ARC
  8
0
 62
7
  6
CONTINUOUS
 10
159.5230122066
 20
188.1606425564
 40
0.8
 50
272.162
 51
350.9645234339
  0
ARC
  8
0
 62
7
  6
CONTINUOUS
 10
160.1866862312
 20
194.4750791052
 40
0.8
 50
357.0354765661
 51
75.838
  0
ARC
  8
0
 62
7
  6
CONTINUOUS
 10
153.7495974059
 20
170.391898871
 40
0.8
 50
333.0354765661
 51
51.838
  0
ARC
  8
0
 62
7
  6
CONTINUOUS
 10
100.3169143876
 20
197.5755499405
 40
55.8
 50
96.6723979408
 51
107.3276020592
  0
ARC
  8
0
 62
7
  6
CONTINUOUS
 10
100.3169143876
 20
197.5755499405
 40
55.8
 50
72.6723979408
 51
83.3276020592
  0
ARC
  8
0
 62
7
  6
CONTINUOUS
 10
100.3169143876
 20
197.5755499405
 40
55.8
 50
120.6723979408
 51
131.3276020592
  0
ARC
  8
0
 62
7
  6
CONTINUOUS
 10
100.3169143876
 20
197.5755499405
 40
55.8
 50
144.6723979408
 51
155.3276020592
  0
ARC
  8
0
 62
7
  6
CONTINUOUS
 10
100.3169143876
 20
197.5755499405
 40
55.8
 50
168.6723979408
 51
179.3276020592
  0
ARC
  8
0
 62
7
  6
CONTINUOUS
 10
100.3169143876
 20
197.5755499405
 40
55.8
 50
192.6723979408
 51
203.3276020592
  0
ARC
  8
0
 62
7
  6
CONTINUOUS
 10
100.3169143876
 20
197.5755499405
 40
55.8
 50
48.6723979408
 51
59.3276020592
  0
ARC
  8
0
 62
7
  6
CONTINUOUS
 10
100.3169143876
 20
197.5755499405
 40
55.8
 50
216.6723979408
 51
227.3276020592
  0
ARC
  8
0
 62
7
  6
CONTINUOUS
 10
100.3169143876
 20
197.5755499405
 40
55.8
 50
240.6723979408
 51
251.3276020592
  0
ARC
  8
0
 62
7
  6
CONTINUOUS
 10
100.3169143876
 20
197.5755499405
 40
55.8
 50
24.6723979408
 51
35.3276020592
  0
ARC
  8
0
 62
7
  6
CONTINUOUS
 10
100.3169143876
 20
197.5755499405
 40
55.8
 50
264.6723979408
 51
275.3276020592
  0
ARC
  8
0
 62
7
  6
CONTINUOUS
 10
100.3169143876
 20
197.5755499405
 40
55.8
 50
288.6723979408
 51
299.3276020592
  0
ARC
  8
0
 62
7
  6
CONTINUOUS
 10
100.3169143876
 20
197.5755499405
 40
55.8
 50
0.6723979408
 51
11.3276020592
  0
ARC
  8
0
 62
7
  6
CONTINUOUS
 10
100.3169143876
 20
197.5755499405
 40
55.8
 50
312.6723979408
 51
323.3276020592
  0
ARC
  8
0
 62
7
  6
CONTINUOUS
 10
100.3169143876
 20
197.5755499405
 40
55.8
 50
336.6723979408
 51
347.3276020592
  0
CIRCLE
  8
1_AXIS
 62
7
  6
CONTINUOUS
 10
100.3169143876
 20
197.5755499405
 40
52.5
  0
ARC
  8
0
 62
7
  6
CONTINUOUS
 10
100.3169143876
 20
223.0313940633
 40
4.0
 50
345.0
 51
178.8461538462
  0
ARC
  8
0
 62
7
  6
CONTINUOUS
 10
125.7727585103
 20
197.5755499405
 40
4.0
 50
255.0
 51
88.8461538462
  0
ARC
  8
0
 62
7
  6
CONTINUOUS
 10
110.5969143876
 20
257.2060555151
 40
6.2
 50
197.4720233908
 51
211.941128844
  0
ARC
  8
0
 62
7
  6
CONTINUOUS
 10
110.5969143876
 20
257.2060555151
 40
6.2
 50
188.162
 51
195.4852216069
  0
ARC
  8
0
 62
7
  6
CONTINUOUS
 10
115.1795787454
 20
256.231980136
 40
6.2
 50
304.058871156
 51
318.5279766092
  0
ARC
  8
0
 62
7
  6
CONTINUOUS
 10
115.1795787454
 20
256.2319801359
 40
6.2
 50
320.5147783931
 51
327.838
  0
ARC
  8
0
 62
7
  6
CONTINUOUS
 10
107.0328274078
 20
254.9840555151
 40
2.0
 50
211.941128844
 51
263.3276020592
  0
ARC
  8
0
 62
7
  6
CONTINUOUS
 10
129.8023490625
 20
247.2892215212
 40
2.0
 50
187.941128844
 51
239.3276020592
  0
ARC
  8
0
 62
7
  6
CONTINUOUS
 10
117.5317653956
 20
252.7524373553
 40
2.0
 50
252.6723979408
 51
304.058871156
  0
ARC
  8
0
 62
7
  6
CONTINUOUS
 10
103.4915235029
 20
257.4414363615
 40
0.8
 50
8.162
 51
86.9645234339
  0
ARC
  8
0
 62
7
  6
CONTINUOUS
 10
127.5667138023
 20
250.9745286935
 40
0.8
 50
344.162
 51
62.9645234339
  0
ARC
  8
0
 62
7
  6
CONTINUOUS
 10
121.7664143282
 20
253.5569884028
 40
0.8
 50
69.0354765661
 51
147.838
  0
ARC
  8
0
 62
7
  6
CONTINUOUS
 10
160.2055899865
 20
206.2255285587
 40
6.2
 50
116.162
 51
123.4852216069
  0
ARC
  8
0
 62
7
  6
CONTINUOUS
 10
160.2055899865
 20
206.2255285587
 40
6.2
 50
125.4720233908
 51
139.941128844
  0
ARC
  8
0
 62
7
  6
CONTINUOUS
 10
153.8522005821
 20
225.7792505338
 40
6.2
 50
256.058871156
 51
270.5279766092
  0
ARC
  8
0
 62
7
  6
CONTINUOUS
 10
153.8522005821
 20
225.7792505338
 40
6.2
 50
272.5147783931
 51
279.838
  0
ARC
  8
0
 62
7
  6
CONTINUOUS
 10
160.6953104158
 20
201.5661499133
 40
6.2
 50
232.058871156
 51
246.5279766092
  0
ARC
  8
0
 62
7
  6
CONTINUOUS
 10
160.6953104158
 20
201.5661499133
 40
6.2
 50
248.5147783931
 51
255.838
  0
ARC
  8
0
 62
7
  6
CONTINUOUS
 10
156.9909789611
 20
208.9285409441
 40
2.0
 50
139.941128844
 51
191.3276020592
  0
ARC
  8
0
 62
7
  6
CONTINUOUS
 10
152.8403164491
 20
221.7029666254
 40
2.0
 50
204.6723979408
 51
256.058871156
  0
ARC
  8
0
 62
7
  6
CONTINUOUS
 10
158.1129342294
 20
198.2538496203
 40
2.0
 50
180.6723979408
 51
232.058871156
  0
ARC
  8
0
 62
7
  6
CONTINUOUS
 10
158.2337639392
 20
213.0558935422
 40
0.8
 50
296.162
 51
14.9645234339
  0
ARC
  8
0
 62
7
  6
CONTINUOUS
 10
156.2717476049
 20
219.0943589137
 40
0.8
 50
21.0354765661
 51
99.838
  0
ARC
  8
0
 62
7
  6
CONTINUOUS
 10
133.9620733545
 20
247.8694747543
 40
6.2
 50
164.162
 51
171.4852216069
  0
ARC
  8
0
 62
7
  6
CONTINUOUS
 10
133.9620733545
 20
247.8694747543
 40
6.2
 50
173.4720233908
 51
187.941128844
  0
ARC
  8
0
 62
7
  6
CONTINUOUS
 10
151.5096786793
 20
229.8366174872
 40
6.2
 50
140.162
 51
147.4852216069
  0
ARC
  8
0
 62
7
  6
CONTINUOUS
 10
151.5096786793
 20
229.8366174872
 40
6.2
 50
149.4720233908
 51
163.941128844
  0
ARC
  8
0
 62
7
  6
CONTINUOUS
 10
137.7523534126
 20
245.1156750991
 40
6.2
 50
280.058871156
 51
294.5279766092
  0
ARC
  8
0
 62
7
  6
CONTINUOUS
 10
137.7523534126
 20
245.1156750991
 40
6.2
 50
296.5147783931
 51
303.838
  0
ARC
  8
0
 62
7
  6
CONTINUOUS
 10
147.4735711952
 20
230.9984420765
 40
2.0
 50
163.941128844
 51
215.3276020592
  0
ARC
  8
0
 62
7
  6
CONTINUOUS
 10
138.4859252923
 20
240.9802340951
 40
2.0
 50
228.6723979408
 51
280.058871156
  0
ARC
  8
0
 62
7
  6
CONTINUOUS
 10
146.9301662262
 20
235.2744524847
 40
0.8
 50
320.162
 51
38.9645234339
  0
ARC
  8
0
 62
7
  6
CONTINUOUS
 10
142.6817099817
 20
239.9928411585
 40
0.8
 50
45.0354765661
 51
123.838
  0
ARC
  8
1_AXIS
 62
7
  6
CONTINUOUS
 10
150.8169143876
 20
100.8926129608
 40
2.0
 50
0.0
 51
90.0
  0
ARC
  8
1_AXIS
 62
7
  6
CONTINUOUS
 10
150.8169143876
 20
79.8926129608
 40
2.0
 50
270.0
 51
360.0
  0
ARC
  8
1_AXIS
 62
7
  6
CONTINUOUS
 10
49.8169143876
 20
100.8926129608
 40
2.0
 50
90.0
 51
180.0
  0
ARC
  8
1_AXIS
 62
7
  6
CONTINUOUS
 10
49.8169143876
 20
79.8926129608
 40
2.0
 50
180.0
 51
270.0
  0
ARC
  8
1_AXIS
 62
7
  6
CONTINUOUS
 10
153.8169143876
 20
95.3926129608
 40
1.0
 50
180.0
 51
270.0
  0
ARC
  8
1_AXIS
 62
7
  6
CONTINUOUS
 10
153.8169143876
 20
85.3926129608
 40
1.0
 50
90.0
 51
180.0
  0
ARC
  8
1_AXIS
 62
7
  6
CONTINUOUS
 10
46.8169143876
 20
95.3926129608
 40
1.0
 50
270.0
 51
360.0
  0
ARC
  8
1_AXIS
 62
7
  6
CONTINUOUS
 10
46.8169143876
 20
85.3926129608
 40
1.0
 50
0.0
 51
90.0
  0
ENDSEC
  0
EOF
