  0
SECTION
  2
HEADER
  9
$EXTMAX
 10
210.0
 20
297.0
 30
0.0
  9
$EXTMIN
 10
0.0
 20
0.0
 30
0.0
  9
$LIMMIN
 10
0.0
 20
0.0
  9
$LIMMAX
 10
210.0
 20
297.0
  9
$VIEWCTR
 10
105.0
 20
148.5
  9
$VIEWSIZE
 40
297.0
  9
$CLAYER
  8
0
  9
$LTSCALE
 40
19.36
  9
$CELTYPE
  6
BYLAYER
  9
$DIMSCALE
 40
1.0
  9
$DIMASZ
 40
3.5
  9
$DIMEXO
 40
1.0
  9
$DIMDLI
 40
13.376
  9
$DIMEXE
 40
2.0
  9
$DIMCEN
 40
3.168
  9
$DIMLFAC
 40
1.0
  9
$DIMBLK
  1
_FILLED
  9
$DIMALT
 70
0
  9
$DIMALTF
 40
0.0393700787
  9
$DIMTXT
 40
3.5
  9
$AUNITS
 70
0
  9
$PDMODE
 70
3
  9
$PDSIZE
 40
0.3125
  9
$TILEMODE
 70
1
  0
ENDSEC
  0
SECTION
  2
TABLES
  0
TABLE
  2
LTYPE
 70
6
  0
LTYPE
  2
BYBLOCK
 70
0
  3

 72
65
 73
0
 40
0.0
  0
LTYPE
  2
BYLAYER
 70
0
  3

 72
65
 73
0
 40
0.0
  0
LTYPE
  2
CONTINUOUS
 70
64
  3
Solid line
 72
65
 73
0
 40
0.0
  0
LTYPE
  2
CENTER
 70
64
  3
____ _ ____ _ ____ _ ____ _ ____ _ ____ _ ____
 72
65
 73
4
 40
0.6
 49
0.375
 49
-0.075
 49
0.075
 49
-0.075
  0
LTYPE
  2
HIDDEN
 70
64
  3
- - - - - - - - - - - - - - - - - - - -
 72
65
 73
2
 40
0.2
 49
0.1
 49
-0.1
  0
LTYPE
  2
PHANTOM
 70
64
  3
_____ _ _ _____ _ _ _____ _ _ _____
 72
65
 73
6
 40
0.8
 49
0.45
 49
-0.05
 49
0.1
 49
-0.05
 49
0.1
 49
-0.05
  0
LTYPE
  2
DOT
 70
64
  3
. . . . . . . . . . . . . . . . . . . .
 72
65
 73
2
 40
0.2
 49
0.1
 49
-0.1
  0
LTYPE
  2
DASHED
 70
64
  3
- - - - - - - - - - - - - - - - - - - -
 72
65
 73
2
 40
0.2
 49
0.1
 49
-0.1
  0
ENDTAB
  0
TABLE
  2
LAYER
 70
36
  0
LAYER
  2
0
 70
0
 62
7
  6
CONTINUOUS
  0
LAYER
  2
DEFAULT_1
 70
0
 62
7
  6
CENTER
  0
LAYER
  2
DEFAULT_2
 70
0
 62
8
  6
HIDDEN
  0
LAYER
  2
DEFAULT_3
 70
0
 62
7
  6
PHANTOM
  0
LAYER
  2
1_AXIS
 70
0
 62
7
  6
CONTINUOUS
  0
LAYER
  2
1_CSYS
 70
0
 62
7
  6
CONTINUOUS
  0
LAYER
  2
1_DATUM_PLANE
 70
0
 62
7
  6
CONTINUOUS
  0
LAYER
  2
2_FEATURE
 70
0
 62
7
  6
CONTINUOUS
  0
LAYER
  2
6_DIM
 70
0
 62
7
  6
CONTINUOUS
  0
LAYER
  2
AXES
 70
0
 62
7
  6
CONTINUOUS
  0
LAYER
  2
CSYS
 70
0
 62
7
  6
CONTINUOUS
  0
LAYER
  2
PITCH
 70
0
 62
7
  6
CONTINUOUS
  0
LAYER
  2
PLANES
 70
0
 62
7
  6
CONTINUOUS
  0
LAYER
  2
QUILTS
 70
0
 62
7
  6
CONTINUOUS
  0
LAYER
  2
SQ
 70
0
 62
7
  6
CONTINUOUS
  0
ENDTAB
  0
TABLE
  2
STYLE
 70
1
  0
STYLE
  2
STANDARD
 70
0
 40
0.0
 41
0.8
 50
0.0
 71
0
 42
0.2
  3
txt
  4

  0
STYLE
  2
TEXTSTYLE_1
 70
0
 40
0.0
 41
0.8
 50
0.0
 71
0
 42
0.2
  3
gdt
  4

  0
STYLE
  2
TEXTSTYLE_2
 70
0
 40
0.0
 41
0.6
 50
0.0
 71
0
 42
0.2
  3
txt
  4

  0
STYLE
  2
TEXTSTYLE_3
 70
0
 40
0.0
 41
1.0
 50
0.0
 71
0
 42
0.2
  3
ftb_____.ttf
  4

  0
STYLE
  2
TEXTSTYLE_4
 70
0
 40
0.0
 41
1.0
 50
0.0
 71
0
 42
0.2
  3
fti_____.ttf
  4

  0
STYLE
  2
TEXTSTYLE_5
 70
0
 40
0.0
 41
1.0
 50
0.0
 71
0
 42
0.2
  3
frutiger light.ttf
  4

  0
STYLE
  2
TEXTSTYLE_6
 70
0
 40
0.0
 41
0.7
 50
0.0
 71
0
 42
0.2
  3
txt
  4

  0
STYLE
  2
TEXTSTYLE_7
 70
0
 40
0.0
 41
0.6
 50
0.0
 71
0
 42
0.2
  3
txt
  4

  0
ENDTAB
  0
ENDSEC
  0
SECTION
  2
BLOCKS
  0
BLOCK
  8
0
 62
2
  6
CONTINUOUS
  2
UNI_LOGO2_BL1
 70
64
 10
173.5956734183
 20
35.5937998301
  0
TEXT
  8
0
 62
7
  6
CONTINUOUS
 10
164.6539584268
 20
30.6865562072
  7
TEXTSTYLE_4
 40
1.0655737705
  1
The brand for plastic modular belts and chains
 41
1.0
 72
0
  0
LINE
  8
0
 62
7
  6
CONTINUOUS
 10
149.5737418074
 20
36.1675703219
 11
149.5737418074
 21
34.0364227809
  0
LINE
  8
0
 62
7
  6
CONTINUOUS
 10
149.8628043005
 20
31.0454914852
 11
149.8628043005
 21
31.1422825445
  0
LINE
  8
0
 62
7
  6
CONTINUOUS
 10
149.5737418074
 20
31.1100188581
 11
149.6315543091
 21
30.9164367395
  0
LINE
  8
0
 62
7
  6
CONTINUOUS
 10
150.9671844304
 20
33.9544555678
 11
150.9671844304
 21
36.1675703219
  0
LINE
  8
0
 62
7
  6
CONTINUOUS
 10
151.8862417523
 20
32.1101932727
 11
151.8862417523
 21
30.5937998301
  0
LINE
  8
0
 62
7
  6
CONTINUOUS
 10
152.1753043074
 20
30.5937998301
 11
152.1753043074
 21
31.3358647082
  0
LINE
  8
0
 62
7
  6
CONTINUOUS
 10
152.1753043074
 20
31.4649194539
 11
152.1753043074
 21
32.1101932727
  0
LINE
  8
0
 62
7
  6
CONTINUOUS
 10
149.6315543091
 20
31.3036010218
 11
149.5737418074
 21
31.1100188581
  0
LINE
  8
0
 62
7
  6
CONTINUOUS
 10
149.9784292936
 20
30.8841730531
 11
149.8628043005
 21
31.0454914852
  0
LINE
  8
0
 62
7
  6
CONTINUOUS
 10
151.0768668626
 20
31.400392081
 11
151.1346793074
 21
31.3036010218
  0
LINE
  8
0
 62
7
  6
CONTINUOUS
 10
151.4237418626
 20
31.3036010218
 11
151.3659292523
 21
31.4326557675
  0
LINE
  8
0
 62
7
  6
CONTINUOUS
 10
152.852430332
 20
36.1675703219
 11
152.852430332
 21
34.3642916334
  0
LINE
  8
0
 62
7
  6
CONTINUOUS
 10
152.852430332
 20
33.0528162235
 11
152.852430332
 21
32.3970785186
  0
LINE
  8
0
 62
7
  6
CONTINUOUS
 10
153.2159293074
 20
31.2390736489
 11
153.2159293074
 21
30.5937998301
  0
LINE
  8
0
 62
7
  6
CONTINUOUS
 10
153.5049916972
 20
30.5937998301
 11
153.5049916972
 21
31.2390736489
  0
LINE
  8
0
 62
7
  6
CONTINUOUS
 10
149.8628043005
 20
31.1422825445
 11
149.9206168074
 21
31.2713373354
  0
LINE
  8
0
 62
7
  6
CONTINUOUS
 10
149.6315543091
 20
30.9164367395
 11
149.7471793074
 21
30.7873819712
  0
LINE
  8
0
 62
7
  6
CONTINUOUS
 10
153.1581166972
 20
31.3681283946
 11
153.2159293074
 21
31.2390736489
  0
LINE
  8
0
 62
7
  6
CONTINUOUS
 10
153.9674919177
 20
30.8841730531
 11
154.0253041972
 21
30.7551182848
  0
LINE
  8
0
 62
7
  6
CONTINUOUS
 10
153.5049916972
 20
31.2390736489
 11
153.4471794177
 21
31.400392081
  0
LINE
  8
0
 62
7
  6
CONTINUOUS
 10
153.9674919177
 20
31.4326557675
 11
153.9674919177
 21
31.3681283946
  0
LINE
  8
0
 62
7
  6
CONTINUOUS
 10
153.9674919177
 20
30.9809641124
 11
153.9674919177
 21
30.8841730531
  0
LINE
  8
0
 62
7
  6
CONTINUOUS
 10
154.245872955
 20
32.3970785186
 11
154.245872955
 21
36.1675703219
  0
LINE
  8
0
 62
7
  6
CONTINUOUS
 10
154.2565543074
 20
30.8519093441
 11
154.2565543074
 21
30.9164367395
  0
LINE
  8
0
 62
7
  6
CONTINUOUS
 10
154.5737418074
 20
36.1675703219
 11
154.5737418074
 21
32.3970785186
  0
LINE
  8
0
 62
7
  6
CONTINUOUS
 10
151.3659292523
 20
30.7873819712
 11
151.4237418626
 21
30.9164367395
  0
LINE
  8
0
 62
7
  6
CONTINUOUS
 10
155.759679528
 20
30.6905909007
 11
155.7018665869
 21
30.8519093441
  0
LINE
  8
0
 62
7
  6
CONTINUOUS
 10
155.412804528
 20
31.3681283946
 11
155.412804528
 21
31.2713373354
  0
LINE
  8
0
 62
7
  6
CONTINUOUS
 10
155.412804528
 20
31.1422825445
 11
155.412804528
 21
30.9487004259
  0
LINE
  8
0
 62
7
  6
CONTINUOUS
 10
155.7018665869
 20
30.8519093441
 11
155.7018665869
 21
31.3681283946
  0
LINE
  8
0
 62
7
  6
CONTINUOUS
 10
155.9671844304
 20
32.3970785186
 11
155.9671844304
 21
34.2003572071
  0
LINE
  8
0
 62
7
  6
CONTINUOUS
 10
155.9671844304
 20
35.511832617
 11
155.9671844304
 21
36.1675703219
  0
LINE
  8
0
 62
7
  6
CONTINUOUS
 10
156.279992028
 20
32.1101932727
 11
156.279992028
 21
31.9488748406
  0
LINE
  8
0
 62
7
  6
CONTINUOUS
 10
156.279992028
 20
31.626237886
 11
156.279992028
 21
30.5937998301
  0
LINE
  8
0
 62
7
  6
CONTINUOUS
 10
156.5690540869
 20
30.5937998301
 11
156.5690540869
 21
31.626237886
  0
LINE
  8
0
 62
7
  6
CONTINUOUS
 10
156.5690540869
 20
31.9488748406
 11
156.5690540869
 21
32.1101932727
  0
LINE
  8
0
 62
7
  6
CONTINUOUS
 10
151.1346793074
 20
30.9164367395
 11
151.0768668626
 21
30.8196456577
  0
LINE
  8
0
 62
7
  6
CONTINUOUS
 10
153.4471794177
 20
31.400392081
 11
153.3893668074
 21
31.4649194539
  0
LINE
  8
0
 62
7
  6
CONTINUOUS
 10
154.3143669177
 20
30.7873819712
 11
154.2565543074
 21
30.8519093441
  0
LINE
  8
0
 62
7
  6
CONTINUOUS
 10
155.4706168074
 20
30.6583272086
 11
155.5284290869
 21
30.5937998301
  0
LINE
  8
0
 62
7
  6
CONTINUOUS
 10
155.412804528
 20
30.7551182848
 11
155.4706168074
 21
30.6583272086
  0
LINE
  8
0
 62
7
  6
CONTINUOUS
 10
155.8174918074
 20
30.5937998301
 11
155.759679528
 21
30.6905909007
  0
LINE
  8
0
 62
7
  6
CONTINUOUS
 10
155.7018665869
 20
31.3681283946
 11
155.6440543074
 21
31.4649194539
  0
LINE
  8
0
 62
7
  6
CONTINUOUS
 10
157.0315543074
 20
31.626237886
 11
157.0315543074
 21
30.5937998301
  0
LINE
  8
0
 62
7
  6
CONTINUOUS
 10
157.320617028
 20
30.5937998301
 11
157.320617028
 21
31.3358647082
  0
LINE
  8
0
 62
7
  6
CONTINUOUS
 10
157.320617028
 20
31.4649194539
 11
157.320617028
 21
31.626237886
  0
LINE
  8
0
 62
7
  6
CONTINUOUS
 10
157.852430332
 20
34.6101932727
 11
157.852430332
 21
32.3970785186
  0
LINE
  8
0
 62
7
  6
CONTINUOUS
 10
149.7471793074
 20
31.4326557675
 11
149.6315543091
 21
31.3036010218
  0
LINE
  8
0
 62
7
  6
CONTINUOUS
 10
149.9206168074
 20
31.2713373354
 11
149.9784292936
 21
31.3358647082
  0
LINE
  8
0
 62
7
  6
CONTINUOUS
 10
149.7471793074
 20
30.7873819712
 11
149.8628043005
 21
30.7228545871
  0
LINE
  8
0
 62
7
  6
CONTINUOUS
 10
150.1518667936
 20
30.7873819712
 11
149.9784292936
 21
30.8841730531
  0
LINE
  8
0
 62
7
  6
CONTINUOUS
 10
155.3549915869
 20
31.4326557675
 11
155.412804528
 21
31.3681283946
  0
LINE
  8
0
 62
7
  6
CONTINUOUS
 10
158.3034290869
 20
31.3681283946
 11
158.361242028
 21
31.2068099625
  0
LINE
  8
0
 62
7
  6
CONTINUOUS
 10
158.6503040869
 20
31.2068099625
 11
158.5924918074
 21
31.3681283946
  0
LINE
  8
0
 62
7
  6
CONTINUOUS
 10
158.361242028
 20
31.2068099625
 11
158.361242028
 21
30.5937998301
  0
LINE
  8
0
 62
7
  6
CONTINUOUS
 10
158.6503040869
 20
30.5937998301
 11
158.6503040869
 21
31.2068099625
  0
LINE
  8
0
 62
7
  6
CONTINUOUS
 10
159.1128043074
 20
31.4326557675
 11
159.1128043074
 21
31.3681283946
  0
LINE
  8
0
 62
7
  6
CONTINUOUS
 10
159.245872955
 20
32.3970785186
 11
159.245872955
 21
34.5282260596
  0
LINE
  8
0
 62
7
  6
CONTINUOUS
 10
159.5737418074
 20
36.1675703219
 11
159.5737418074
 21
32.3970785186
  0
LINE
  8
0
 62
7
  6
CONTINUOUS
 10
154.2565543074
 20
30.9164367395
 11
154.3143669177
 21
31.0132277988
  0
LINE
  8
0
 62
7
  6
CONTINUOUS
 10
149.8628043005
 20
30.7228545871
 11
150.0362418212
 21
30.6583272086
  0
LINE
  8
0
 62
7
  6
CONTINUOUS
 10
151.3659292523
 20
31.4326557675
 11
151.1924917523
 21
31.5294468267
  0
LINE
  8
0
 62
7
  6
CONTINUOUS
 10
154.0253041972
 20
30.7551182848
 11
154.1987416972
 21
30.6583272086
  0
LINE
  8
0
 62
7
  6
CONTINUOUS
 10
153.0424918074
 20
31.4326557675
 11
153.1581166972
 21
31.3681283946
  0
LINE
  8
0
 62
7
  6
CONTINUOUS
 10
153.3893668074
 20
31.4649194539
 11
153.2737419177
 21
31.5294468267
  0
LINE
  8
0
 62
7
  6
CONTINUOUS
 10
159.1128043074
 20
30.8519093441
 11
159.228429528
 21
30.7228545871
  0
LINE
  8
0
 62
7
  6
CONTINUOUS
 10
159.4596793074
 20
30.7873819712
 11
159.401867028
 21
30.8519093441
  0
LINE
  8
0
 62
7
  6
CONTINUOUS
 10
159.1128043074
 20
31.3681283946
 11
159.228429528
 21
31.2390736489
  0
LINE
  8
0
 62
7
  6
CONTINUOUS
 10
158.5924918074
 20
31.3681283946
 11
158.534679528
 21
31.4649194539
  0
LINE
  8
0
 62
7
  6
CONTINUOUS
 10
160.9628038663
 20
30.7873819712
 11
160.9628038663
 21
30.8519093441
  0
LINE
  8
0
 62
7
  6
CONTINUOUS
 10
160.9671844304
 20
32.3970785186
 11
160.9671844304
 21
36.1675703219
  0
LINE
  8
0
 62
7
  6
CONTINUOUS
 10
154.0253041972
 20
31.4971831403
 11
153.9674919177
 21
31.4326557675
  0
LINE
  8
0
 62
7
  6
CONTINUOUS
 10
150.9034292799
 20
31.4649194539
 11
151.0768668626
 21
31.400392081
  0
LINE
  8
0
 62
7
  6
CONTINUOUS
 10
155.6440543074
 20
31.4649194539
 11
155.5284290869
 21
31.5294468267
  0
LINE
  8
0
 62
7
  6
CONTINUOUS
 10
159.4596793074
 20
31.3036010218
 11
159.401867028
 21
31.3681283946
  0
LINE
  8
0
 62
7
  6
CONTINUOUS
 10
160.615929528
 20
30.9164367395
 11
160.6737418074
 21
30.8519093441
  0
LINE
  8
0
 62
7
  6
CONTINUOUS
 10
160.9628038663
 20
30.8519093441
 11
160.8471793074
 21
30.9809641124
  0
LINE
  8
0
 62
7
  6
CONTINUOUS
 10
160.615929528
 20
31.4326557675
 11
160.6737418074
 21
31.3681283946
  0
LINE
  8
0
 62
7
  6
CONTINUOUS
 10
160.9628038663
 20
31.3681283946
 11
160.8471793074
 21
31.4971831403
  0
LINE
  8
0
 62
7
  6
CONTINUOUS
 10
154.2565543074
 20
31.3681283946
 11
154.3143669177
 21
31.4326557675
  0
LINE
  8
0
 62
7
  6
CONTINUOUS
 10
154.0831168074
 20
31.1100188581
 11
153.9674919177
 21
30.9809641124
  0
LINE
  8
0
 62
7
  6
CONTINUOUS
 10
155.412804528
 20
30.9487004259
 11
155.3549915869
 21
30.8841730531
  0
LINE
  8
0
 62
7
  6
CONTINUOUS
 10
155.3549915869
 20
30.6905909007
 11
155.412804528
 21
30.7551182848
  0
LINE
  8
0
 62
7
  6
CONTINUOUS
 10
154.1987416972
 20
30.6583272086
 11
154.3143669177
 21
30.6260635193
  0
LINE
  8
0
 62
7
  6
CONTINUOUS
 10
151.1924917523
 20
31.5294468267
 11
150.9612418074
 21
31.5939741996
  0
LINE
  8
0
 62
7
  6
CONTINUOUS
 10
154.5456166972
 20
30.7228545871
 11
154.3143669177
 21
30.7873819712
  0
LINE
  8
0
 62
7
  6
CONTINUOUS
 10
153.2737419177
 20
31.5294468267
 11
153.1003044177
 21
31.5939741996
  0
LINE
  8
0
 62
7
  6
CONTINUOUS
 10
155.5284290869
 20
31.5294468267
 11
155.3549915869
 21
31.5939741996
  0
LINE
  8
0
 62
7
  6
CONTINUOUS
 10
158.187804528
 20
31.4326557675
 11
158.3034290869
 21
31.3681283946
  0
LINE
  8
0
 62
7
  6
CONTINUOUS
 10
158.534679528
 20
31.4649194539
 11
158.4190543074
 21
31.5294468267
  0
LINE
  8
0
 62
7
  6
CONTINUOUS
 10
150.0362418212
 20
30.6583272086
 11
150.2096793212
 21
30.6260635193
  0
LINE
  8
0
 62
7
  6
CONTINUOUS
 10
150.498741835
 20
30.7228545871
 11
150.1518667936
 21
30.7873819712
  0
LINE
  8
0
 62
7
  6
CONTINUOUS
 10
152.9268669177
 20
31.4649194539
 11
153.0424918074
 21
31.4326557675
  0
LINE
  8
0
 62
7
  6
CONTINUOUS
 10
155.239367028
 20
31.4649194539
 11
155.3549915869
 21
31.4326557675
  0
LINE
  8
0
 62
7
  6
CONTINUOUS
 10
159.575304528
 20
30.7551182848
 11
159.4596793074
 21
30.7873819712
  0
LINE
  8
0
 62
7
  6
CONTINUOUS
 10
158.0721793074
 20
31.4649194539
 11
158.187804528
 21
31.4326557675
  0
LINE
  8
0
 62
7
  6
CONTINUOUS
 10
159.228429528
 20
30.7228545871
 11
159.401867028
 21
30.6583272086
  0
LINE
  8
0
 62
7
  6
CONTINUOUS
 10
158.4190543074
 20
31.5294468267
 11
158.2456168074
 21
31.5939741996
  0
LINE
  8
0
 62
7
  6
CONTINUOUS
 10
159.6331168074
 20
31.2390736489
 11
159.4596793074
 21
31.3036010218
  0
LINE
  8
0
 62
7
  6
CONTINUOUS
 10
160.442492028
 20
30.9809641124
 11
160.615929528
 21
30.9164367395
  0
LINE
  8
0
 62
7
  6
CONTINUOUS
 10
160.8471793074
 20
31.4971831403
 11
160.6737418074
 21
31.5617105132
  0
LINE
  8
0
 62
7
  6
CONTINUOUS
 10
159.228429528
 20
31.2390736489
 11
159.4596793074
 21
31.1422825445
  0
LINE
  8
0
 62
7
  6
CONTINUOUS
 10
160.8471793074
 20
30.9809641124
 11
160.615929528
 21
31.0777551716
  0
LINE
  8
0
 62
7
  6
CONTINUOUS
 10
159.401867028
 20
31.3681283946
 11
159.4596793074
 21
31.4326557675
  0
LINE
  8
0
 62
7
  6
CONTINUOUS
 10
149.8628043005
 20
31.4971831403
 11
149.7471793074
 21
31.4326557675
  0
LINE
  8
0
 62
7
  6
CONTINUOUS
 10
149.9784292936
 20
31.3358647082
 11
150.1518667936
 21
31.4326557675
  0
LINE
  8
0
 62
7
  6
CONTINUOUS
 10
152.2909293626
 20
31.5294468267
 11
152.1753043074
 21
31.4649194539
  0
LINE
  8
0
 62
7
  6
CONTINUOUS
 10
152.1753043074
 20
31.3358647082
 11
152.2909293626
 21
31.400392081
  0
LINE
  8
0
 62
7
  6
CONTINUOUS
 10
151.1924917523
 20
30.6905909007
 11
151.3659292523
 21
30.7873819712
  0
LINE
  8
0
 62
7
  6
CONTINUOUS
 10
150.2096793212
 20
30.6260635193
 11
150.5565542799
 21
30.5937998301
  0
LINE
  8
0
 62
7
  6
CONTINUOUS
 10
154.3143669177
 20
30.6260635193
 11
154.5456166972
 21
30.5937998301
  0
LINE
  8
0
 62
7
  6
CONTINUOUS
 10
152.6956168074
 20
31.4971831403
 11
152.9268669177
 21
31.4649194539
  0
LINE
  8
0
 62
7
  6
CONTINUOUS
 10
155.0081169177
 20
31.4971831403
 11
155.239367028
 21
31.4649194539
  0
LINE
  8
0
 62
7
  6
CONTINUOUS
 10
159.4596793074
 20
31.1422825445
 11
160.442492028
 21
30.9809641124
  0
LINE
  8
0
 62
7
  6
CONTINUOUS
 10
160.615929528
 20
31.0777551716
 11
159.6331168074
 21
31.2390736489
  0
LINE
  8
0
 62
7
  6
CONTINUOUS
 10
153.1003044177
 20
31.5939741996
 11
152.9268669177
 21
31.626237886
  0
LINE
  8
0
 62
7
  6
CONTINUOUS
 10
159.401867028
 20
30.6583272086
 11
159.575304528
 21
30.6260635193
  0
LINE
  8
0
 62
7
  6
CONTINUOUS
 10
158.2456168074
 20
31.5939741996
 11
158.0721793074
 21
31.626237886
  0
LINE
  8
0
 62
7
  6
CONTINUOUS
 10
160.5003043074
 20
31.4649194539
 11
160.615929528
 21
31.4326557675
  0
LINE
  8
0
 62
7
  6
CONTINUOUS
 10
160.6737418074
 20
30.8519093441
 11
160.615929528
 21
30.7873819712
  0
LINE
  8
0
 62
7
  6
CONTINUOUS
 10
159.228429528
 20
31.5294468267
 11
159.1128043074
 21
31.4326557675
  0
LINE
  8
0
 62
7
  6
CONTINUOUS
 10
154.1409294177
 20
31.5617105132
 11
154.0253041972
 21
31.4971831403
  0
LINE
  8
0
 62
7
  6
CONTINUOUS
 10
154.1987416972
 20
31.1745462761
 11
154.0831168074
 21
31.1100188581
  0
LINE
  8
0
 62
7
  6
CONTINUOUS
 10
154.3143669177
 20
31.0132277988
 11
154.4299918074
 21
31.0777551716
  0
LINE
  8
0
 62
7
  6
CONTINUOUS
 10
151.8862417523
 20
30.5937998301
 11
152.1753043074
 21
30.5937998301
  0
LINE
  8
0
 62
7
  6
CONTINUOUS
 10
153.2159293074
 20
30.5937998301
 11
153.5049916972
 21
30.5937998301
  0
LINE
  8
0
 62
7
  6
CONTINUOUS
 10
154.5456166972
 20
30.5937998301
 11
154.8924916972
 21
30.5937998301
  0
LINE
  8
0
 62
7
  6
CONTINUOUS
 10
155.5284290869
 20
30.5937998301
 11
155.8174918074
 21
30.5937998301
  0
LINE
  8
0
 62
7
  6
CONTINUOUS
 10
156.279992028
 20
30.5937998301
 11
156.5690540869
 21
30.5937998301
  0
LINE
  8
0
 62
7
  6
CONTINUOUS
 10
157.0315543074
 20
30.5937998301
 11
157.320617028
 21
30.5937998301
  0
LINE
  8
0
 62
7
  6
CONTINUOUS
 10
158.361242028
 20
30.5937998301
 11
158.6503040869
 21
30.5937998301
  0
LINE
  8
0
 62
7
  6
CONTINUOUS
 10
159.922179528
 20
30.5937998301
 11
160.269054528
 21
30.5937998301
  0
LINE
  8
0
 62
7
  6
CONTINUOUS
 10
160.269054528
 20
30.7228545871
 11
159.922179528
 21
30.7228545871
  0
LINE
  8
0
 62
7
  6
CONTINUOUS
 10
154.8924916972
 20
30.7228545871
 11
154.5456166972
 21
30.7228545871
  0
LINE
  8
0
 62
7
  6
CONTINUOUS
 10
159.401867028
 20
30.8519093441
 11
159.1128043074
 21
30.8519093441
  0
LINE
  8
0
 62
7
  6
CONTINUOUS
 10
151.4237418626
 20
30.9164367395
 11
151.1346793074
 21
30.9164367395
  0
LINE
  8
0
 62
7
  6
CONTINUOUS
 10
150.498741835
 20
31.4971831403
 11
150.9034292799
 21
31.4649194539
  0
LINE
  8
0
 62
7
  6
CONTINUOUS
 10
150.9612418074
 20
31.5939741996
 11
150.5565542799
 21
31.626237886
  0
LINE
  8
0
 62
7
  6
CONTINUOUS
 10
159.575304528
 20
30.6260635193
 11
159.922179528
 21
30.5937998301
  0
LINE
  8
0
 62
7
  6
CONTINUOUS
 10
159.922179528
 20
30.7228545871
 11
159.575304528
 21
30.7551182848
  0
LINE
  8
0
 62
7
  6
CONTINUOUS
 10
155.3549915869
 20
31.5939741996
 11
155.0081169177
 21
31.626237886
  0
LINE
  8
0
 62
7
  6
CONTINUOUS
 10
160.1534293074
 20
31.4971831403
 11
160.5003043074
 21
31.4649194539
  0
LINE
  8
0
 62
7
  6
CONTINUOUS
 10
160.5003043074
 20
31.5939741996
 11
160.1534293074
 21
31.626237886
  0
LINE
  8
0
 62
7
  6
CONTINUOUS
 10
157.840929528
 20
31.4971831403
 11
158.0721793074
 21
31.4649194539
  0
LINE
  8
0
 62
7
  6
CONTINUOUS
 10
160.6737418074
 20
31.5617105132
 11
160.5003043074
 21
31.5939741996
  0
LINE
  8
0
 62
7
  6
CONTINUOUS
 10
160.8471793074
 20
30.6905909007
 11
160.9628038663
 21
30.7873819712
  0
LINE
  8
0
 62
7
  6
CONTINUOUS
 10
155.3549915869
 20
30.8841730531
 11
155.1815540869
 21
30.7873819712
  0
LINE
  8
0
 62
7
  6
CONTINUOUS
 10
157.4362415869
 20
31.5294468267
 11
157.320617028
 21
31.4649194539
  0
LINE
  8
0
 62
7
  6
CONTINUOUS
 10
157.320617028
 20
31.3358647082
 11
157.4362415869
 21
31.400392081
  0
LINE
  8
0
 62
7
  6
CONTINUOUS
 10
150.0362418212
 20
31.5617105132
 11
149.8628043005
 21
31.4971831403
  0
LINE
  8
0
 62
7
  6
CONTINUOUS
 10
152.4643666972
 20
31.5939741996
 11
152.2909293626
 21
31.5294468267
  0
LINE
  8
0
 62
7
  6
CONTINUOUS
 10
152.2909293626
 20
31.400392081
 11
152.4643666972
 21
31.4649194539
  0
LINE
  8
0
 62
7
  6
CONTINUOUS
 10
151.0768668626
 20
30.8196456577
 11
150.9034292799
 21
30.7551182848
  0
LINE
  8
0
 62
7
  6
CONTINUOUS
 10
160.5003043074
 20
30.7551182848
 11
160.269054528
 21
30.7228545871
  0
LINE
  8
0
 62
7
  6
CONTINUOUS
 10
154.8924916972
 20
30.5937998301
 11
155.1815540869
 21
30.6260635193
  0
LINE
  8
0
 62
7
  6
CONTINUOUS
 10
160.269054528
 20
30.5937998301
 11
160.615929528
 21
30.6260635193
  0
LINE
  8
0
 62
7
  6
CONTINUOUS
 10
150.5565542799
 20
30.5937998301
 11
150.9612418074
 21
30.6260635193
  0
LINE
  8
0
 62
7
  6
CONTINUOUS
 10
150.9034292799
 20
30.7551182848
 11
150.498741835
 21
30.7228545871
  0
LINE
  8
0
 62
7
  6
CONTINUOUS
 10
154.7768668074
 20
31.1422825445
 11
155.412804528
 21
31.1422825445
  0
LINE
  8
0
 62
7
  6
CONTINUOUS
 10
155.412804528
 20
31.2713373354
 11
154.7768668074
 21
31.2713373354
  0
LINE
  8
0
 62
7
  6
CONTINUOUS
 10
151.1346793074
 20
31.3036010218
 11
151.4237418626
 21
31.3036010218
  0
LINE
  8
0
 62
7
  6
CONTINUOUS
 10
153.9674919177
 20
31.3681283946
 11
154.2565543074
 21
31.3681283946
  0
LINE
  8
0
 62
7
  6
CONTINUOUS
 10
160.6737418074
 20
31.3681283946
 11
160.9628038663
 21
31.3681283946
  0
LINE
  8
0
 62
7
  6
CONTINUOUS
 10
154.6612419177
 20
31.4971831403
 11
155.0081169177
 21
31.4971831403
  0
LINE
  8
0
 62
7
  6
CONTINUOUS
 10
159.8065543074
 20
31.4971831403
 11
160.1534293074
 21
31.4971831403
  0
LINE
  8
0
 62
7
  6
CONTINUOUS
 10
160.1534293074
 20
31.626237886
 11
159.8065543074
 21
31.626237886
  0
LINE
  8
0
 62
7
  6
CONTINUOUS
 10
158.0721793074
 20
31.626237886
 11
157.840929528
 21
31.626237886
  0
LINE
  8
0
 62
7
  6
CONTINUOUS
 10
157.320617028
 20
31.626237886
 11
157.0315543074
 21
31.626237886
  0
LINE
  8
0
 62
7
  6
CONTINUOUS
 10
156.5690540869
 20
31.626237886
 11
156.279992028
 21
31.626237886
  0
LINE
  8
0
 62
7
  6
CONTINUOUS
 10
155.0081169177
 20
31.626237886
 11
154.6612419177
 21
31.626237886
  0
LINE
  8
0
 62
7
  6
CONTINUOUS
 10
152.9268669177
 20
31.626237886
 11
152.6956168074
 21
31.626237886
  0
LINE
  8
0
 62
7
  6
CONTINUOUS
 10
156.279992028
 20
31.9488748406
 11
156.5690540869
 21
31.9488748406
  0
LINE
  8
0
 62
7
  6
CONTINUOUS
 10
156.5690540869
 20
32.1101932727
 11
156.279992028
 21
32.1101932727
  0
LINE
  8
0
 62
7
  6
CONTINUOUS
 10
152.1753043074
 20
32.1101932727
 11
151.8862417523
 21
32.1101932727
  0
LINE
  8
0
 62
7
  6
CONTINUOUS
 10
151.2130860697
 20
32.3970785186
 11
151.6256574183
 21
32.3970785186
  0
LINE
  8
0
 62
7
  6
CONTINUOUS
 10
152.852430332
 20
32.3970785186
 11
154.245872955
 21
32.3970785186
  0
LINE
  8
0
 62
7
  6
CONTINUOUS
 10
154.5737418074
 20
32.3970785186
 11
155.9671844304
 21
32.3970785186
  0
LINE
  8
0
 62
7
  6
CONTINUOUS
 10
157.852430332
 20
32.3970785186
 11
159.245872955
 21
32.3970785186
  0
LINE
  8
0
 62
7
  6
CONTINUOUS
 10
159.5737418074
 20
32.3970785186
 11
160.9671844304
 21
32.3970785186
  0
LINE
  8
0
 62
7
  6
CONTINUOUS
 10
157.6096790869
 20
31.5939741996
 11
157.4362415869
 21
31.5294468267
  0
LINE
  8
0
 62
7
  6
CONTINUOUS
 10
155.1815540869
 20
30.6260635193
 11
155.3549915869
 21
30.6905909007
  0
LINE
  8
0
 62
7
  6
CONTINUOUS
 10
160.615929528
 20
30.6260635193
 11
160.8471793074
 21
30.6905909007
  0
LINE
  8
0
 62
7
  6
CONTINUOUS
 10
160.615929528
 20
30.7873819712
 11
160.5003043074
 21
30.7551182848
  0
LINE
  8
0
 62
7
  6
CONTINUOUS
 10
159.575304528
 20
31.4649194539
 11
159.8065543074
 21
31.4971831403
  0
LINE
  8
0
 62
7
  6
CONTINUOUS
 10
157.6096790869
 20
31.4649194539
 11
157.840929528
 21
31.4971831403
  0
LINE
  8
0
 62
7
  6
CONTINUOUS
 10
154.5456166972
 20
31.1100188581
 11
154.7768668074
 21
31.1422825445
  0
LINE
  8
0
 62
7
  6
CONTINUOUS
 10
157.840929528
 20
31.626237886
 11
157.6096790869
 21
31.5939741996
  0
LINE
  8
0
 62
7
  6
CONTINUOUS
 10
154.4299918074
 20
31.4649194539
 11
154.6612419177
 21
31.4971831403
  0
LINE
  8
0
 62
7
  6
CONTINUOUS
 10
159.8065543074
 20
31.626237886
 11
159.4596793074
 21
31.5939741996
  0
LINE
  8
0
 62
7
  6
CONTINUOUS
 10
154.7768668074
 20
31.2713373354
 11
154.4299918074
 21
31.2390736489
  0
LINE
  8
0
 62
7
  6
CONTINUOUS
 10
150.5565542799
 20
31.626237886
 11
150.2096793212
 21
31.5939741996
  0
LINE
  8
0
 62
7
  6
CONTINUOUS
 10
154.6612419177
 20
31.626237886
 11
154.2565543074
 21
31.5939741996
  0
LINE
  8
0
 62
7
  6
CONTINUOUS
 10
152.0327582009
 20
33.5446195022
 11
151.3770204959
 21
33.5446195022
  0
LINE
  8
0
 62
7
  6
CONTINUOUS
 10
157.4362415869
 20
31.400392081
 11
157.6096790869
 21
31.4649194539
  0
LINE
  8
0
 62
7
  6
CONTINUOUS
 10
159.4596793074
 20
31.4326557675
 11
159.575304528
 21
31.4649194539
  0
LINE
  8
0
 62
7
  6
CONTINUOUS
 10
159.4596793074
 20
31.5939741996
 11
159.228429528
 21
31.5294468267
  0
LINE
  8
0
 62
7
  6
CONTINUOUS
 10
155.1815540869
 20
30.7873819712
 11
154.8924916972
 21
30.7228545871
  0
LINE
  8
0
 62
7
  6
CONTINUOUS
 10
152.4643666972
 20
31.4649194539
 11
152.6956168074
 21
31.4971831403
  0
LINE
  8
0
 62
7
  6
CONTINUOUS
 10
152.6956168074
 20
31.626237886
 11
152.4643666972
 21
31.5939741996
  0
LINE
  8
0
 62
7
  6
CONTINUOUS
 10
150.2674918074
 20
31.4649194539
 11
150.498741835
 21
31.4971831403
  0
LINE
  8
0
 62
7
  6
CONTINUOUS
 10
156.7868565615
 20
35.0200293383
 11
157.4425942664
 21
35.0200293383
  0
LINE
  8
0
 62
7
  6
CONTINUOUS
 10
154.4299918074
 20
31.0777551716
 11
154.5456166972
 21
31.1100188581
  0
LINE
  8
0
 62
7
  6
CONTINUOUS
 10
154.4299918074
 20
31.2390736489
 11
154.1987416972
 21
31.1745462761
  0
LINE
  8
0
 62
7
  6
CONTINUOUS
 10
154.3143669177
 20
31.4326557675
 11
154.4299918074
 21
31.4649194539
  0
LINE
  8
0
 62
7
  6
CONTINUOUS
 10
150.9612418074
 20
30.6260635193
 11
151.1924917523
 21
30.6905909007
  0
LINE
  8
0
 62
7
  6
CONTINUOUS
 10
154.2565543074
 20
31.5939741996
 11
154.1409294177
 21
31.5617105132
  0
LINE
  8
0
 62
7
  6
CONTINUOUS
 10
150.2096793212
 20
31.5939741996
 11
150.0362418212
 21
31.5617105132
  0
LINE
  8
0
 62
7
  6
CONTINUOUS
 10
160.9671844304
 20
36.1675703219
 11
159.5737418074
 21
36.1675703219
  0
LINE
  8
0
 62
7
  6
CONTINUOUS
 10
157.6065286927
 20
36.1675703219
 11
157.1939573441
 21
36.1675703219
  0
LINE
  8
0
 62
7
  6
CONTINUOUS
 10
155.9671844304
 20
36.1675703219
 11
154.5737418074
 21
36.1675703219
  0
LINE
  8
0
 62
7
  6
CONTINUOUS
 10
154.245872955
 20
36.1675703219
 11
152.852430332
 21
36.1675703219
  0
LINE
  8
0
 62
7
  6
CONTINUOUS
 10
150.9671844304
 20
36.1675703219
 11
149.5737418074
 21
36.1675703219
  0
LINE
  8
0
 62
7
  6
CONTINUOUS
 10
150.1518667936
 20
31.4326557675
 11
150.2674918074
 21
31.4649194539
  0
CIRCLE
  8
0
 62
7
  6
CONTINUOUS
 10
160.2704631189
 20
38.5036358957
 40
2.0901639344
  0
ARC
  8
0
 62
7
  6
CONTINUOUS
 10
151.2130860697
 20
34.0364227809
 40
1.6393442623
 50
180.0
 51
270.0
  0
ARC
  8
0
 62
7
  6
CONTINUOUS
 10
157.6065286927
 20
34.5282260596
 40
1.6393442623
 50
0.0
 51
90.0
  0
ARC
  8
0
 62
7
  6
CONTINUOUS
 10
151.6256574183
 20
33.8724883547
 40
1.4754098361
 50
270.0
 51
326.2510114041
  0
ARC
  8
0
 62
7
  6
CONTINUOUS
 10
157.1939573441
 20
34.6921604858
 40
1.4754098361
 50
90.0
 51
146.2510114041
  0
ARC
  8
0
 62
7
  6
CONTINUOUS
 10
152.0327582009
 20
34.3642916334
 40
0.8196721311
 50
270.0
 51
360.0
  0
ARC
  8
0
 62
7
  6
CONTINUOUS
 10
156.7868565615
 20
34.2003572071
 40
0.8196721311
 50
90.0
 51
180.0
  0
ARC
  8
0
 62
7
  6
CONTINUOUS
 10
151.3770204959
 20
33.9544555678
 40
0.4098360656
 50
180.0
 51
270.0
  0
ARC
  8
0
 62
7
  6
CONTINUOUS
 10
157.4425942664
 20
34.6101932727
 40
0.4098360656
 50
0.0
 51
90.0
  0
SOLID
  8
0
 62
7
  6
CONTINUOUS
 10
156.279992028
 20
31.9488752009
 11
156.279992028
 21
32.1101936845
 12
156.5690540869
 22
31.9488752009
 13
156.5690540869
 23
32.1101936845
  0
SOLID
  8
0
 62
7
  6
CONTINUOUS
 10
150.5565542799
 20
31.6262382337
 11
150.9612418074
 21
31.5939740028
 12
150.2096793212
 22
31.5939740028
 13
150.2096793212
 23
31.5939740028
  0
SOLID
  8
0
 62
7
  6
CONTINUOUS
 10
150.0362418212
 20
31.5617111435
 11
150.2096793212
 21
31.5939740028
 12
150.9612418074
 22
31.5939740028
 13
150.9612418074
 23
31.5939740028
  0
SOLID
  8
0
 62
7
  6
CONTINUOUS
 10
150.9612418074
 20
31.5939740028
 11
151.1924917523
 21
31.5294468402
 12
150.0362418212
 22
31.5617111435
 13
150.0362418212
 23
31.5617111435
  0
SOLID
  8
0
 62
7
  6
CONTINUOUS
 10
149.8628043005
 20
31.49718259
 11
150.0362418212
 21
31.5617111435
 12
151.1924917523
 22
31.5294468402
 13
151.1924917523
 23
31.5294468402
  0
SOLID
  8
0
 62
7
  6
CONTINUOUS
 10
149.8628043005
 20
31.49718259
 11
151.1924917523
 21
31.5294468402
 12
150.498741835
 22
31.49718259
 13
150.498741835
 23
31.49718259
  0
SOLID
  8
0
 62
7
  6
CONTINUOUS
 10
150.498741835
 20
31.49718259
 11
151.1924917523
 21
31.5294468402
 12
150.9034292799
 22
31.4649197501
 13
150.9034292799
 23
31.4649197501
  0
SOLID
  8
0
 62
7
  6
CONTINUOUS
 10
151.1924917523
 20
31.5294468402
 11
151.3659292523
 21
31.4326554468
 12
150.9034292799
 22
31.4649197501
 13
150.9034292799
 23
31.4649197501
  0
SOLID
  8
0
 62
7
  6
CONTINUOUS
 10
151.0768668626
 20
31.4003926599
 11
150.9034292799
 21
31.4649197501
 12
151.3659292523
 22
31.4326554468
 13
151.3659292523
 23
31.4326554468
  0
SOLID
  8
0
 62
7
  6
CONTINUOUS
 10
151.0768668626
 20
31.4003926599
 11
151.3659292523
 21
31.4326554468
 12
151.1346793074
 22
31.3036013776
 13
151.1346793074
 23
31.3036013776
  0
SOLID
  8
0
 62
7
  6
CONTINUOUS
 10
151.3659292523
 20
31.4326554468
 11
151.4237418626
 21
31.3036013776
 12
151.1346793074
 22
31.3036013776
 13
151.1346793074
 23
31.3036013776
  0
SOLID
  8
0
 62
7
  6
CONTINUOUS
 10
152.4643666972
 20
31.5939739754
 11
152.6956168074
 21
31.6262382787
 12
152.9268669177
 22
31.6262382787
 13
152.9268669177
 23
31.6262382787
  0
SOLID
  8
0
 62
7
  6
CONTINUOUS
 10
152.9268669177
 20
31.6262382787
 11
153.1003044177
 21
31.5939739754
 12
152.4643666972
 22
31.5939739754
 13
152.4643666972
 23
31.5939739754
  0
SOLID
  8
0
 62
7
  6
CONTINUOUS
 10
152.2909293626
 20
31.5294468852
 11
152.4643666972
 21
31.5939739754
 12
153.1003044177
 22
31.5939739754
 13
153.1003044177
 23
31.5939739754
  0
SOLID
  8
0
 62
7
  6
CONTINUOUS
 10
153.1003044177
 20
31.5939739754
 11
153.2737419177
 21
31.5294468852
 12
152.2909293626
 22
31.5294468852
 13
152.2909293626
 23
31.5294468852
  0
SOLID
  8
0
 62
7
  6
CONTINUOUS
 10
153.2737419177
 20
31.5294468852
 11
152.6956168074
 21
31.4971825369
 12
152.2909293626
 22
31.5294468852
 13
152.2909293626
 23
31.5294468852
  0
SOLID
  8
0
 62
7
  6
CONTINUOUS
 10
152.1753043074
 20
31.4649197951
 11
152.2909293626
 21
31.5294468852
 12
152.6956168074
 22
31.4971825369
 13
152.6956168074
 23
31.4971825369
  0
SOLID
  8
0
 62
7
  6
CONTINUOUS
 10
152.6956168074
 20
31.4971825369
 11
152.4643666972
 21
31.4649197951
 12
152.1753043074
 22
31.4649197951
 13
152.1753043074
 23
31.4649197951
  0
SOLID
  8
0
 62
7
  6
CONTINUOUS
 10
152.6956168074
 20
31.4971825369
 11
153.2737419177
 21
31.5294468852
 12
152.9268669177
 22
31.4649197951
 13
152.9268669177
 23
31.4649197951
  0
SOLID
  8
0
 62
7
  6
CONTINUOUS
 10
153.2737419177
 20
31.5294468852
 11
153.3893668074
 21
31.4649197951
 12
152.9268669177
 22
31.4649197951
 13
152.9268669177
 23
31.4649197951
  0
SOLID
  8
0
 62
7
  6
CONTINUOUS
 10
153.0424918074
 20
31.4326554468
 11
152.9268669177
 21
31.4649197951
 12
153.3893668074
 22
31.4649197951
 13
153.3893668074
 23
31.4649197951
  0
SOLID
  8
0
 62
7
  6
CONTINUOUS
 10
153.3893668074
 20
31.4649197951
 11
153.4471794177
 21
31.4003927049
 12
153.0424918074
 22
31.4326554468
 13
153.0424918074
 23
31.4326554468
  0
SOLID
  8
0
 62
7
  6
CONTINUOUS
 10
153.1581166972
 20
31.3681283566
 11
153.0424918074
 21
31.4326554468
 12
153.4471794177
 22
31.4003927049
 13
153.4471794177
 23
31.4003927049
  0
SOLID
  8
0
 62
7
  6
CONTINUOUS
 10
153.1581166972
 20
31.3681283566
 11
153.4471794177
 21
31.4003927049
 12
153.2159293074
 22
31.2390742213
 13
153.2159293074
 23
31.2390742213
  0
SOLID
  8
0
 62
7
  6
CONTINUOUS
 10
153.4471794177
 20
31.4003927049
 11
153.5049916972
 21
31.2390742213
 12
153.2159293074
 22
31.2390742213
 13
153.2159293074
 23
31.2390742213
  0
SOLID
  8
0
 62
7
  6
CONTINUOUS
 10
152.4643666972
 20
31.4649197951
 11
152.2909293626
 21
31.4003927049
 12
152.1753043074
 22
31.4649197951
 13
152.1753043074
 23
31.4649197951
  0
SOLID
  8
0
 62
7
  6
CONTINUOUS
 10
152.2909293626
 20
31.4003927049
 11
152.1753043074
 21
31.3358640533
 12
152.1753043074
 22
31.4649197951
 13
152.1753043074
 23
31.4649197951
  0
SOLID
  8
0
 62
7
  6
CONTINUOUS
 10
152.1753043074
 20
31.3358640533
 11
151.8862417523
 21
30.5938002869
 12
152.1753043074
 22
31.4649197951
 13
152.1753043074
 23
31.4649197951
  0
SOLID
  8
0
 62
7
  6
CONTINUOUS
 10
152.1753043074
 20
31.4649197951
 11
151.8862417523
 21
30.5938002869
 12
152.1753043074
 22
32.1101937295
 13
152.1753043074
 23
32.1101937295
  0
SOLID
  8
0
 62
7
  6
CONTINUOUS
 10
151.8862417523
 20
30.5938002869
 11
151.8862417523
 21
32.1101937295
 12
152.1753043074
 22
32.1101937295
 13
152.1753043074
 23
32.1101937295
  0
SOLID
  8
0
 62
7
  6
CONTINUOUS
 10
152.1753043074
 20
31.3358640533
 11
152.1753043074
 21
30.5938002869
 12
151.8862417523
 22
30.5938002869
 13
151.8862417523
 23
30.5938002869
  0
SOLID
  8
0
 62
7
  6
CONTINUOUS
 10
153.2159293074
 20
30.5938002869
 11
153.2159293074
 21
31.2390742213
 12
153.5049916972
 22
31.2390742213
 13
153.5049916972
 23
31.2390742213
  0
SOLID
  8
0
 62
7
  6
CONTINUOUS
 10
153.5049916972
 20
31.2390742213
 11
153.5049916972
 21
30.5938002869
 12
153.2159293074
 22
30.5938002869
 13
153.2159293074
 23
30.5938002869
  0
SOLID
  8
0
 62
7
  6
CONTINUOUS
 10
154.2565543074
 20
31.5939738288
 11
154.6612419177
 21
31.6262385959
 12
155.0081169177
 22
31.6262385959
 13
155.0081169177
 23
31.6262385959
  0
SOLID
  8
0
 62
7
  6
CONTINUOUS
 10
155.0081169177
 20
31.6262385959
 11
155.3549915869
 21
31.5939738288
 12
154.2565543074
 22
31.5939738288
 13
154.2565543074
 23
31.5939738288
  0
SOLID
  8
0
 62
7
  6
CONTINUOUS
 10
154.1409294177
 20
31.5617111435
 11
154.2565543074
 21
31.5939738288
 12
155.3549915869
 22
31.5939738288
 13
155.3549915869
 23
31.5939738288
  0
SOLID
  8
0
 62
7
  6
CONTINUOUS
 10
155.3549915869
 20
31.5939738288
 11
155.5284290869
 21
31.5294468402
 12
154.1409294177
 22
31.5617111435
 13
154.1409294177
 23
31.5617111435
  0
SOLID
  8
0
 62
7
  6
CONTINUOUS
 10
154.0253041972
 20
31.4971826249
 11
154.1409294177
 21
31.5617111435
 12
155.5284290869
 22
31.5294468402
 13
155.5284290869
 23
31.5294468402
  0
SOLID
  8
0
 62
7
  6
CONTINUOUS
 10
154.0253041972
 20
31.4971826249
 11
155.5284290869
 21
31.5294468402
 12
154.6612419177
 22
31.4971826249
 13
154.6612419177
 23
31.4971826249
  0
SOLID
  8
0
 62
7
  6
CONTINUOUS
 10
154.6612419177
 20
31.4971826249
 11
155.5284290869
 21
31.5294468402
 12
155.0081169177
 22
31.4971826249
 13
155.0081169177
 23
31.4971826249
  0
SOLID
  8
0
 62
7
  6
CONTINUOUS
 10
155.0081169177
 20
31.4971826249
 11
155.5284290869
 21
31.5294468402
 12
155.239367028
 22
31.4649194065
 13
155.239367028
 23
31.4649194065
  0
SOLID
  8
0
 62
7
  6
CONTINUOUS
 10
155.5284290869
 20
31.5294468402
 11
155.6440543074
 21
31.4649194065
 12
155.239367028
 22
31.4649194065
 13
155.239367028
 23
31.4649194065
  0
SOLID
  8
0
 62
7
  6
CONTINUOUS
 10
153.9674919177
 20
31.4326554138
 11
154.0253041972
 21
31.4971826249
 12
154.6612419177
 22
31.4971826249
 13
154.6612419177
 23
31.4971826249
  0
SOLID
  8
0
 62
7
  6
CONTINUOUS
 10
155.3549915869
 20
31.4326554138
 11
155.239367028
 21
31.4649194065
 12
155.6440543074
 22
31.4649194065
 13
155.6440543074
 23
31.4649194065
  0
SOLID
  8
0
 62
7
  6
CONTINUOUS
 10
155.3549915869
 20
31.4326554138
 11
155.6440543074
 21
31.4649194065
 12
155.412804528
 22
31.3681282026
 13
155.412804528
 23
31.3681282026
  0
SOLID
  8
0
 62
7
  6
CONTINUOUS
 10
155.6440543074
 20
31.4649194065
 11
155.7018665869
 21
31.3681282026
 12
155.412804528
 22
31.3681282026
 13
155.412804528
 23
31.3681282026
  0
SOLID
  8
0
 62
7
  6
CONTINUOUS
 10
155.412804528
 20
31.2713369632
 11
155.412804528
 21
31.3681282026
 12
155.7018665869
 22
31.3681282026
 13
155.7018665869
 23
31.3681282026
  0
SOLID
  8
0
 62
7
  6
CONTINUOUS
 10
155.412804528
 20
31.2713369632
 11
155.7018665869
 21
31.3681282026
 12
155.412804528
 22
31.1422827828
 13
155.412804528
 23
31.1422827828
  0
SOLID
  8
0
 62
7
  6
CONTINUOUS
 10
155.412804528
 20
31.1422827828
 11
155.7018665869
 21
31.3681282026
 12
155.412804528
 22
30.9487004259
 13
155.412804528
 23
30.9487004259
  0
SOLID
  8
0
 62
7
  6
CONTINUOUS
 10
155.7018665869
 20
31.3681282026
 11
155.7018665869
 21
30.8519086025
 12
155.412804528
 22
30.9487004259
 13
155.412804528
 23
30.9487004259
  0
SOLID
  8
0
 62
7
  6
CONTINUOUS
 10
157.6096790869
 20
31.5939736268
 11
157.840929528
 21
31.6262383465
 12
158.0721793074
 22
31.6262383465
 13
158.0721793074
 23
31.6262383465
  0
SOLID
  8
0
 62
7
  6
CONTINUOUS
 10
158.0721793074
 20
31.6262383465
 11
158.2456168074
 21
31.5939736268
 12
157.6096790869
 22
31.5939736268
 13
157.6096790869
 23
31.5939736268
  0
SOLID
  8
0
 62
7
  6
CONTINUOUS
 10
157.4362415869
 20
31.5294472848
 11
157.6096790869
 21
31.5939736268
 12
158.2456168074
 22
31.5939736268
 13
158.2456168074
 23
31.5939736268
  0
SOLID
  8
0
 62
7
  6
CONTINUOUS
 10
158.2456168074
 20
31.5939736268
 11
158.4190543074
 21
31.5294472848
 12
157.4362415869
 22
31.5294472848
 13
157.4362415869
 23
31.5294472848
  0
SOLID
  8
0
 62
7
  6
CONTINUOUS
 10
158.4190543074
 20
31.5294472848
 11
157.840929528
 21
31.4971825369
 12
157.4362415869
 22
31.5294472848
 13
157.4362415869
 23
31.5294472848
  0
SOLID
  8
0
 62
7
  6
CONTINUOUS
 10
157.320617028
 20
31.4649199103
 11
157.4362415869
 21
31.5294472848
 12
157.840929528
 22
31.4971825369
 13
157.840929528
 23
31.4971825369
  0
SOLID
  8
0
 62
7
  6
CONTINUOUS
 10
157.840929528
 20
31.4971825369
 11
157.6096790869
 21
31.4649199103
 12
157.320617028
 22
31.4649199103
 13
157.320617028
 23
31.4649199103
  0
SOLID
  8
0
 62
7
  6
CONTINUOUS
 10
157.840929528
 20
31.4971825369
 11
158.4190543074
 21
31.5294472848
 12
158.0721793074
 22
31.4649199103
 13
158.0721793074
 23
31.4649199103
  0
SOLID
  8
0
 62
7
  6
CONTINUOUS
 10
158.4190543074
 20
31.5294472848
 11
158.534679528
 21
31.4649199103
 12
158.0721793074
 22
31.4649199103
 13
158.0721793074
 23
31.4649199103
  0
SOLID
  8
0
 62
7
  6
CONTINUOUS
 10
158.187804528
 20
31.4326554468
 11
158.0721793074
 21
31.4649199103
 12
158.534679528
 22
31.4649199103
 13
158.534679528
 23
31.4649199103
  0
SOLID
  8
0
 62
7
  6
CONTINUOUS
 10
158.187804528
 20
31.4326554468
 11
158.534679528
 21
31.4649199103
 12
158.3034290869
 22
31.3681288486
 13
158.3034290869
 23
31.3681288486
  0
SOLID
  8
0
 62
7
  6
CONTINUOUS
 10
158.534679528
 20
31.4649199103
 11
158.5924918074
 21
31.3681288486
 12
158.3034290869
 22
31.3681288486
 13
158.3034290869
 23
31.3681288486
  0
SOLID
  8
0
 62
7
  6
CONTINUOUS
 10
158.361242028
 20
31.2068093799
 11
158.3034290869
 21
31.3681288486
 12
158.5924918074
 22
31.3681288486
 13
158.5924918074
 23
31.3681288486
  0
SOLID
  8
0
 62
7
  6
CONTINUOUS
 10
158.5924918074
 20
31.3681288486
 11
158.6503040869
 21
31.2068093799
 12
158.361242028
 22
31.2068093799
 13
158.361242028
 23
31.2068093799
  0
SOLID
  8
0
 62
7
  6
CONTINUOUS
 10
157.6096790869
 20
31.4649199103
 11
157.4362415869
 21
31.4003926599
 12
157.320617028
 22
31.4649199103
 13
157.320617028
 23
31.4649199103
  0
SOLID
  8
0
 62
7
  6
CONTINUOUS
 10
157.4362415869
 20
31.4003926599
 11
157.320617028
 21
31.3358640533
 12
157.320617028
 22
31.4649199103
 13
157.320617028
 23
31.4649199103
  0
SOLID
  8
0
 62
7
  6
CONTINUOUS
 10
157.320617028
 20
31.3358640533
 11
157.0315543074
 21
30.5938003547
 12
157.320617028
 22
31.4649199103
 13
157.320617028
 23
31.4649199103
  0
SOLID
  8
0
 62
7
  6
CONTINUOUS
 10
157.320617028
 20
31.4649199103
 11
157.0315543074
 21
30.5938003547
 12
157.320617028
 22
31.6262383465
 13
157.320617028
 23
31.6262383465
  0
SOLID
  8
0
 62
7
  6
CONTINUOUS
 10
157.0315543074
 20
30.5938003547
 11
157.0315543074
 21
31.6262383465
 12
157.320617028
 22
31.6262383465
 13
157.320617028
 23
31.6262383465
  0
SOLID
  8
0
 62
7
  6
CONTINUOUS
 10
157.320617028
 20
31.3358640533
 11
157.320617028
 21
30.5938003547
 12
157.0315543074
 22
30.5938003547
 13
157.0315543074
 23
30.5938003547
  0
SOLID
  8
0
 62
7
  6
CONTINUOUS
 10
158.361242028
 20
30.5938003547
 11
158.361242028
 21
31.2068093799
 12
158.6503040869
 22
31.2068093799
 13
158.6503040869
 23
31.2068093799
  0
SOLID
  8
0
 62
7
  6
CONTINUOUS
 10
158.6503040869
 20
31.2068093799
 11
158.6503040869
 21
30.5938003547
 12
158.361242028
 22
30.5938003547
 13
158.361242028
 23
30.5938003547
  0
SOLID
  8
0
 62
7
  6
CONTINUOUS
 10
159.4596793074
 20
31.5939739474
 11
159.8065543074
 21
31.6262381969
 12
160.1534293074
 22
31.6262381969
 13
160.1534293074
 23
31.6262381969
  0
SOLID
  8
0
 62
7
  6
CONTINUOUS
 10
160.1534293074
 20
31.6262381969
 11
160.5003043074
 21
31.5939739474
 12
159.4596793074
 22
31.5939739474
 13
159.4596793074
 23
31.5939739474
  0
SOLID
  8
0
 62
7
  6
CONTINUOUS
 10
159.228429528
 20
31.5294468402
 11
159.4596793074
 21
31.5939739474
 12
160.5003043074
 22
31.5939739474
 13
160.5003043074
 23
31.5939739474
  0
SOLID
  8
0
 62
7
  6
CONTINUOUS
 10
159.228429528
 20
31.5294468402
 11
160.5003043074
 21
31.5939739304
 12
160.6737418074
 22
31.5617111435
 13
160.6737418074
 23
31.5617111435
  0
SOLID
  8
0
 62
7
  6
CONTINUOUS
 10
159.228429528
 20
31.5294468402
 11
160.6737418074
 21
31.5617111435
 12
159.8065543074
 22
31.4971825592
 13
159.8065543074
 23
31.4971825592
  0
SOLID
  8
0
 62
7
  6
CONTINUOUS
 10
159.8065543074
 20
31.4971825592
 11
160.6737418074
 21
31.5617111435
 12
160.1534293074
 22
31.4971825592
 13
160.1534293074
 23
31.4971825592
  0
SOLID
  8
0
 62
7
  6
CONTINUOUS
 10
160.6737418074
 20
31.5617111435
 11
160.8471793074
 21
31.4971825592
 12
160.1534293074
 22
31.4971825592
 13
160.1534293074
 23
31.4971825592
  0
SOLID
  8
0
 62
7
  6
CONTINUOUS
 10
160.5003043074
 20
31.4649197501
 11
160.1534293074
 21
31.4971825592
 12
160.8471793074
 22
31.4971825592
 13
160.8471793074
 23
31.4971825592
  0
SOLID
  8
0
 62
7
  6
CONTINUOUS
 10
159.1128043074
 20
31.4326555427
 11
159.228429528
 21
31.5294468402
 12
159.8065543074
 22
31.4971825592
 13
159.8065543074
 23
31.4971825592
  0
SOLID
  8
0
 62
7
  6
CONTINUOUS
 10
160.5003043074
 20
31.4649197501
 11
160.8471793074
 21
31.4971825592
 12
160.615929528
 22
31.4326555427
 13
160.615929528
 23
31.4326555427
  0
SOLID
  8
0
 62
7
  6
CONTINUOUS
 10
160.615929528
 20
31.4326555427
 11
160.8471793074
 21
31.4971825592
 12
160.6737418074
 22
31.3681283005
 13
160.6737418074
 23
31.3681283005
  0
SOLID
  8
0
 62
7
  6
CONTINUOUS
 10
160.8471793074
 20
31.4971825592
 11
160.9628038663
 21
31.3681283005
 12
160.6737418074
 22
31.3681283005
 13
160.6737418074
 23
31.3681283005
  0
SOLID
  8
0
 62
7
  6
CONTINUOUS
 10
150.2674918074
 20
31.4649197501
 11
149.7471793074
 21
31.4326554237
 12
150.498741835
 22
31.4971824493
 13
150.498741835
 23
31.4971824493
  0
SOLID
  8
0
 62
7
  6
CONTINUOUS
 10
149.7471793074
 20
31.4326554237
 11
149.8628043005
 21
31.4971824493
 12
150.498741835
 22
31.4971824493
 13
150.498741835
 23
31.4971824493
  0
SOLID
  8
0
 62
7
  6
CONTINUOUS
 10
150.2674918074
 20
31.4649197501
 11
150.1518667936
 21
31.4326554237
 12
149.7471793074
 22
31.4326554237
 13
149.7471793074
 23
31.4326554237
  0
SOLID
  8
0
 62
7
  6
CONTINUOUS
 10
149.6315543091
 20
31.3036012664
 11
149.7471793074
 21
31.4326554237
 12
150.1518667936
 22
31.4326554237
 13
150.1518667936
 23
31.4326554237
  0
SOLID
  8
0
 62
7
  6
CONTINUOUS
 10
153.9674919177
 20
31.4326554237
 11
154.6612419177
 21
31.4971825369
 12
154.4299918074
 22
31.4649197501
 13
154.4299918074
 23
31.4649197501
  0
SOLID
  8
0
 62
7
  6
CONTINUOUS
 10
154.4299918074
 20
31.4649197501
 11
154.3143669177
 21
31.4326554237
 12
153.9674919177
 22
31.4326554237
 13
153.9674919177
 23
31.4326554237
  0
SOLID
  8
0
 62
7
  6
CONTINUOUS
 10
153.9674919177
 20
31.3681283335
 11
153.9674919177
 21
31.4326554237
 12
154.3143669177
 22
31.4326554237
 13
154.3143669177
 23
31.4326554237
  0
SOLID
  8
0
 62
7
  6
CONTINUOUS
 10
154.3143669177
 20
31.4326554237
 11
154.2565543074
 21
31.3681283335
 12
153.9674919177
 22
31.3681283335
 13
153.9674919177
 23
31.3681283335
  0
SOLID
  8
0
 62
7
  6
CONTINUOUS
 10
159.1128043074
 20
31.4326555528
 11
159.8065543074
 21
31.4971825369
 12
159.575304528
 22
31.4649197501
 13
159.575304528
 23
31.4649197501
  0
SOLID
  8
0
 62
7
  6
CONTINUOUS
 10
159.575304528
 20
31.4649197501
 11
159.4596793074
 21
31.4326555528
 12
159.1128043074
 22
31.4326555528
 13
159.1128043074
 23
31.4326555528
  0
SOLID
  8
0
 62
7
  6
CONTINUOUS
 10
159.1128043074
 20
31.3681284626
 11
159.1128043074
 21
31.4326555528
 12
159.4596793074
 22
31.4326555528
 13
159.4596793074
 23
31.4326555528
  0
SOLID
  8
0
 62
7
  6
CONTINUOUS
 10
159.4596793074
 20
31.4326555528
 11
159.401867028
 21
31.3681284626
 12
159.1128043074
 22
31.3681284626
 13
159.1128043074
 23
31.3681284626
  0
SOLID
  8
0
 62
7
  6
CONTINUOUS
 10
159.228429528
 20
31.2390741763
 11
159.1128043074
 21
31.3681284626
 12
159.401867028
 22
31.3681284626
 13
159.401867028
 23
31.3681284626
  0
SOLID
  8
0
 62
7
  6
CONTINUOUS
 10
149.6315543091
 20
31.3036012664
 11
150.1518667936
 21
31.4326554468
 12
149.9784292936
 22
31.3358640533
 13
149.9784292936
 23
31.3358640533
  0
SOLID
  8
0
 62
7
  6
CONTINUOUS
 10
149.9784292936
 20
31.3358640533
 11
149.9206168074
 21
31.2713369632
 12
149.6315543091
 22
31.3036012664
 13
149.6315543091
 23
31.3036012664
  0
SOLID
  8
0
 62
7
  6
CONTINUOUS
 10
149.5737418074
 20
31.1100184796
 11
149.6315543091
 21
31.3036012664
 12
149.9206168074
 22
31.2713369632
 13
149.9206168074
 23
31.2713369632
  0
SOLID
  8
0
 62
7
  6
CONTINUOUS
 10
154.4299918074
 20
31.2390741763
 11
154.7768668074
 21
31.271336924
 12
155.412804528
 22
31.271336924
 13
155.412804528
 23
31.271336924
  0
SOLID
  8
0
 62
7
  6
CONTINUOUS
 10
154.4299918074
 20
31.2390741763
 11
155.412804528
 21
31.271336924
 12
154.1987416972
 22
31.1745462761
 13
154.1987416972
 23
31.1745462761
  0
SOLID
  8
0
 62
7
  6
CONTINUOUS
 10
154.1987416972
 20
31.1745462761
 11
155.412804528
 21
31.271336924
 12
154.7768668074
 22
31.1422827436
 13
154.7768668074
 23
31.1422827436
  0
SOLID
  8
0
 62
7
  6
CONTINUOUS
 10
155.412804528
 20
31.271336924
 11
155.412804528
 21
31.1422827436
 12
154.7768668074
 22
31.1422827436
 13
154.7768668074
 23
31.1422827436
  0
SOLID
  8
0
 62
7
  6
CONTINUOUS
 10
159.228429528
 20
31.2390745501
 11
159.401867028
 21
31.3681283566
 12
159.4596793074
 22
31.3036012664
 13
159.4596793074
 23
31.3036012664
  0
SOLID
  8
0
 62
7
  6
CONTINUOUS
 10
159.4596793074
 20
31.3036012664
 11
159.6331168074
 21
31.2390745501
 12
159.228429528
 22
31.2390745501
 13
159.228429528
 23
31.2390745501
  0
SOLID
  8
0
 62
7
  6
CONTINUOUS
 10
159.4596793074
 20
31.1422827828
 11
159.228429528
 21
31.2390745501
 12
159.6331168074
 22
31.2390745501
 13
159.6331168074
 23
31.2390745501
  0
SOLID
  8
0
 62
7
  6
CONTINUOUS
 10
159.6331168074
 20
31.2390745501
 11
160.615929528
 21
31.0777556927
 12
159.4596793074
 22
31.1422827828
 13
159.4596793074
 23
31.1422827828
  0
SOLID
  8
0
 62
7
  6
CONTINUOUS
 10
160.442492028
 20
30.9809646623
 11
159.4596793074
 21
31.1422827828
 12
160.615929528
 22
31.0777556927
 13
160.615929528
 23
31.0777556927
  0
SOLID
  8
0
 62
7
  6
CONTINUOUS
 10
160.615929528
 20
31.0777556927
 11
160.8471793074
 21
30.9809646623
 12
160.442492028
 22
30.9809646623
 13
160.442492028
 23
30.9809646623
  0
SOLID
  8
0
 62
7
  6
CONTINUOUS
 10
160.615929528
 20
30.9164372091
 11
160.442492028
 21
30.9809646623
 12
160.8471793074
 22
30.9809646623
 13
160.8471793074
 23
30.9809646623
  0
SOLID
  8
0
 62
7
  6
CONTINUOUS
 10
160.615929528
 20
30.9164372091
 11
160.8471793074
 21
30.9809646623
 12
160.6737418074
 22
30.8519089441
 13
160.6737418074
 23
30.8519089441
  0
SOLID
  8
0
 62
7
  6
CONTINUOUS
 10
160.8471793074
 20
30.9809646623
 11
160.9628038663
 21
30.8519089441
 12
160.6737418074
 22
30.8519089441
 13
160.6737418074
 23
30.8519089441
  0
SOLID
  8
0
 62
7
  6
CONTINUOUS
 10
160.615929528
 20
30.7873818593
 11
160.6737418074
 21
30.8519089441
 12
160.9628038663
 22
30.8519089441
 13
160.9628038663
 23
30.8519089441
  0
SOLID
  8
0
 62
7
  6
CONTINUOUS
 10
160.9628038663
 20
30.8519089441
 11
160.9628038663
 21
30.7873818593
 12
160.615929528
 22
30.7873818593
 13
160.615929528
 23
30.7873818593
  0
SOLID
  8
0
 62
7
  6
CONTINUOUS
 10
160.5003043074
 20
30.7551187255
 11
160.615929528
 21
30.7873818593
 12
160.9628038663
 22
30.7873818593
 13
160.9628038663
 23
30.7873818593
  0
SOLID
  8
0
 62
7
  6
CONTINUOUS
 10
160.5003043074
 20
30.7551187255
 11
160.9628038663
 21
30.7873818593
 12
160.269054528
 22
30.7228547745
 13
160.269054528
 23
30.7228547745
  0
SOLID
  8
0
 62
7
  6
CONTINUOUS
 10
160.9628038663
 20
30.7873818593
 11
160.8471793074
 21
30.6905916353
 12
160.269054528
 22
30.7228547745
 13
160.269054528
 23
30.7228547745
  0
SOLID
  8
0
 62
7
  6
CONTINUOUS
 10
160.8471793074
 20
30.6905916353
 11
159.401867028
 21
30.658327332
 12
160.269054528
 22
30.7228547745
 13
160.269054528
 23
30.7228547745
  0
SOLID
  8
0
 62
7
  6
CONTINUOUS
 10
160.269054528
 20
30.7228547745
 11
159.401867028
 21
30.658327332
 12
159.922179528
 22
30.7228547745
 13
159.922179528
 23
30.7228547745
  0
SOLID
  8
0
 62
7
  6
CONTINUOUS
 10
159.401867028
 20
30.658327332
 11
159.228429528
 21
30.7228547745
 12
159.922179528
 22
30.7228547745
 13
159.922179528
 23
30.7228547745
  0
SOLID
  8
0
 62
7
  6
CONTINUOUS
 10
159.401867028
 20
30.658327332
 11
160.8471793074
 21
30.6905916353
 12
159.575304528
 22
30.6260629858
 13
159.575304528
 23
30.6260629858
  0
SOLID
  8
0
 62
7
  6
CONTINUOUS
 10
160.8471793074
 20
30.6905916353
 11
160.615929528
 21
30.6260629858
 12
159.575304528
 22
30.6260629858
 13
159.575304528
 23
30.6260629858
  0
SOLID
  8
0
 62
7
  6
CONTINUOUS
 10
159.922179528
 20
30.5938006049
 11
159.575304528
 21
30.6260629858
 12
160.615929528
 22
30.6260629858
 13
160.615929528
 23
30.6260629858
  0
SOLID
  8
0
 62
7
  6
CONTINUOUS
 10
160.615929528
 20
30.6260629858
 11
160.269054528
 21
30.5938006049
 12
159.922179528
 22
30.5938006049
 13
159.922179528
 23
30.5938006049
  0
SOLID
  8
0
 62
7
  6
CONTINUOUS
 10
149.5737418074
 20
31.1100184796
 11
149.9206168074
 21
31.2713369632
 12
149.8628043005
 22
31.1422827828
 13
149.8628043005
 23
31.1422827828
  0
SOLID
  8
0
 62
7
  6
CONTINUOUS
 10
149.8628043005
 20
31.1422827828
 11
149.8628043005
 21
31.0454914852
 12
149.5737418074
 22
31.1100184796
 13
149.5737418074
 23
31.1100184796
  0
SOLID
  8
0
 62
7
  6
CONTINUOUS
 10
149.6315543091
 20
30.9164372091
 11
149.5737418074
 21
31.1100184796
 12
149.8628043005
 22
31.0454914852
 13
149.8628043005
 23
31.0454914852
  0
SOLID
  8
0
 62
7
  6
CONTINUOUS
 10
149.8628043005
 20
31.0454914852
 11
149.9784292936
 21
30.8841729058
 12
149.6315543091
 22
30.9164372091
 13
149.6315543091
 23
30.9164372091
  0
SOLID
  8
0
 62
7
  6
CONTINUOUS
 10
149.7471793074
 20
30.7873813202
 11
149.6315543091
 21
30.9164372091
 12
149.9784292936
 22
30.8841729058
 13
149.9784292936
 23
30.8841729058
  0
SOLID
  8
0
 62
7
  6
CONTINUOUS
 10
149.9784292936
 20
30.8841729058
 11
150.1518667936
 21
30.7873813202
 12
149.7471793074
 22
30.7873813202
 13
149.7471793074
 23
30.7873813202
  0
SOLID
  8
0
 62
7
  6
CONTINUOUS
 10
149.8628043005
 20
30.7228547004
 11
149.7471793074
 21
30.7873813202
 12
150.1518667936
 22
30.7873813202
 13
150.1518667936
 23
30.7873813202
  0
SOLID
  8
0
 62
7
  6
CONTINUOUS
 10
150.1518667936
 20
30.7873813202
 11
150.498741835
 21
30.7228547004
 12
149.8628043005
 22
30.7228547004
 13
149.8628043005
 23
30.7228547004
  0
SOLID
  8
0
 62
7
  6
CONTINUOUS
 10
150.0362418212
 20
30.658327332
 11
149.8628043005
 21
30.7228547004
 12
150.498741835
 22
30.7228547004
 13
150.498741835
 23
30.7228547004
  0
SOLID
  8
0
 62
7
  6
CONTINUOUS
 10
154.0831168074
 20
31.1100184386
 11
154.1987416972
 21
31.1745462761
 12
154.7768668074
 22
31.1422827828
 13
154.7768668074
 23
31.1422827828
  0
SOLID
  8
0
 62
7
  6
CONTINUOUS
 10
154.7768668074
 20
31.1422827828
 11
154.5456166972
 21
31.1100184386
 12
154.0831168074
 22
31.1100184386
 13
154.0831168074
 23
31.1100184386
  0
SOLID
  8
0
 62
7
  6
CONTINUOUS
 10
153.9674919177
 20
30.9809642992
 11
154.0831168074
 21
31.1100184386
 12
154.5456166972
 22
31.1100184386
 13
154.5456166972
 23
31.1100184386
  0
SOLID
  8
0
 62
7
  6
CONTINUOUS
 10
154.3143669177
 20
31.0132277988
 11
153.9674919177
 21
30.9809642992
 12
154.4299918074
 22
31.0777556927
 13
154.4299918074
 23
31.0777556927
  0
SOLID
  8
0
 62
7
  6
CONTINUOUS
 10
153.9674919177
 20
30.9809642992
 11
154.5456166972
 21
31.1100184796
 12
154.4299918074
 22
31.0777556927
 13
154.4299918074
 23
31.0777556927
  0
SOLID
  8
0
 62
7
  6
CONTINUOUS
 10
154.3143669177
 20
31.0132277988
 11
154.2565543074
 21
30.9164372091
 12
153.9674919177
 22
30.9809642992
 13
153.9674919177
 23
30.9809642992
  0
SOLID
  8
0
 62
7
  6
CONTINUOUS
 10
153.9674919177
 20
30.8841729058
 11
153.9674919177
 21
30.9809642992
 12
154.2565543074
 22
30.9164372091
 13
154.2565543074
 23
30.9164372091
  0
SOLID
  8
0
 62
7
  6
CONTINUOUS
 10
154.2565543074
 20
30.9164372091
 11
154.2565543074
 21
30.8519086025
 12
153.9674919177
 22
30.8841729058
 13
153.9674919177
 23
30.8841729058
  0
SOLID
  8
0
 62
7
  6
CONTINUOUS
 10
154.0253041972
 20
30.7551187255
 11
153.9674919177
 21
30.8841729058
 12
154.2565543074
 22
30.8519086025
 13
154.2565543074
 23
30.8519086025
  0
SOLID
  8
0
 62
7
  6
CONTINUOUS
 10
155.412804528
 20
30.9487004259
 11
155.7018665869
 21
30.8519086025
 12
155.3549915869
 22
30.8841729058
 13
155.3549915869
 23
30.8841729058
  0
SOLID
  8
0
 62
7
  6
CONTINUOUS
 10
155.1815540869
 20
30.7873815123
 11
155.3549915869
 21
30.8841729058
 12
155.7018665869
 22
30.8519086025
 13
155.7018665869
 23
30.8519086025
  0
SOLID
  8
0
 62
7
  6
CONTINUOUS
 10
155.1815540869
 20
30.7873815123
 11
155.7018665869
 21
30.8519086025
 12
155.412804528
 22
30.7551187255
 13
155.412804528
 23
30.7551187255
  0
SOLID
  8
0
 62
7
  6
CONTINUOUS
 10
155.7018665869
 20
30.8519086025
 11
155.759679528
 21
30.6905916353
 12
155.412804528
 22
30.7551187255
 13
155.412804528
 23
30.7551187255
  0
SOLID
  8
0
 62
7
  6
CONTINUOUS
 10
155.4706168074
 20
30.658327332
 11
155.412804528
 21
30.7551187255
 12
155.759679528
 22
30.6905916353
 13
155.759679528
 23
30.6905916353
  0
SOLID
  8
0
 62
7
  6
CONTINUOUS
 10
155.4706168074
 20
30.658327332
 11
155.759679528
 21
30.6905916353
 12
155.5284290869
 22
30.5938002079
 13
155.5284290869
 23
30.5938002079
  0
SOLID
  8
0
 62
7
  6
CONTINUOUS
 10
155.759679528
 20
30.6905916353
 11
155.8174918074
 21
30.5938002079
 12
155.5284290869
 22
30.5938002079
 13
155.5284290869
 23
30.5938002079
  0
SOLID
  8
0
 62
7
  6
CONTINUOUS
 10
151.0768668626
 20
30.8196456577
 11
151.1346793074
 21
30.9164373395
 12
151.4237418626
 22
30.9164373395
 13
151.4237418626
 23
30.9164373395
  0
SOLID
  8
0
 62
7
  6
CONTINUOUS
 10
151.4237418626
 20
30.9164373395
 11
151.3659292523
 21
30.7873815123
 12
151.0768668626
 22
30.8196456577
 13
151.0768668626
 23
30.8196456577
  0
SOLID
  8
0
 62
7
  6
CONTINUOUS
 10
150.9034292799
 20
30.7551187255
 11
151.0768668626
 21
30.8196456577
 12
151.3659292523
 22
30.7873815123
 13
151.3659292523
 23
30.7873815123
  0
SOLID
  8
0
 62
7
  6
CONTINUOUS
 10
150.9034292799
 20
30.7551187255
 11
151.3659292523
 21
30.7873815123
 12
150.498741835
 22
30.7228544222
 13
150.498741835
 23
30.7228544222
  0
SOLID
  8
0
 62
7
  6
CONTINUOUS
 10
151.3659292523
 20
30.7873815123
 11
151.1924917523
 21
30.6905916353
 12
150.498741835
 22
30.7228544222
 13
150.498741835
 23
30.7228544222
  0
SOLID
  8
0
 62
7
  6
CONTINUOUS
 10
150.0362418212
 20
30.658327332
 11
150.498741835
 21
30.7228544222
 12
151.1924917523
 22
30.6905916353
 13
151.1924917523
 23
30.6905916353
  0
SOLID
  8
0
 62
7
  6
CONTINUOUS
 10
150.0362418212
 20
30.658327332
 11
151.1924917523
 21
30.6905916353
 12
150.2096793212
 22
30.6260631011
 13
150.2096793212
 23
30.6260631011
  0
SOLID
  8
0
 62
7
  6
CONTINUOUS
 10
151.1924917523
 20
30.6905916353
 11
150.9612418074
 21
30.6260631011
 12
150.2096793212
 22
30.6260631011
 13
150.2096793212
 23
30.6260631011
  0
SOLID
  8
0
 62
7
  6
CONTINUOUS
 10
150.5565542799
 20
30.5938002419
 11
150.2096793212
 21
30.6260631011
 12
150.9612418074
 22
30.6260631011
 13
150.9612418074
 23
30.6260631011
  0
SOLID
  8
0
 62
7
  6
CONTINUOUS
 10
154.0253041972
 20
30.7551187255
 11
154.2565543074
 21
30.8519086025
 12
154.3143669177
 22
30.7873815123
 13
154.3143669177
 23
30.7873815123
  0
SOLID
  8
0
 62
7
  6
CONTINUOUS
 10
154.3143669177
 20
30.7873815123
 11
154.5456166972
 21
30.7228544222
 12
154.0253041972
 22
30.7551187255
 13
154.0253041972
 23
30.7551187255
  0
SOLID
  8
0
 62
7
  6
CONTINUOUS
 10
154.1987416972
 20
30.658327332
 11
154.0253041972
 21
30.7551187255
 12
154.5456166972
 22
30.7228544222
 13
154.5456166972
 23
30.7228544222
  0
SOLID
  8
0
 62
7
  6
CONTINUOUS
 10
154.8924916972
 20
30.7228544637
 11
155.1815540869
 21
30.7873815123
 12
155.412804528
 22
30.7551187255
 13
155.412804528
 23
30.7551187255
  0
SOLID
  8
0
 62
7
  6
CONTINUOUS
 10
155.412804528
 20
30.7551187255
 11
155.3549915869
 21
30.6905916353
 12
154.8924916972
 22
30.7228544637
 13
154.8924916972
 23
30.7228544637
  0
SOLID
  8
0
 62
7
  6
CONTINUOUS
 10
155.3549915869
 20
30.6905916353
 11
154.1987416972
 21
30.658327332
 12
154.8924916972
 22
30.7228544637
 13
154.8924916972
 23
30.7228544637
  0
SOLID
  8
0
 62
7
  6
CONTINUOUS
 10
154.1987416972
 20
30.658327332
 11
154.5456166972
 21
30.7228544637
 12
154.8924916972
 22
30.7228544637
 13
154.8924916972
 23
30.7228544637
  0
SOLID
  8
0
 62
7
  6
CONTINUOUS
 10
154.1987416972
 20
30.658327332
 11
155.3549915869
 21
30.6905916353
 12
154.3143669177
 22
30.6260630541
 13
154.3143669177
 23
30.6260630541
  0
SOLID
  8
0
 62
7
  6
CONTINUOUS
 10
155.3549915869
 20
30.6905916353
 11
155.1815540869
 21
30.6260630541
 12
154.3143669177
 22
30.6260630541
 13
154.3143669177
 23
30.6260630541
  0
SOLID
  8
0
 62
7
  6
CONTINUOUS
 10
154.5456166972
 20
30.5938002188
 11
154.3143669177
 21
30.6260630541
 12
155.1815540869
 22
30.6260630541
 13
155.1815540869
 23
30.6260630541
  0
SOLID
  8
0
 62
7
  6
CONTINUOUS
 10
155.1815540869
 20
30.6260630541
 11
154.8924916972
 21
30.5938002188
 12
154.5456166972
 22
30.5938002188
 13
154.5456166972
 23
30.5938002188
  0
SOLID
  8
0
 62
7
  6
CONTINUOUS
 10
159.575304528
 20
30.7551187255
 11
159.228429528
 21
30.7228544637
 12
159.4596793074
 22
30.7873815123
 13
159.4596793074
 23
30.7873815123
  0
SOLID
  8
0
 62
7
  6
CONTINUOUS
 10
159.4596793074
 20
30.7873815123
 11
159.228429528
 21
30.7228544637
 12
159.401867028
 22
30.851908644
 13
159.401867028
 23
30.851908644
  0
SOLID
  8
0
 62
7
  6
CONTINUOUS
 10
159.228429528
 20
30.7228544637
 11
159.1128043074
 21
30.851908644
 12
159.401867028
 22
30.851908644
 13
159.401867028
 23
30.851908644
  0
SOLID
  8
0
 62
7
  6
CONTINUOUS
 10
159.575304528
 20
30.7551187255
 11
159.922179528
 21
30.7228544637
 12
159.228429528
 22
30.7228544637
 13
159.228429528
 23
30.7228544637
  0
SOLID
  8
0
 62
7
  6
CONTINUOUS
 10
156.279992028
 20
30.5938002419
 11
156.279992028
 21
31.6262382337
 12
156.5690540869
 22
30.5938002419
 13
156.5690540869
 23
31.6262382337
  0
ENDBLK
  8
0
  6
BYBLOCK
 62
0
  0
BLOCK
  8
0
 62
2
  6
CONTINUOUS
  2
AMMEAAL_LOGO_BL0
 70
64
 10
32.1213064866
 20
19.8534310916
  0
TEXT
  8
0
 62
7
  6
CONTINUOUS
 10
18.3860103289
 20
19.2268451992
  7
TEXTSTYLE_3
 40
2.7338706658
  1
Ammeraal Beltech
 41
1.0
 51
15.0
 72
0
  0
TEXT
  8
0
 62
7
  6
CONTINUOUS
 10
29.1868111546
 20
16.9533085264
  7
TEXTSTYLE_4
 40
1.0935482663
  1
Innovation & Service in Belting
 41
1.0
 72
0
  0
LINE
  8
0
 62
7
  6
CONTINUOUS
 10
12.3614696776
 20
19.9934385078
 11
13.1396216709
 21
23.6543558055
  0
LINE
  8
0
 62
7
  6
CONTINUOUS
 10
23.2347899607
 20
27.3177497171
 11
13.6274394139
 21
24.1961322958
  0
LINE
  8
0
 62
7
  6
CONTINUOUS
 10
12.5867530099
 20
19.3000877048
 11
20.093828271
 21
12.5406867788
  0
LINE
  8
0
 62
7
  6
CONTINUOUS
 10
12.8492874206
 20
20.5352149982
 11
23.6575567857
 21
24.0470345971
  0
LINE
  8
0
 62
7
  6
CONTINUOUS
 10
23.6533516486
 20
13.6972460334
 11
15.2078919798
 21
21.3015720751
  0
LINE
  8
0
 62
7
  6
CONTINUOUS
 10
24.1731743684
 20
26.4728246013
 11
23.1966148312
 21
21.8784731989
  0
LINE
  8
0
 62
7
  6
CONTINUOUS
 10
22.4968128835
 20
18.5861638851
 11
21.810364672
 21
15.3566789607
  0
LINE
  8
0
 62
7
  6
CONTINUOUS
 10
24.8542704669
 20
14.087448211
 11
25.8105020025
 21
18.5861638851
  0
LINE
  8
0
 62
7
  6
CONTINUOUS
 10
26.5103039502
 20
21.8784731989
 11
26.9545457526
 21
23.9684665583
  0
LINE
  8
0
 62
7
  6
CONTINUOUS
 10
20.8069293463
 20
12.3891124661
 11
24.3664527239
 21
13.5456717207
  0
LINE
  8
0
 62
7
  6
CONTINUOUS
 10
23.9478910361
 20
27.1661754044
 11
26.7292624203
 21
24.6618173613
  0
ARC
  8
0
 62
7
  6
CONTINUOUS
 10
13.8527227462
 20
23.5027814928
 40
0.7290321776
 50
108.0
 51
168.0
  0
ARC
  8
0
 62
7
  6
CONTINUOUS
 10
23.4600732931
 20
26.624398914
 40
0.7290321776
 50
348.0
 51
108.0
  0
ARC
  8
0
 62
7
  6
CONTINUOUS
 10
26.2414446773
 20
24.120040871
 40
0.7290321776
 50
348.0
 51
48.0
  0
ARC
  8
0
 62
7
  6
CONTINUOUS
 10
20.581646014
 20
13.0824632691
 40
0.7290321776
 50
228.0
 51
288.0
  0
ARC
  8
0
 62
7
  6
CONTINUOUS
 10
13.0745707529
 20
19.8418641951
 40
0.7290321776
 50
108.0
 51
228.0
  0
ARC
  8
0
 62
7
  6
CONTINUOUS
 10
24.1411693916
 20
14.2390225237
 40
0.7290321776
 50
228.0
 51
348.0
  0
ENDBLK
  8
0
  6
BYBLOCK
 62
0
  0
ENDSEC
  0
SECTION
  2
ENTITIES
  0
TEXT
  8
0
 62
5
  6
CONTINUOUS
 10
96.0
 20
25.636
  7
TEXTSTYLE_2
 40
2.8
  1
Scale :
 41
0.6
 51
0.000019
 72
0
  0
TEXT
  8
0
 62
5
  6
CONTINUOUS
 10
116.0
 20
25.636
  7
TEXTSTYLE_2
 40
2.8
  1
Belt type:
 41
0.6
 51
0.000019
 72
0
  0
INSERT
  8
0
 62
2
  6
CONTINUOUS
  2
AMMEAAL_LOGO_BL0
 10
32.1213064866
 20
19.8534310916
  0
INSERT
  8
0
 62
2
  6
CONTINUOUS
  2
UNI_LOGO2_BL1
 10
173.5956734183
 20
35.5937998301
  0
LINE
  8
0
 62
2
  6
CONTINUOUS
 10
10.0
 20
30.0
 11
200.0
 21
30.0
  0
LINE
  8
0
 62
2
  6
CONTINUOUS
 10
10.0
 20
30.0
 11
10.0
 21
10.0
  0
LINE
  8
0
 62
2
  6
CONTINUOUS
 10
10.0
 20
10.0
 11
200.0
 21
10.0
  0
LINE
  8
0
 62
2
  6
CONTINUOUS
 10
95.0
 20
30.0
 11
95.0
 21
10.0
  0
LINE
  8
0
 62
2
  6
CONTINUOUS
 10
115.0
 20
30.0
 11
115.0
 21
10.0
  0
LINE
  8
0
 62
2
  6
CONTINUOUS
 10
200.0
 20
30.0
 11
200.0
 21
10.0
  0
TEXT
  8
0
 62
5
  6
CONTINUOUS
 10
13.0
 20
23.303
  7
TEXTSTYLE_5
 40
1.52
  1
                                                                     Ammeraal Beltech Modular A/S
 41
1.0
 72
0
  0
TEXT
  8
0
 62
5
  6
CONTINUOUS
 10
13.0
 20
20.595
  7
TEXTSTYLE_5
 40
1.5
  1
                                                                      Hjulmagervej 21,  7100 Vejle,  DK
 41
1.0
 72
0
  0
TEXT
  8
0
 62
5
  6
CONTINUOUS
 10
13.0
 20
17.881
  7
TEXTSTYLE_5
 40
1.495
  1
                                                                      tel: 
 41
1.0
 72
0
  0
TEXT
  8
0
 62
5
  6
CONTINUOUS
 10
57.9869465649
 20
17.881
  7
TEXTSTYLE_5
 40
1.51
  1
+45 75723100     fax: +45 75723348
 41
1.0
 72
0
  0
TEXT
  8
0
 62
5
  6
CONTINUOUS
 10
13.0
 20
15.177
  7
TEXTSTYLE_5
 40
1.5
  1
                                                                      admin@unichains.dk  www.unichains.com
 41
1.0
 72
0
  0
TEXT
  8
0
 62
5
  6
CONTINUOUS
 10
99.75
 20
13.75
  7
TEXTSTYLE_6
 40
5.0
  1
1:1
 41
0.7
 72
1
 11
105.0
 21
13.75
  0
TEXT
  8
0
 62
5
  6
CONTINUOUS
 10
118.0
 20
13.75
  7
TEXTSTYLE_7
 40
7.5
  1
Sprocket Z15 2,5" SQ
 41
0.48875
 72
0
  0
LINE
  8
0
 62
7
  6
CONTINUOUS
 10
210.0
 20
0.0
 11
0.0
 21
0.0
  0
LINE
  8
0
 62
7
  6
CONTINUOUS
 10
10.0
 20
10.0
 11
200.0
 21
10.0
  0
LINE
  8
0
 62
7
  6
CONTINUOUS
 10
10.0
 20
30.0
 11
200.0
 21
30.0
  0
LINE
  8
0
 62
7
  6
CONTINUOUS
 10
0.0
 20
0.0
 11
0.0
 21
297.0
  0
LINE
  8
0
 62
7
  6
CONTINUOUS
 10
10.0
 20
10.0
 11
10.0
 21
287.0
  0
LINE
  8
0
 62
7
  6
CONTINUOUS
 10
200.0
 20
287.0
 11
200.0
 21
10.0
  0
LINE
  8
0
 62
7
  6
CONTINUOUS
 10
210.0
 20
0.0
 11
210.0
 21
297.0
  0
LINE
  8
0
 62
7
  6
CONTINUOUS
 10
10.0
 20
287.0
 11
200.0
 21
287.0
  0
LINE
  8
0
 62
7
  6
CONTINUOUS
 10
0.0
 20
297.0
 11
210.0
 21
297.0
  0
LINE
  8
0
 62
7
  6
CONTINUOUS
 10
39.0340335968
 20
197.8010801643
 11
39.7065639887
 21
191.4023809093
  0
LINE
  8
0
 62
7
  6
CONTINUOUS
 10
43.0012149404
 20
222.7488908126
 11
41.01301657
 21
216.6298454194
  0
LINE
  8
0
 62
7
  6
CONTINUOUS
 10
56.7726041916
 20
243.9262518864
 11
52.4674546194
 21
239.1448988933
  0
LINE
  8
0
 62
7
  6
CONTINUOUS
 10
77.9670030398
 20
257.6714052657
 11
72.0893017379
 21
255.0544840424
  0
LINE
  8
0
 62
7
  6
CONTINUOUS
 10
109.1689745185
 20
140.9349855616
 11
115.4623224611
 21
142.2726779617
  0
LINE
  8
0
 62
7
  6
CONTINUOUS
 10
83.9431472179
 20
142.2726779617
 11
90.2364951605
 21
140.9349855616
  0
LINE
  8
0
 62
7
  6
CONTINUOUS
 10
61.4422957884
 20
153.7549890926
 11
66.6474666984
 21
149.9732110609
  0
LINE
  8
0
 62
7
  6
CONTINUOUS
 10
45.557021856
 20
173.3965230462
 11
48.7739943957
 21
167.824563161
  0
LINE
  8
QUILTS
 62
7
  6
CONTINUOUS
 10
51.8866807904
 20
204.1939831466
 11
51.8671784798
 21
203.6735149684
  0
LINE
  8
QUILTS
 62
7
  6
CONTINUOUS
 10
51.7891692559
 20
201.5916427397
 11
51.7696669495
 21
201.0711746732
  0
LINE
  8
QUILTS
 62
7
  6
CONTINUOUS
 10
53.6718871154
 20
201.5210959707
 11
53.6303096017
 21
201.0014550779
  0
LINE
  8
QUILTS
 62
7
  6
CONTINUOUS
 10
53.9036368545
 20
217.6826449747
 11
53.9540625523
 21
218.1097109702
  0
LINE
  8
QUILTS
 62
7
  6
CONTINUOUS
 10
52.2332081343
 20
207.3954682422
 11
52.1806797165
 21
206.9821257183
  0
LINE
  8
QUILTS
 62
7
  6
CONTINUOUS
 10
52.0624908327
 20
206.0521054832
 11
51.9968303292
 21
205.5354274763
  0
LINE
  8
QUILTS
 62
7
  6
CONTINUOUS
 10
53.358387025
 20
218.3390464076
 11
53.2705347679
 21
217.8147687222
  0
LINE
  8
QUILTS
 62
7
  6
CONTINUOUS
 10
51.0836730411
 20
210.2437125093
 11
50.9885051999
 21
209.7316478296
  0
LINE
  8
QUILTS
 62
7
  6
CONTINUOUS
 10
51.5114650099
 20
209.6344551152
 11
51.6066328511
 21
210.1465197949
  0
LINE
  8
QUILTS
 62
7
  6
CONTINUOUS
 10
52.6525527641
 20
209.9521343116
 11
52.5573849228
 21
209.440069632
  0
LINE
  8
QUILTS
 62
7
  6
CONTINUOUS
 10
53.6577973579
 20
219.1167343651
 11
53.358387025
 21
218.3390464076
  0
LINE
  8
QUILTS
 62
7
  6
CONTINUOUS
 10
53.9540625523
 20
218.1097109702
 11
54.2534728852
 21
218.8873989276
  0
LINE
  8
QUILTS
 62
7
  6
CONTINUOUS
 10
57.2822766366
 20
218.167787575
 11
57.057718994
 21
217.584521885
  0
LINE
  8
QUILTS
 62
7
  6
CONTINUOUS
 10
52.6028165105
 20
206.9284797066
 11
52.7608791268
 21
207.3284107274
  0
LINE
  8
QUILTS
 62
7
  6
CONTINUOUS
 10
52.3781386274
 20
207.6920634843
 11
52.2332081343
 21
207.3954682422
  0
LINE
  8
QUILTS
 62
7
  6
CONTINUOUS
 10
56.7552878875
 20
225.6432707802
 11
56.4667485732
 21
225.0888611265
  0
LINE
  8
QUILTS
 62
7
  6
CONTINUOUS
 10
55.2645010637
 20
222.7788201977
 11
54.8316926426
 21
221.9472067746
  0
LINE
  8
QUILTS
 62
7
  6
CONTINUOUS
 10
53.9442076958
 20
219.5645657922
 11
53.6577973579
 21
219.1167343651
  0
LINE
  8
QUILTS
 62
7
  6
CONTINUOUS
 10
58.854014807
 20
228.9064782389
 11
57.4657781795
 21
226.8273440282
  0
LINE
  8
QUILTS
 62
7
  6
CONTINUOUS
 10
58.3436800503
 20
226.9926842289
 11
59.442701155
 21
228.63866614
  0
LINE
  8
QUILTS
 62
7
  6
CONTINUOUS
 10
60.681334402
 20
227.8116314865
 11
59.5823132973
 21
226.1656495754
  0
LINE
  8
QUILTS
 62
7
  6
CONTINUOUS
 10
60.1131560112
 20
225.8112062234
 11
61.2121771159
 21
227.4571881345
  0
LINE
  8
QUILTS
 62
7
  6
CONTINUOUS
 10
54.2534728852
 20
218.8873989276
 11
54.5024570921
 21
219.2380197772
  0
LINE
  8
QUILTS
 62
7
  6
CONTINUOUS
 10
69.8192064377
 20
237.7098641048
 11
70.0814775406
 21
238.0506587506
  0
LINE
  8
QUILTS
 62
7
  6
CONTINUOUS
 10
70.7048830753
 20
237.5931465391
 11
70.2786584221
 21
237.123815206
  0
LINE
  8
QUILTS
 62
7
  6
CONTINUOUS
 10
69.8189335495
 20
238.3855438357
 11
69.310731183
 21
237.8519434234
  0
LINE
  8
QUILTS
 62
7
  6
CONTINUOUS
 10
59.2317054393
 20
229.2805586293
 11
58.854014807
 21
228.9064782389
  0
LINE
  8
QUILTS
 62
7
  6
CONTINUOUS
 10
65.8577473044
 20
237.0690244054
 11
64.0532226128
 21
235.3387959126
  0
LINE
  8
QUILTS
 62
7
  6
CONTINUOUS
 10
64.9461141993
 20
235.3106233822
 11
66.3746968205
 21
236.6803881557
  0
LINE
  8
QUILTS
 62
7
  6
CONTINUOUS
 10
67.4054713251
 20
235.6053520822
 11
65.9768887039
 21
234.2355873087
  0
LINE
  8
QUILTS
 62
7
  6
CONTINUOUS
 10
66.4186491174
 20
233.7748576552
 11
67.8472317387
 21
235.1446224286
  0
LINE
  8
QUILTS
 62
7
  6
CONTINUOUS
 10
70.3107979531
 20
238.7711568395
 11
69.8189335495
 21
238.3855438357
  0
LINE
  8
QUILTS
 62
7
  6
CONTINUOUS
 10
70.0814775406
 20
238.0506587506
 11
70.5733419441
 21
238.4362717545
  0
LINE
  8
QUILTS
 62
7
  6
CONTINUOUS
 10
69.3602964771
 20
236.9445505999
 11
69.7701831674
 21
237.2658945246
  0
LINE
  8
QUILTS
 62
7
  6
CONTINUOUS
 10
71.6066322928
 20
238.3001019967
 11
70.7048830753
 21
237.5931465391
  0
LINE
  8
QUILTS
 62
7
  6
CONTINUOUS
 10
70.9674271583
 20
237.2582613368
 11
71.8691763758
 21
237.9652167944
  0
LINE
  8
QUILTS
 62
7
  6
CONTINUOUS
 10
59.442701155
 20
228.63866614
 11
59.7047045191
 21
228.8394840243
  0
LINE
  8
QUILTS
 62
7
  6
CONTINUOUS
 10
71.8504854452
 20
241.864435581
 11
71.4214663284
 21
241.5691194551
  0
LINE
  8
QUILTS
 62
7
  6
CONTINUOUS
 10
73.1084574438
 20
242.6929218204
 11
72.6706516707
 21
242.410795746
  0
LINE
  8
QUILTS
 62
7
  6
CONTINUOUS
 10
66.3073178314
 20
237.3527014992
 11
65.8577473044
 21
237.0690244054
  0
LINE
  8
QUILTS
 62
7
  6
CONTINUOUS
 10
70.8682964781
 20
239.0730471011
 11
70.3107979531
 21
238.7711568395
  0
LINE
  8
QUILTS
 62
7
  6
CONTINUOUS
 10
66.3746968205
 20
236.6803881557
 11
66.6738891425
 21
236.8198784417
  0
LINE
  8
QUILTS
 62
7
  6
CONTINUOUS
 10
70.5733419441
 20
238.4362717545
 11
70.9668850426
 21
238.6096238578
  0
LINE
  8
QUILTS
 62
7
  6
CONTINUOUS
 10
93.260825673
 20
247.5587627062
 11
93.6614743621
 21
247.7149925046
  0
LINE
  8
QUILTS
 62
7
  6
CONTINUOUS
 10
93.5968333071
 20
248.2429649666
 11
93.0927915762
 21
248.0740764866
  0
LINE
  8
QUILTS
 62
7
  6
CONTINUOUS
 10
52.1806797165
 20
206.9821257183
 11
52.2336854971
 21
206.5553716916
  0
LINE
  8
QUILTS
 62
7
  6
CONTINUOUS
 10
52.6558222911
 20
206.5017256798
 11
52.6028165105
 21
206.9284797066
  0
LINE
  8
QUILTS
 62
7
  6
CONTINUOUS
 10
53.2705347679
 20
217.8147687222
 11
53.3193883247
 21
217.3494801539
  0
LINE
  8
QUILTS
 62
7
  6
CONTINUOUS
 10
55.2931539175
 20
204.1894162511
 11
55.296349563
 21
204.2747000846
  0
LINE
  8
QUILTS
 62
7
  6
CONTINUOUS
 10
57.7412468479
 20
217.8794641062
 11
57.7282472811
 21
217.5496086883
  0
LINE
  8
QUILTS
 62
7
  6
CONTINUOUS
 10
58.411774698
 20
217.8445498003
 11
58.4247742561
 21
218.1744052215
  0
LINE
  8
QUILTS
 62
7
  6
CONTINUOUS
 10
61.2938149158
 20
228.1541933632
 11
61.3210270745
 21
228.3865277785
  0
LINE
  8
QUILTS
 62
7
  6
CONTINUOUS
 10
55.3739249768
 20
205.1062593445
 11
55.4395854803
 21
205.6229373515
  0
LINE
  8
QUILTS
 62
7
  6
CONTINUOUS
 10
55.6759632478
 20
207.4829778217
 11
55.7416237137
 21
207.999655533
  0
LINE
  8
QUILTS
 62
7
  6
CONTINUOUS
 10
58.3239228779
 20
217.320273224
 11
58.411774698
 21
217.8445498003
  0
LINE
  8
QUILTS
 62
7
  6
CONTINUOUS
 10
55.9043279998
 20
208.8180362053
 11
55.999495841
 21
209.330100885
  0
LINE
  8
QUILTS
 62
7
  6
CONTINUOUS
 10
60.7663901948
 20
228.1305971548
 11
60.681334402
 21
227.8116314865
  0
LINE
  8
QUILTS
 62
7
  6
CONTINUOUS
 10
62.6243398794
 20
226.8900452988
 11
62.5392840866
 21
226.5710796304
  0
LINE
  8
QUILTS
 62
7
  6
CONTINUOUS
 10
68.0774827048
 20
235.8075443786
 11
68.1542324532
 21
236.0285178119
  0
LINE
  8
QUILTS
 62
7
  6
CONTINUOUS
 10
57.7282472811
 20
217.5496086883
 11
57.4288369482
 21
216.7719207308
  0
LINE
  8
QUILTS
 62
7
  6
CONTINUOUS
 10
58.024512545
 20
216.5425852665
 11
58.3239228779
 21
217.320273224
  0
LINE
  8
QUILTS
 62
7
  6
CONTINUOUS
 10
58.6981854729
 20
218.2923823365
 11
58.9227431156
 21
218.8756480265
  0
LINE
  8
QUILTS
 62
7
  6
CONTINUOUS
 10
63.0122832284
 20
226.130004984
 11
63.2130262817
 21
226.6222331636
  0
LINE
  8
QUILTS
 62
7
  6
CONTINUOUS
 10
69.310731183
 20
237.8519434234
 11
69.2124117541
 21
237.6396839939
  0
LINE
  8
QUILTS
 62
7
  6
CONTINUOUS
 10
69.7208870088
 20
237.4976046753
 11
69.8192064377
 21
237.7098641048
  0
LINE
  8
QUILTS
 62
7
  6
CONTINUOUS
 10
70.2786584221
 20
237.123815206
 11
70.0820214406
 21
236.6992978179
  0
LINE
  8
QUILTS
 62
7
  6
CONTINUOUS
 10
70.6068385028
 20
236.7052087325
 11
70.7051560554
 21
236.917466691
  0
LINE
  8
QUILTS
 62
7
  6
CONTINUOUS
 10
67.5574101759
 20
235.8984189194
 11
67.4054713251
 21
235.6053520822
  0
LINE
  8
QUILTS
 62
7
  6
CONTINUOUS
 10
69.1035717782
 20
234.2858649705
 11
68.9516329273
 21
233.9927981333
  0
LINE
  8
QUILTS
 62
7
  6
CONTINUOUS
 10
59.2669698724
 20
219.6388922606
 11
59.5555091866
 21
220.1933019143
  0
LINE
  8
QUILTS
 62
7
  6
CONTINUOUS
 10
60.7577561459
 20
222.5033417857
 11
61.1905651172
 21
223.3349562662
  0
LINE
  8
QUILTS
 62
7
  6
CONTINUOUS
 10
72.2632652966
 20
236.7872093773
 11
71.9846506248
 21
236.2984228808
  0
LINE
  8
QUILTS
 62
7
  6
CONTINUOUS
 10
57.7381017701
 20
216.0947527303
 11
58.024512545
 21
216.5425852665
  0
LINE
  8
QUILTS
 62
7
  6
CONTINUOUS
 10
62.5392840866
 20
226.5710796304
 11
61.4402629819
 21
224.9250977193
  0
LINE
  8
QUILTS
 62
7
  6
CONTINUOUS
 10
61.624046601
 20
224.0508707733
 11
63.0122832284
 21
226.130004984
  0
LINE
  8
QUILTS
 62
7
  6
CONTINUOUS
 10
52.7608791268
 20
207.3284107274
 11
52.8926774966
 21
207.5216701908
  0
LINE
  8
QUILTS
 62
7
  6
CONTINUOUS
 10
69.31820429
 20
233.4599750221
 11
69.6205213393
 21
233.8972286738
  0
LINE
  8
QUILTS
 62
7
  6
CONTINUOUS
 10
57.4288369482
 20
216.7719207308
 11
57.1798527413
 21
216.4212998812
  0
LINE
  8
QUILTS
 62
7
  6
CONTINUOUS
 10
70.7051560554
 20
236.917466691
 11
70.9674271583
 21
237.2582613368
  0
LINE
  8
QUILTS
 62
7
  6
CONTINUOUS
 10
72.2471946389
 20
235.9635377665
 11
72.5914453256
 21
236.3686029698
  0
LINE
  8
QUILTS
 62
7
  6
CONTINUOUS
 10
52.628603319
 20
207.9752472234
 11
52.3781386274
 21
207.6920634843
  0
LINE
  8
QUILTS
 62
7
  6
CONTINUOUS
 10
68.9516329273
 20
233.9927981333
 11
67.5230503061
 21
232.6230333599
  0
LINE
  8
QUILTS
 62
7
  6
CONTINUOUS
 10
67.5136795983
 20
231.7297465293
 11
69.31820429
 21
233.4599750221
  0
LINE
  8
QUILTS
 62
7
  6
CONTINUOUS
 10
54.2924715856
 20
219.8769651814
 11
53.9442076958
 21
219.5645657922
  0
LINE
  8
QUILTS
 62
7
  6
CONTINUOUS
 10
93.0927915762
 20
248.0740764866
 11
92.6146015342
 21
247.6939984423
  0
LINE
  8
QUILTS
 62
7
  6
CONTINUOUS
 10
71.9846506248
 20
236.2984228808
 11
71.4927880975
 21
235.912811348
  0
LINE
  8
QUILTS
 62
7
  6
CONTINUOUS
 10
71.7553321116
 20
235.5779262336
 11
72.2471946389
 21
235.9635377665
  0
LINE
  8
QUILTS
 62
7
  6
CONTINUOUS
 10
73.1489438564
 20
236.670493224
 11
73.558826794
 21
236.9918342067
  0
LINE
  8
QUILTS
 62
7
  6
CONTINUOUS
 10
61.2121771159
 20
227.4571881345
 11
61.47418048
 21
227.6580060188
  0
LINE
  8
QUILTS
 62
7
  6
CONTINUOUS
 10
54.5024570921
 20
219.2380197772
 11
54.8132944225
 21
219.4532074764
  0
LINE
  8
QUILTS
 62
7
  6
CONTINUOUS
 10
74.2564924852
 20
237.4505485027
 11
74.685511602
 21
237.7458646286
  0
LINE
  8
QUILTS
 62
7
  6
CONTINUOUS
 10
75.3790537194
 20
238.2078731507
 11
75.8168594925
 21
238.489999225
  0
LINE
  8
QUILTS
 62
7
  6
CONTINUOUS
 10
61.4979746458
 20
228.2683799945
 11
61.2938149158
 21
228.1541933632
  0
LINE
  8
QUILTS
 62
7
  6
CONTINUOUS
 10
67.8472317387
 20
235.1446224286
 11
68.1464240607
 21
235.2841127146
  0
LINE
  8
QUILTS
 62
7
  6
CONTINUOUS
 10
71.3617871311
 20
235.4045726666
 11
71.7553321116
 21
235.5779262336
  0
LINE
  8
QUILTS
 62
7
  6
CONTINUOUS
 10
94.9410597483
 20
245.8352860614
 11
94.5404063261
 21
245.6790556835
  0
LINE
  8
QUILTS
 62
7
  6
CONTINUOUS
 10
59.7284986849
 20
229.4498579999
 11
59.2317054393
 21
229.2805586293
  0
LINE
  8
QUILTS
 62
7
  6
CONTINUOUS
 10
94.6050473902
 20
245.1510831476
 11
95.1090938531
 21
245.3199722163
  0
LINE
  8
QUILTS
 62
7
  6
CONTINUOUS
 10
68.3014859244
 20
235.8749412607
 11
68.0774827048
 21
235.8075443786
  0
LINE
  8
QUILTS
 62
7
  6
CONTINUOUS
 10
52.2336854971
 20
206.5553716916
 11
52.4053576371
 21
206.2185422363
  0
LINE
  8
QUILTS
 62
7
  6
CONTINUOUS
 10
53.9899165423
 20
217.3145669839
 11
53.9036368545
 21
217.6826449747
  0
LINE
  8
QUILTS
 62
7
  6
CONTINUOUS
 10
63.2130262817
 20
226.6222331636
 11
63.1789767901
 21
227.1459759017
  0
LINE
  8
QUILTS
 62
7
  6
CONTINUOUS
 10
69.2124117541
 20
237.6396839939
 11
69.1797301993
 21
237.3437047641
  0
LINE
  8
QUILTS
 62
7
  6
CONTINUOUS
 10
69.6205213393
 20
233.8972286738
 11
69.7003940812
 21
234.4159638361
  0
LINE
  8
QUILTS
 62
7
  6
CONTINUOUS
 10
72.5914453256
 20
236.3686029698
 11
72.7061045765
 21
236.7288513007
  0
LINE
  8
QUILTS
 62
7
  6
CONTINUOUS
 10
92.8860334058
 20
247.1913439231
 11
93.260825673
 21
247.5587627062
  0
LINE
  8
QUILTS
 62
7
  6
CONTINUOUS
 10
57.3898382826
 20
215.7823544636
 11
57.7381017701
 21
216.0947527303
  0
LINE
  8
QUILTS
 62
7
  6
CONTINUOUS
 10
95.2253871847
 20
246.0844516705
 11
94.9410597483
 21
245.8352860614
  0
LINE
  8
QUILTS
 62
7
  6
CONTINUOUS
 10
95.1090938531
 20
245.3199722163
 11
95.5872838917
 21
245.7000502883
  0
LINE
  8
QUILTS
 62
7
  6
CONTINUOUS
 10
52.8659358873
 20
208.1550951838
 11
52.628603319
 21
207.9752472234
  0
LINE
  8
QUILTS
 62
7
  6
CONTINUOUS
 10
57.1798527413
 20
216.4212998812
 11
56.8690153414
 21
216.2061122088
  0
LINE
  8
QUILTS
 62
7
  6
CONTINUOUS
 10
54.8392935561
 20
220.1129183122
 11
54.2924715856
 21
219.8769651814
  0
LINE
  8
QUILTS
 62
7
  6
CONTINUOUS
 10
52.4053576371
 20
206.2185422363
 11
52.5901618252
 21
205.9850479685
  0
LINE
  8
QUILTS
 62
7
  6
CONTINUOUS
 10
52.8274944311
 20
206.1648962245
 11
52.6558222911
 21
206.5017256798
  0
LINE
  8
QUILTS
 62
7
  6
CONTINUOUS
 10
53.3193883247
 20
217.3494801539
 11
53.5668003905
 21
216.8077464397
  0
LINE
  8
QUILTS
 62
7
  6
CONTINUOUS
 10
67.5605331887
 20
236.1961806283
 11
67.5574101759
 21
235.8984189194
  0
LINE
  8
QUILTS
 62
7
  6
CONTINUOUS
 10
69.1066947394
 20
234.5836267332
 11
69.1035717782
 21
234.2858649705
  0
LINE
  8
QUILTS
 62
7
  6
CONTINUOUS
 10
70.0820214406
 20
236.6992978179
 11
70.0493399778
 21
236.4033184709
  0
LINE
  8
QUILTS
 62
7
  6
CONTINUOUS
 10
70.5741550717
 20
236.4092280317
 11
70.6068385028
 21
236.7052087325
  0
LINE
  8
QUILTS
 62
7
  6
CONTINUOUS
 10
72.3122885209
 20
237.2311790162
 11
72.2632652966
 21
236.7872093773
  0
LINE
  8
QUILTS
 62
7
  6
CONTINUOUS
 10
85.9851951072
 20
243.9710760157
 11
88.4057221784
 21
248.4171173769
  0
LINE
  8
QUILTS
 62
7
  6
CONTINUOUS
 10
90.027166516
 20
249.4880935163
 11
89.55978226
 21
248.6356110268
  0
LINE
  8
QUILTS
 62
7
  6
CONTINUOUS
 10
89.7261363638
 20
247.8009636227
 11
90.1935205615
 21
248.6534464045
  0
LINE
  8
QUILTS
 62
7
  6
CONTINUOUS
 10
87.8465984249
 20
248.4797191893
 11
85.3258577017
 21
244.0052597481
  0
LINE
  8
0
 62
7
  6
CONTINUOUS
 10
95.8390315343
 20
241.9805023894
 11
58.6651575393
 21
204.8066283943
  0
LINE
  8
QUILTS
 62
7
  6
CONTINUOUS
 10
52.8926774966
 20
207.5216701908
 11
53.130010065
 21
207.7015181512
  0
LINE
  8
QUILTS
 62
7
  6
CONTINUOUS
 10
58.9227431156
 20
218.8756480265
 11
58.2392152616
 21
218.5807058054
  0
LINE
  8
QUILTS
 62
7
  6
CONTINUOUS
 10
57.6923932216
 20
218.3447527013
 11
57.2822766366
 21
218.167787575
  0
LINE
  8
QUILTS
 62
7
  6
CONTINUOUS
 10
58.4247742561
 20
218.1744052215
 11
58.6981854729
 21
218.2923823365
  0
LINE
  8
QUILTS
 62
7
  6
CONTINUOUS
 10
57.057718994
 20
217.584521885
 11
57.7412468479
 21
217.8794641062
  0
LINE
  8
QUILTS
 62
7
  6
CONTINUOUS
 10
56.8430162773
 20
215.5464013462
 11
57.3898382826
 21
215.7823544636
  0
LINE
  8
0
 62
7
  6
CONTINUOUS
 10
58.6651575393
 20
197.079221784
 11
95.8390315343
 21
159.905347789
  0
LINE
  8
QUILTS
 62
7
  6
CONTINUOUS
 10
53.0122986192
 20
205.9314019567
 11
52.8274944311
 21
206.1648962245
  0
LINE
  8
QUILTS
 62
7
  6
CONTINUOUS
 10
58.2392152616
 20
218.5807058054
 11
58.1155094429
 21
218.8515732187
  0
LINE
  8
QUILTS
 62
7
  6
CONTINUOUS
 10
60.7051285678
 20
228.4220054621
 11
60.7663901948
 21
228.1305971548
  0
LINE
  8
QUILTS
 62
7
  6
CONTINUOUS
 10
62.5630781905
 20
227.1814536474
 11
62.6243398794
 21
226.8900452988
  0
LINE
  8
QUILTS
 62
7
  6
CONTINUOUS
 10
95.3933886262
 20
246.4265525849
 11
95.2253871847
 21
246.0844516705
  0
LINE
  8
QUILTS
 62
7
  6
CONTINUOUS
 10
95.5872838917
 20
245.7000502883
 11
95.8457549015
 21
246.1604049192
  0
LINE
  8
QUILTS
 62
7
  6
CONTINUOUS
 10
54.2059625683
 20
203.5858790755
 11
54.4717808332
 21
203.3977980125
  0
LINE
  8
QUILTS
 62
7
  6
CONTINUOUS
 10
53.5668003905
 20
216.8077464397
 11
53.8890647184
 21
216.4604338806
  0
LINE
  8
QUILTS
 62
7
  6
CONTINUOUS
 10
54.2129018937
 20
217.0054768906
 11
53.9899165423
 21
217.3145669839
  0
LINE
  8
QUILTS
 62
7
  6
CONTINUOUS
 10
57.4694081483
 20
218.6538426875
 11
57.6923932216
 21
218.3447527013
  0
LINE
  8
QUILTS
 62
7
  6
CONTINUOUS
 10
61.3210270745
 20
228.3865277785
 11
61.1406615103
 21
228.8827151228
  0
LINE
  8
QUILTS
 62
7
  6
CONTINUOUS
 10
63.1789767901
 20
227.1459759017
 11
62.9986111949
 21
227.6421632667
  0
LINE
  8
QUILTS
 62
7
  6
CONTINUOUS
 10
69.1797301993
 20
237.3437047641
 11
69.2290244816
 21
237.1119931424
  0
LINE
  8
QUILTS
 62
7
  6
CONTINUOUS
 10
68.1542324532
 20
236.0285178119
 11
68.0852910973
 21
236.5519494759
  0
LINE
  8
QUILTS
 62
7
  6
CONTINUOUS
 10
69.7003940812
 20
234.4159638361
 11
69.6314526995
 21
234.939395527
  0
LINE
  8
0
 62
7
  6
CONTINUOUS
 10
83.4212441194
 20
145.3440514843
 11
83.4380314373
 21
145.1297260518
  0
LINE
  8
0
 62
7
  6
CONTINUOUS
 10
95.3976708118
 20
258.9180938019
 11
95.336689574
 21
258.7119421739
  0
LINE
  8
0
 62
7
  6
CONTINUOUS
 10
62.2147537397
 20
156.7731055371
 11
62.1429157107
 21
156.5704814945
  0
LINE
  8
0
 62
7
  6
CONTINUOUS
 10
119.3504886561
 20
255.6569044136
 11
119.2109301022
 21
255.4933788342
  0
LINE
  8
0
 62
7
  6
CONTINUOUS
 10
47.4902758597
 20
175.8395226607
 11
47.3422339318
 21
175.6836355457
  0
LINE
  8
0
 62
7
  6
CONTINUOUS
 10
139.9060313713
 20
242.9351709392
 11
139.7120264431
 21
242.8425464667
  0
LINE
  8
QUILTS
 62
7
  6
CONTINUOUS
 10
55.296349563
 20
204.2747000846
 11
55.0798323538
 21
204.1785731698
  0
LINE
  8
0
 62
7
  6
CONTINUOUS
 10
41.7938064726
 20
199.2465461215
 11
41.5951584399
 21
199.1643502324
  0
LINE
  8
0
 62
7
  6
CONTINUOUS
 10
51.6472979594
 20
168.22704592
 11
51.8563211251
 21
168.2773104328
  0
LINE
  8
0
 62
7
  6
CONTINUOUS
 10
156.698911202
 20
190.5622908962
 11
156.9103077849
 21
190.6013893595
  0
LINE
  8
0
 62
7
  6
CONTINUOUS
 10
42.4951618941
 20
190.6013893595
 11
42.7065584769
 21
190.5622908962
  0
LINE
  8
0
 62
7
  6
CONTINUOUS
 10
147.5491485538
 20
168.2773104328
 11
147.7581717195
 21
168.22704592
  0
LINE
  8
0
 62
7
  6
CONTINUOUS
 10
43.2347349055
 20
214.7638782766
 11
43.4119525158
 21
214.6421773166
  0
LINE
  8
0
 62
7
  6
CONTINUOUS
 10
130.1263063034
 20
151.6405115014
 11
130.2968140477
 21
151.5095752032
  0
LINE
  8
QUILTS
 62
7
  6
CONTINUOUS
 10
58.1155094429
 20
218.8515732187
 11
57.7932450455
 21
219.1988858046
  0
LINE
  8
0
 62
7
  6
CONTINUOUS
 10
53.7381381012
 20
236.5365988282
 11
53.8505342042
 21
236.353338573
  0
LINE
  8
0
 62
7
  6
CONTINUOUS
 10
107.4429521574
 20
143.5285477776
 11
107.5454621423
 21
143.3395797696
  0
LINE
  8
QUILTS
 62
7
  6
CONTINUOUS
 10
69.7701831674
 20
237.2658945246
 11
69.7208870088
 21
237.4976046753
  0
LINE
  8
QUILTS
 62
7
  6
CONTINUOUS
 10
70.0493399778
 20
236.4033184709
 11
70.1479285422
 21
235.9398952276
  0
LINE
  8
QUILTS
 62
7
  6
CONTINUOUS
 10
72.2629923624
 20
237.4628891668
 11
72.3122885209
 21
237.2311790162
  0
LINE
  8
QUILTS
 62
7
  6
CONTINUOUS
 10
72.7061045765
 20
236.7288513007
 11
72.656808395
 21
236.9605614807
  0
LINE
  8
0
 62
7
  6
CONTINUOUS
 10
72.1892376482
 20
252.1548498319
 11
72.2173779365
 21
251.9417176447
  0
LINE
  8
0
 62
7
  6
CONTINUOUS
 10
83.4355934905
 20
144.3378202653
 11
83.3524750465
 21
143.0988387918
  0
LINE
  8
0
 62
7
  6
CONTINUOUS
 10
95.7362292375
 20
260.9223894765
 11
95.559932611
 21
259.6932014246
  0
LINE
  8
QUILTS
 62
7
  6
CONTINUOUS
 10
95.458001768
 20
246.7559953232
 11
95.3933886262
 21
246.4265525849
  0
LINE
  8
QUILTS
 62
7
  6
CONTINUOUS
 10
95.8457549015
 20
246.1604049192
 11
95.987899921
 21
246.7136948184
  0
LINE
  8
0
 62
7
  6
CONTINUOUS
 10
61.8185914342
 20
155.8480311627
 11
61.238719792
 21
154.7499725823
  0
LINE
  8
0
 62
7
  6
CONTINUOUS
 10
120.4749976625
 20
257.3502155053
 11
119.8139868582
 21
256.299002642
  0
LINE
  8
0
 62
7
  6
CONTINUOUS
 10
46.7521019394
 20
175.1555588942
 11
45.7757421737
 21
174.3882875111
  0
LINE
  8
0
 62
7
  6
CONTINUOUS
 10
141.6220531352
 20
244.024708577
 11
140.5906229263
 21
243.3332351563
  0
LINE
  8
0
 62
7
  6
CONTINUOUS
 10
158.93901271
 20
190.7285871799
 11
157.6981302634
 21
190.6817414629
  0
LINE
  8
0
 62
7
  6
CONTINUOUS
 10
41.7073394155
 20
190.6817414629
 11
40.466456969
 21
190.7285871799
  0
LINE
  8
0
 62
7
  6
CONTINUOUS
 10
149.6632219033
 20
167.51809828
 11
148.510565511
 21
167.9800149487
  0
LINE
  8
0
 62
7
  6
CONTINUOUS
 10
42.5477054036
 20
215.1577198459
 11
41.4331567508
 21
215.7052278987
  0
LINE
  8
QUILTS
 62
7
  6
CONTINUOUS
 10
53.8890647184
 20
216.4604338806
 11
54.3480351383
 21
216.1721103314
  0
LINE
  8
QUILTS
 62
7
  6
CONTINUOUS
 10
54.5725927809
 20
216.7553760214
 11
54.2129018937
 21
217.0054768906
  0
LINE
  8
0
 62
7
  6
CONTINUOUS
 10
131.7488090065
 20
150.0870655904
 11
130.8836834303
 21
150.9778750565
  0
LINE
  8
0
 62
7
  6
CONTINUOUS
 10
52.4751959466
 20
238.1293323504
 11
53.2706952183
 21
237.1758310782
  0
LINE
  8
QUILTS
 62
7
  6
CONTINUOUS
 10
60.497550845
 20
228.6858583912
 11
60.7051285678
 21
228.4220054621
  0
LINE
  8
QUILTS
 62
7
  6
CONTINUOUS
 10
61.1406615103
 20
228.8827151228
 11
60.9330837875
 21
229.1465680518
  0
LINE
  8
QUILTS
 62
7
  6
CONTINUOUS
 10
62.3555004676
 20
227.4453065765
 11
62.5630781905
 21
227.1814536474
  0
LINE
  8
QUILTS
 62
7
  6
CONTINUOUS
 10
62.9986111949
 20
227.6421632667
 11
62.7910334101
 21
227.9060162371
  0
LINE
  8
QUILTS
 62
7
  6
CONTINUOUS
 10
67.4148420844
 20
236.498638859
 11
67.5605331887
 21
236.1961806283
  0
LINE
  8
QUILTS
 62
7
  6
CONTINUOUS
 10
68.0852910973
 20
236.5519494759
 11
67.9395999929
 21
236.8544077066
  0
LINE
  8
QUILTS
 62
7
  6
CONTINUOUS
 10
68.9610036351
 20
234.8860849639
 11
69.1066947394
 21
234.5836267332
  0
LINE
  8
QUILTS
 62
7
  6
CONTINUOUS
 10
69.6314526995
 20
234.939395527
 11
69.4857615436
 21
235.2418538115
  0
LINE
  8
0
 62
7
  6
CONTINUOUS
 10
107.8653320683
 20
142.6151462332
 11
108.2933387568
 21
141.4494730191
  0
LINE
  8
QUILTS
 62
7
  6
CONTINUOUS
 10
70.689087228
 20
236.0937966098
 11
70.5741550717
 21
236.4092280317
  0
LINE
  8
0
 62
7
  6
CONTINUOUS
 10
71.6833056657
 20
254.1235691587
 11
72.0222065053
 21
252.9289436993
  0
LINE
  8
QUILTS
 62
7
  6
CONTINUOUS
 10
57.7932450455
 20
219.1988858046
 11
57.3342749037
 21
219.4872092467
  0
LINE
  8
QUILTS
 62
7
  6
CONTINUOUS
 10
57.1097172611
 20
218.9039435567
 11
57.4694081483
 21
218.6538426875
  0
LINE
  8
1_AXIS
 62
2
  6
CONTINUOUS
 10
99.7027348395
 20
201.8229250892
 11
99.7027348395
 21
200.0629250892
  0
LINE
  8
1_AXIS
 62
2
  6
CENTER
 10
99.7027348395
 20
196.5429250892
 11
99.7027348395
 21
138.1929250892
  0
LINE
  8
1_AXIS
 62
2
  6
CENTER
 10
99.7027348395
 20
205.3429250892
 11
99.7027348395
 21
263.6929250892
  0
LINE
  8
QUILTS
 62
7
  6
CONTINUOUS
 10
140.1312872601
 20
229.5697622437
 11
135.9413725362
 21
226.841280137
  0
LINE
  8
QUILTS
 62
7
  6
CONTINUOUS
 10
136.2824327995
 20
226.3175407966
 11
138.1545223836
 21
227.5366498402
  0
LINE
  8
QUILTS
 62
7
  6
CONTINUOUS
 10
138.6894050505
 20
227.8849666634
 11
140.0266119676
 21
228.7557588839
  0
LINE
  8
QUILTS
 62
7
  6
CONTINUOUS
 10
143.3650377985
 20
219.4160828728
 11
142.668275606
 21
219.1532675673
  0
LINE
  8
QUILTS
 62
7
  6
CONTINUOUS
 10
143.3497760625
 20
218.8536769064
 11
143.5488509747
 21
218.9287669937
  0
LINE
  8
QUILTS
 62
7
  6
CONTINUOUS
 10
142.2916278878
 20
218.3432146287
 11
142.5902402561
 21
218.4558497597
  0
LINE
  8
0
 62
7
  6
CONTINUOUS
 10
141.8561365331
 20
204.9421140051
 11
140.7403121397
 21
204.8066283943
  0
LINE
  8
1_AXIS
 62
2
  6
CONTINUOUS
 10
100.5827348395
 20
200.9429250892
 11
98.8227348395
 21
200.9429250892
  0
LINE
  8
1_AXIS
 62
2
  6
CENTER
 10
95.3027348395
 20
200.9429250892
 11
36.9527348395
 21
200.9429250892
  0
LINE
  8
1_AXIS
 62
2
  6
CENTER
 10
104.1027348395
 20
200.9429250892
 11
162.4527348395
 21
200.9429250892
  0
LINE
  8
QUILTS
 62
7
  6
CONTINUOUS
 10
51.7696669495
 20
201.0711746732
 11
53.6303096017
 21
201.0014550779
  0
LINE
  8
QUILTS
 62
7
  6
CONTINUOUS
 10
53.6718871154
 20
201.5210959707
 11
51.7891692559
 21
201.5916427397
  0
LINE
  8
QUILTS
 62
7
  6
CONTINUOUS
 10
51.9968303292
 20
205.5354274763
 11
55.3739249768
 21
205.1062593445
  0
LINE
  8
QUILTS
 62
7
  6
CONTINUOUS
 10
55.4395854803
 20
205.6229373515
 11
53.0122986192
 21
205.9314019567
  0
LINE
  8
QUILTS
 62
7
  6
CONTINUOUS
 10
52.5901618252
 20
205.9850479685
 11
52.0624908327
 21
206.0521054832
  0
LINE
  8
QUILTS
 62
7
  6
CONTINUOUS
 10
50.9885051999
 20
209.7316478296
 11
51.5114650099
 21
209.6344551152
  0
LINE
  8
QUILTS
 62
7
  6
CONTINUOUS
 10
52.5573849228
 20
209.440069632
 11
55.9043279998
 21
208.8180362053
  0
LINE
  8
QUILTS
 62
7
  6
CONTINUOUS
 10
55.999495841
 20
209.330100885
 11
52.6525527641
 21
209.9521343116
  0
LINE
  8
QUILTS
 62
7
  6
CONTINUOUS
 10
51.6066328511
 20
210.1465197949
 11
51.0836730411
 21
210.2437125093
  0
LINE
  8
QUILTS
 62
7
  6
CONTINUOUS
 10
54.3480351383
 20
216.1721103314
 11
55.8372240956
 21
215.5987716842
  0
LINE
  8
QUILTS
 62
7
  6
CONTINUOUS
 10
56.0617817382
 20
216.1820373742
 11
54.5725927809
 21
216.7553760214
  0
LINE
  8
QUILTS
 62
7
  6
CONTINUOUS
 10
54.8316926426
 20
221.9472067746
 11
59.2669698724
 21
219.6388922606
  0
LINE
  8
QUILTS
 62
7
  6
CONTINUOUS
 10
59.5555091866
 20
220.1933019143
 11
55.6864374932
 21
222.2069380148
  0
LINE
  8
QUILTS
 62
7
  6
CONTINUOUS
 10
57.4657781795
 20
226.8273440282
 11
61.624046601
 21
224.0508707733
  0
LINE
  8
QUILTS
 62
7
  6
CONTINUOUS
 10
61.4402629819
 20
224.9250977193
 11
60.1131560112
 21
225.8112062234
  0
LINE
  8
QUILTS
 62
7
  6
CONTINUOUS
 10
59.5823132973
 20
226.1656495754
 11
58.3436800503
 21
226.9926842289
  0
LINE
  8
QUILTS
 62
7
  6
CONTINUOUS
 10
64.0532226128
 20
235.3387959126
 11
67.5136795983
 21
231.7297465293
  0
LINE
  8
QUILTS
 62
7
  6
CONTINUOUS
 10
67.5230503061
 20
232.6230333599
 11
66.4186491174
 21
233.7748576552
  0
LINE
  8
QUILTS
 62
7
  6
CONTINUOUS
 10
65.9768887039
 20
234.2355873087
 11
64.9461141993
 21
235.3106233822
  0
LINE
  8
QUILTS
 62
7
  6
CONTINUOUS
 10
69.2290244816
 20
237.1119931424
 11
69.3602964771
 21
236.9445505999
  0
LINE
  8
QUILTS
 62
7
  6
CONTINUOUS
 10
70.1479285422
 20
235.9398952276
 11
70.3448365355
 21
235.6887314138
  0
LINE
  8
QUILTS
 62
7
  6
CONTINUOUS
 10
70.8203592695
 20
235.9263540086
 11
70.689087228
 21
236.0937966098
  0
LINE
  8
QUILTS
 62
7
  6
CONTINUOUS
 10
71.4214663284
 20
241.5691194551
 11
74.2564924852
 21
237.4505485027
  0
LINE
  8
QUILTS
 62
7
  6
CONTINUOUS
 10
74.685511602
 20
237.7458646286
 11
71.8504854452
 21
241.864435581
  0
LINE
  8
QUILTS
 62
7
  6
CONTINUOUS
 10
72.6706516707
 20
242.410795746
 11
75.3790537194
 21
238.2078731507
  0
LINE
  8
QUILTS
 62
7
  6
CONTINUOUS
 10
75.8168594925
 20
238.489999225
 11
73.1084574438
 21
242.6929218204
  0
LINE
  8
QUILTS
 62
7
  6
CONTINUOUS
 10
84.1939543465
 20
247.9968091168
 11
84.339070143
 21
247.4850720826
  0
LINE
  8
QUILTS
 62
7
  6
CONTINUOUS
 10
85.3258577017
 20
244.0052597481
 11
85.5580429965
 21
243.1864804217
  0
LINE
  8
QUILTS
 62
7
  6
CONTINUOUS
 10
89.55978226
 20
248.6356110268
 11
89.7261363638
 21
247.8009636227
  0
LINE
  8
QUILTS
 62
7
  6
CONTINUOUS
 10
90.1935205615
 20
248.6534464045
 11
91.0044966497
 21
244.5845411499
  0
LINE
  8
QUILTS
 62
7
  6
CONTINUOUS
 10
91.6174406955
 20
244.7067074166
 11
90.6401105618
 21
249.610259783
  0
LINE
  8
QUILTS
 62
7
  6
CONTINUOUS
 10
91.8261343919
 20
249.8481885113
 11
92.1622679142
 21
247.1027314133
  0
LINE
  8
QUILTS
 62
7
  6
CONTINUOUS
 10
92.6146015342
 20
247.6939984423
 11
92.4077501219
 21
249.3835106164
  0
LINE
  8
0
 62
7
  6
CONTINUOUS
 10
103.7019237554
 20
158.7895233955
 11
103.5664381446
 21
159.905347789
  0
LINE
  8
QUILTS
 62
7
  6
CONTINUOUS
 10
140.912815466
 20
226.2251921449
 11
140.6453738828
 21
226.0510335707
  0
LINE
  8
QUILTS
 62
7
  6
CONTINUOUS
 10
140.8972870349
 20
225.4692414263
 11
141.2538757293
 21
225.7014528044
  0
LINE
  8
QUILTS
 62
7
  6
CONTINUOUS
 10
142.668275606
 20
219.1532675673
 11
142.0082772556
 21
218.7929854642
  0
LINE
  8
QUILTS
 62
7
  6
CONTINUOUS
 10
143.5093128684
 20
216.019252518
 11
143.2107005001
 21
215.9066173871
  0
LINE
  8
QUILTS
 62
7
  6
CONTINUOUS
 10
143.2949762202
 20
215.3817564644
 11
143.79266364
 21
215.5694817352
  0
LINE
  8
QUILTS
 62
7
  6
CONTINUOUS
 10
51.8671784798
 20
203.6735149684
 11
54.2059625683
 21
203.5858790755
  0
LINE
  8
QUILTS
 62
7
  6
CONTINUOUS
 10
54.6506983968
 20
204.0904134531
 11
51.8866807904
 21
204.1939831466
  0
LINE
  8
QUILTS
 62
7
  6
CONTINUOUS
 10
53.6708131807
 20
207.7377964152
 11
55.6759632478
 21
207.4829778217
  0
LINE
  8
QUILTS
 62
7
  6
CONTINUOUS
 10
55.7416237137
 20
207.999655533
 11
53.7364736466
 21
208.2544741265
  0
LINE
  8
QUILTS
 62
7
  6
CONTINUOUS
 10
55.6205283038
 20
219.4772822039
 11
57.1097172611
 21
218.9039435567
  0
LINE
  8
QUILTS
 62
7
  6
CONTINUOUS
 10
57.3342749037
 20
219.4872092467
 11
55.8450859464
 21
220.0605478939
  0
LINE
  8
QUILTS
 62
7
  6
CONTINUOUS
 10
56.4667485732
 20
225.0888611265
 11
60.2414526112
 21
223.1243381293
  0
LINE
  8
QUILTS
 62
7
  6
CONTINUOUS
 10
61.1905651172
 20
223.3349562662
 11
56.7552878875
 21
225.6432707802
  0
LINE
  8
QUILTS
 62
7
  6
CONTINUOUS
 10
60.3206032737
 20
228.8040061752
 11
60.497550845
 21
228.6858583912
  0
LINE
  8
QUILTS
 62
7
  6
CONTINUOUS
 10
62.0900791107
 20
227.6225282525
 11
62.3555004676
 21
227.4453065765
  0
LINE
  8
QUILTS
 62
7
  6
CONTINUOUS
 10
62.7910334101
 20
227.9060162371
 11
62.3486644819
 21
228.2013856971
  0
LINE
  8
QUILTS
 62
7
  6
CONTINUOUS
 10
60.9330837875
 20
229.1465680518
 11
60.579188397
 21
229.3828637853
  0
LINE
  8
QUILTS
 62
7
  6
CONTINUOUS
 10
67.2675886132
 20
236.6522154102
 11
67.4148420844
 21
236.498638859
  0
LINE
  8
QUILTS
 62
7
  6
CONTINUOUS
 10
68.7401234283
 20
235.1164497907
 11
68.9610036351
 21
234.8860849639
  0
LINE
  8
QUILTS
 62
7
  6
CONTINUOUS
 10
69.4857615436
 20
235.2418538115
 11
69.1176278656
 21
235.6257951895
  0
LINE
  8
QUILTS
 62
7
  6
CONTINUOUS
 10
67.9395999929
 20
236.8544077066
 11
67.6450928443
 21
237.1615610241
  0
LINE
  8
QUILTS
 62
7
  6
CONTINUOUS
 10
71.4097242995
 20
238.5512658105
 11
71.6066322928
 21
238.3001019967
  0
LINE
  8
QUILTS
 62
7
  6
CONTINUOUS
 10
71.8691763758
 20
237.9652167944
 11
72.2629923624
 21
237.4628891668
  0
LINE
  8
QUILTS
 62
7
  6
CONTINUOUS
 10
72.8697870919
 20
237.5330692191
 11
71.8196109898
 21
238.8726097352
  0
LINE
  8
QUILTS
 62
7
  6
CONTINUOUS
 10
89.5666487132
 20
244.3232205297
 11
89.3925097371
 21
244.9373050425
  0
LINE
  8
QUILTS
 62
7
  6
CONTINUOUS
 10
88.4057221784
 20
248.4171173769
 11
88.2025600633
 21
249.1335492248
  0
LINE
  8
QUILTS
 62
7
  6
CONTINUOUS
 10
95.432145346
 20
246.967184308
 11
95.458001768
 21
246.7559953232
  0
LINE
  8
QUILTS
 62
7
  6
CONTINUOUS
 10
95.406195664
 20
249.7506181783
 11
95.341554609
 21
250.2785906403
  0
LINE
  8
QUILTS
 62
7
  6
CONTINUOUS
 10
95.987899921
 20
246.7136948184
 11
95.936187077
 21
247.136072788
  0
LINE
  8
0
 62
7
  6
CONTINUOUS
 10
95.7035459235
 20
243.0963267828
 11
95.8390315343
 21
241.9805023894
  0
LINE
  8
QUILTS
 62
7
  6
CONTINUOUS
 10
144.0985639726
 20
219.5814314333
 11
143.3650377985
 21
219.4160828728
  0
LINE
  8
QUILTS
 62
7
  6
CONTINUOUS
 10
55.0798323538
 20
204.1785731698
 11
54.6506983968
 21
204.0904134531
  0
LINE
  8
QUILTS
 62
7
  6
CONTINUOUS
 10
143.5488509747
 20
218.9287669937
 11
144.1828396927
 21
219.0565705105
  0
LINE
  8
QUILTS
 62
7
  6
CONTINUOUS
 10
53.130010065
 20
207.7015181512
 11
53.6708131807
 21
207.7377964152
  0
LINE
  8
QUILTS
 62
7
  6
CONTINUOUS
 10
53.7364736466
 20
208.2544741265
 11
53.195670606
 21
208.2181964538
  0
LINE
  8
QUILTS
 62
7
  6
CONTINUOUS
 10
56.4963248874
 20
216.12635766
 11
56.0617817382
 21
216.1820373742
  0
LINE
  8
QUILTS
 62
7
  6
CONTINUOUS
 10
55.8372240956
 20
215.5987716842
 11
56.3710464993
 21
215.5048693971
  0
LINE
  8
QUILTS
 62
7
  6
CONTINUOUS
 10
55.8450859464
 20
220.0605478939
 11
55.3112632646
 21
220.1544502881
  0
LINE
  8
QUILTS
 62
7
  6
CONTINUOUS
 10
70.3448365355
 20
235.6887314138
 11
70.6893582859
 21
235.4181153493
  0
LINE
  8
QUILTS
 62
7
  6
CONTINUOUS
 10
73.2799429408
 20
237.1787304417
 11
72.8697870919
 21
237.5330692191
  0
LINE
  8
0
 62
7
  6
CONTINUOUS
 10
115.9698761885
 20
144.3378202653
 11
116.0529946324
 21
143.0988387918
  0
LINE
  8
0
 62
7
  6
CONTINUOUS
 10
127.7221640132
 20
254.1235691587
 11
127.3832631737
 21
252.9289436993
  0
LINE
  8
0
 62
7
  6
CONTINUOUS
 10
91.5401376107
 20
142.6151462332
 11
91.1121309222
 21
141.4494730191
  0
LINE
  8
QUILTS
 62
7
  6
CONTINUOUS
 10
141.1234116875
 20
226.4866431104
 11
140.912815466
 21
226.2251921449
  0
LINE
  8
QUILTS
 62
7
  6
CONTINUOUS
 10
141.2538757293
 20
225.7014528044
 11
141.4644719508
 21
225.9629037699
  0
LINE
  8
0
 62
7
  6
CONTINUOUS
 10
146.9302737323
 20
238.1293323504
 11
146.1347744607
 21
237.1758310782
  0
LINE
  8
0
 62
7
  6
CONTINUOUS
 10
68.5217862486
 20
150.9778750565
 11
67.6566606725
 21
150.0870655904
  0
LINE
  8
QUILTS
 62
7
  6
CONTINUOUS
 10
140.3507760216
 20
219.1727641574
 11
144.059907591
 21
222.917110746
  0
LINE
  8
QUILTS
 62
7
  6
CONTINUOUS
 10
141.0196431548
 20
220.6785495049
 11
140.0686298372
 21
219.7304545111
  0
LINE
  8
QUILTS
 62
7
  6
CONTINUOUS
 10
143.4921046743
 20
223.0968076448
 11
141.352321381
 21
220.9636002406
  0
LINE
  8
QUILTS
 62
7
  6
CONTINUOUS
 10
142.0082772556
 20
218.7929854642
 11
141.5841145028
 21
218.4103356527
  0
LINE
  8
QUILTS
 62
7
  6
CONTINUOUS
 10
142.0297795011
 20
218.1331127528
 11
142.2916278878
 21
218.3432146287
  0
LINE
  8
QUILTS
 62
7
  6
CONTINUOUS
 10
143.7711613945
 20
216.2293544466
 11
143.5093128684
 21
216.019252518
  0
LINE
  8
QUILTS
 62
7
  6
CONTINUOUS
 10
145.5108135309
 20
216.4402171929
 11
145.7726619176
 21
216.6503190689
  0
LINE
  8
0
 62
7
  6
CONTINUOUS
 10
157.9723129282
 20
215.7052278987
 11
156.8577642754
 21
215.1577198459
  0
LINE
  8
0
 62
7
  6
CONTINUOUS
 10
50.8949041679
 20
167.9800149487
 11
49.7422477757
 21
167.51809828
  0
LINE
  8
QUILTS
 62
7
  6
CONTINUOUS
 10
140.5730005895
 20
225.3823755687
 11
140.8972870349
 21
225.4692414263
  0
LINE
  8
QUILTS
 62
7
  6
CONTINUOUS
 10
140.6453738828
 20
226.0510335707
 11
140.3210874374
 21
225.964167713
  0
LINE
  8
0
 62
7
  6
CONTINUOUS
 10
40.8412579144
 20
198.9219565117
 11
39.6372314987
 21
198.6181405184
  0
LINE
  8
QUILTS
 62
7
  6
CONTINUOUS
 10
53.195670606
 20
208.2181964538
 11
52.8659358873
 21
208.1550951838
  0
LINE
  8
0
 62
7
  6
CONTINUOUS
 10
155.5208776496
 20
223.249969898
 11
154.2973716895
 21
223.0377979562
  0
LINE
  8
QUILTS
 62
7
  6
CONTINUOUS
 10
138.7519462081
 20
222.3330123316
 11
140.0791573084
 21
222.537514514
  0
LINE
  8
QUILTS
 62
7
  6
CONTINUOUS
 10
140.5058828277
 20
222.6366713017
 11
143.4921046743
 21
223.0968076448
  0
LINE
  8
QUILTS
 62
7
  6
CONTINUOUS
 10
143.6837141134
 20
223.6606950477
 11
138.4698000236
 21
222.8907026853
  0
LINE
  8
QUILTS
 62
7
  6
CONTINUOUS
 10
143.2107005001
 20
215.9066173871
 11
142.8753241504
 21
215.8914490012
  0
LINE
  8
QUILTS
 62
7
  6
CONTINUOUS
 10
142.5902402561
 20
218.4558497597
 11
142.9256167452
 21
218.4710181981
  0
LINE
  8
QUILTS
 62
7
  6
CONTINUOUS
 10
144.1828396927
 20
219.0565705105
 11
144.5182163213
 21
219.0717390016
  0
LINE
  8
QUILTS
 62
7
  6
CONTINUOUS
 10
142.7237642728
 20
215.3889557869
 11
143.2949762202
 21
215.3817564644
  0
LINE
  8
QUILTS
 62
7
  6
CONTINUOUS
 10
55.1859851546
 20
219.5329619181
 11
55.6205283038
 21
219.4772822039
  0
LINE
  8
0
 62
7
  6
CONTINUOUS
 10
45.1080979895
 20
223.0377979562
 11
43.8845920293
 21
223.249969898
  0
LINE
  8
0
 62
7
  6
CONTINUOUS
 10
159.7682381802
 20
198.6181405184
 11
158.5642117645
 21
198.9219565117
  0
LINE
  8
QUILTS
 62
7
  6
CONTINUOUS
 10
61.7668139957
 20
227.7131187581
 11
62.0900791107
 21
227.6225282525
  0
LINE
  8
QUILTS
 62
7
  6
CONTINUOUS
 10
62.3486644819
 20
228.2013856971
 11
62.0253993669
 21
228.2919762028
  0
LINE
  8
QUILTS
 62
7
  6
CONTINUOUS
 10
59.9973380347
 20
228.8945967636
 11
60.3206032737
 21
228.8040061752
  0
LINE
  8
QUILTS
 62
7
  6
CONTINUOUS
 10
60.579188397
 20
229.3828637853
 11
60.2559234059
 21
229.4734542083
  0
LINE
  8
QUILTS
 62
7
  6
CONTINUOUS
 10
68.4440540159
 20
235.2747213211
 11
68.7401234283
 21
235.1164497907
  0
LINE
  8
QUILTS
 62
7
  6
CONTINUOUS
 10
69.1176278656
 20
235.6257951895
 11
68.8215584532
 21
235.7840667199
  0
LINE
  8
QUILTS
 62
7
  6
CONTINUOUS
 10
66.9715190977
 20
236.8104870482
 11
67.2675886132
 21
236.6522154102
  0
LINE
  8
QUILTS
 62
7
  6
CONTINUOUS
 10
67.6450928443
 20
237.1615610241
 11
67.349023535
 21
237.319832447
  0
LINE
  8
QUILTS
 62
7
  6
CONTINUOUS
 10
72.656808395
 20
236.9605614807
 11
72.9356922598
 21
236.7736652311
  0
LINE
  8
QUILTS
 62
7
  6
CONTINUOUS
 10
73.558826794
 20
236.9918342067
 11
73.2799429408
 21
237.1787304417
  0
LINE
  8
QUILTS
 62
7
  6
CONTINUOUS
 10
71.8196109898
 20
238.8726097352
 11
71.5407234068
 21
239.0595029988
  0
LINE
  8
0
 62
7
  6
CONTINUOUS
 10
57.7834165437
 20
244.024708577
 11
58.8148467526
 21
243.3332351563
  0
LINE
  8
0
 62
7
  6
CONTINUOUS
 10
153.6297275052
 20
174.3882875111
 11
152.6533677395
 21
175.1555588942
  0
LINE
  8
0
 62
7
  6
CONTINUOUS
 10
78.9304720165
 20
257.3502155053
 11
79.5914828208
 21
256.299002642
  0
LINE
  8
0
 62
7
  6
CONTINUOUS
 10
137.5868782447
 20
155.8480311627
 11
138.166749887
 21
154.7499725823
  0
LINE
  8
QUILTS
 62
7
  6
CONTINUOUS
 10
95.2899629201
 20
247.271308672
 11
95.432145346
 21
246.967184308
  0
LINE
  8
0
 62
7
  6
CONTINUOUS
 10
103.6692404414
 20
260.9223894765
 11
103.845537068
 21
259.6932014246
  0
LINE
  8
0
 62
7
  6
CONTINUOUS
 10
115.9674382416
 20
145.1297260518
 11
115.9842255595
 21
145.3440514843
  0
LINE
  8
0
 62
7
  6
CONTINUOUS
 10
127.1880917424
 20
251.9417176447
 11
127.2162320308
 21
252.1548498319
  0
LINE
  8
0
 62
7
  6
CONTINUOUS
 10
91.8600075366
 20
143.3395797696
 11
91.9625175216
 21
143.5285477776
  0
LINE
  8
0
 62
7
  6
CONTINUOUS
 10
145.5549354748
 20
236.353338573
 11
145.6673315777
 21
236.5365988282
  0
LINE
  8
QUILTS
 62
7
  6
CONTINUOUS
 10
143.79266364
 20
215.5694817352
 11
144.2168263231
 21
215.9521315204
  0
LINE
  8
0
 62
7
  6
CONTINUOUS
 10
69.1086556312
 20
151.5095752032
 11
69.2791633756
 21
151.6405115014
  0
LINE
  8
0
 62
7
  6
CONTINUOUS
 10
155.9935171631
 20
214.6421773166
 11
156.1707347734
 21
214.7638782766
  0
LINE
  8
QUILTS
 62
7
  6
CONTINUOUS
 10
56.3710464993
 20
215.5048693971
 11
56.8430162773
 21
215.5464013462
  0
LINE
  8
QUILTS
 62
7
  6
CONTINUOUS
 10
55.3112632646
 20
220.1544502881
 11
54.8392935561
 21
220.1129183122
  0
LINE
  8
QUILTS
 62
7
  6
CONTINUOUS
 10
55.6864374932
 20
222.2069380148
 11
60.7577561459
 21
222.5033417857
  0
LINE
  8
0
 62
7
  6
CONTINUOUS
 10
153.5100588806
 20
222.9525966697
 11
153.2951527927
 21
222.9468889169
  0
LINE
  8
QUILTS
 62
7
  6
CONTINUOUS
 10
144.6697761291
 20
219.5742321896
 11
144.0985639726
 21
219.5814314333
  0
LINE
  8
0
 62
7
  6
CONTINUOUS
 10
46.1103168863
 20
222.9468889169
 11
45.8954107984
 21
222.9525966697
  0
LINE
  8
0
 62
7
  6
CONTINUOUS
 10
157.810311239
 20
199.1643502324
 11
157.6116632063
 21
199.2465461215
  0
LINE
  8
0
 62
7
  6
CONTINUOUS
 10
59.6934432359
 20
242.8425464667
 11
59.4994383077
 21
242.9351709392
  0
LINE
  8
QUILTS
 62
7
  6
CONTINUOUS
 10
71.0336071021
 20
235.8231790742
 11
70.8203592695
 21
235.9263540086
  0
LINE
  8
QUILTS
 62
7
  6
CONTINUOUS
 10
72.9356922598
 20
236.7736652311
 11
73.1489438564
 21
236.670493224
  0
LINE
  8
QUILTS
 62
7
  6
CONTINUOUS
 10
71.196476467
 20
238.6544407448
 11
71.4097242995
 21
238.5512658105
  0
LINE
  8
0
 62
7
  6
CONTINUOUS
 10
152.0632357472
 20
175.6836355457
 11
151.9151938193
 21
175.8395226607
  0
LINE
  8
0
 62
7
  6
CONTINUOUS
 10
80.1945395767
 20
255.4933788342
 11
80.0549810228
 21
255.6569044136
  0
LINE
  8
QUILTS
 62
7
  6
CONTINUOUS
 10
92.2786218314
 20
246.1523808338
 11
92.537125501
 21
245.755320733
  0
LINE
  8
QUILTS
 62
7
  6
CONTINUOUS
 10
93.1574932178
 20
245.8312739817
 11
92.8989895481
 21
246.2283340825
  0
LINE
  8
QUILTS
 62
7
  6
CONTINUOUS
 10
95.936187077
 20
247.136072788
 11
95.6647599203
 21
247.6387280346
  0
LINE
  8
0
 62
7
  6
CONTINUOUS
 10
137.2625539682
 20
156.5704814945
 11
137.1907159393
 21
156.7731055371
  0
LINE
  8
0
 62
7
  6
CONTINUOUS
 10
104.0687801049
 20
258.7119421739
 11
104.0077988671
 21
258.9180938019
  0
LINE
  8
QUILTS
 62
7
  6
CONTINUOUS
 10
141.5841145028
 20
218.4103356527
 11
141.2962532225
 21
217.9677641529
  0
LINE
  8
QUILTS
 62
7
  6
CONTINUOUS
 10
141.8046916605
 20
217.8255530285
 11
142.0297795011
 21
218.1331127528
  0
LINE
  8
QUILTS
 62
7
  6
CONTINUOUS
 10
145.5520847599
 20
217.235101693
 11
145.326996989
 21
216.9275419951
  0
LINE
  8
QUILTS
 62
7
  6
CONTINUOUS
 10
56.8690153414
 20
216.2061122088
 11
56.4963248874
 21
216.12635766
  0
LINE
  8
QUILTS
 62
7
  6
CONTINUOUS
 10
54.8132944225
 20
219.4532074764
 11
55.1859851546
 21
219.5329619181
  0
LINE
  8
QUILTS
 62
7
  6
CONTINUOUS
 10
60.2414526112
 20
223.1243381293
 11
55.2645010637
 21
222.7788201977
  0
LINE
  8
QUILTS
 62
7
  6
CONTINUOUS
 10
62.0253993669
 20
228.2919762028
 11
61.4979746458
 21
228.2683799945
  0
LINE
  8
QUILTS
 62
7
  6
CONTINUOUS
 10
140.0458820132
 20
225.4120340235
 11
140.5730005895
 21
225.3823755687
  0
LINE
  8
QUILTS
 62
7
  6
CONTINUOUS
 10
68.8215584532
 20
235.7840667199
 11
68.3014859244
 21
235.8749412607
  0
LINE
  8
QUILTS
 62
7
  6
CONTINUOUS
 10
142.8753241504
 20
215.8914490012
 11
142.5031871151
 21
215.973738411
  0
LINE
  8
QUILTS
 62
7
  6
CONTINUOUS
 10
144.5182163213
 20
219.0717390016
 11
144.8903532868
 21
218.9894495655
  0
LINE
  8
QUILTS
 62
7
  6
CONTINUOUS
 10
142.2153258348
 20
215.5311669112
 11
142.7237642728
 21
215.3889557869
  0
LINE
  8
QUILTS
 62
7
  6
CONTINUOUS
 10
92.537125501
 20
245.755320733
 11
92.899022208
 21
245.3709193508
  0
LINE
  8
QUILTS
 62
7
  6
CONTINUOUS
 10
95.6647599203
 20
247.6387280346
 11
95.3028632179
 21
248.0231293798
  0
LINE
  8
QUILTS
 62
7
  6
CONTINUOUS
 10
95.0443922035
 20
247.5627747859
 11
95.2899629201
 21
247.271308672
  0
LINE
  8
QUILTS
 62
7
  6
CONTINUOUS
 10
141.1880208901
 20
226.7773258344
 11
141.1234116875
 21
226.4866431104
  0
LINE
  8
QUILTS
 62
7
  6
CONTINUOUS
 10
141.4644719508
 20
225.9629037699
 11
141.6505302638
 21
226.4569846556
  0
LINE
  8
QUILTS
 62
7
  6
CONTINUOUS
 10
143.8967117093
 20
216.4993691009
 11
143.7711613945
 21
216.2293544466
  0
LINE
  8
QUILTS
 62
7
  6
CONTINUOUS
 10
144.2168263231
 20
215.9521315204
 11
144.4051501124
 21
216.3571579634
  0
LINE
  8
QUILTS
 62
7
  6
CONTINUOUS
 10
145.7726619176
 20
216.6503190689
 11
146.060523163
 21
217.0928905555
  0
LINE
  8
0
 62
7
  6
CONTINUOUS
 10
103.5664381446
 20
159.905347789
 11
140.7403121397
 21
197.079221784
  0
LINE
  8
QUILTS
 62
7
  6
CONTINUOUS
 10
61.47418048
 20
227.6580060188
 11
61.7668139957
 21
227.7131187581
  0
LINE
  8
QUILTS
 62
7
  6
CONTINUOUS
 10
59.7047045191
 20
228.8394840243
 11
59.9973380347
 21
228.8945967636
  0
LINE
  8
QUILTS
 62
7
  6
CONTINUOUS
 10
60.2559234059
 20
229.4734542083
 11
59.7284986849
 21
229.4498579999
  0
LINE
  8
QUILTS
 62
7
  6
CONTINUOUS
 10
68.1464240607
 20
235.2841127146
 11
68.4440540159
 21
235.2747213211
  0
LINE
  8
QUILTS
 62
7
  6
CONTINUOUS
 10
66.6738891425
 20
236.8198784417
 11
66.9715190977
 21
236.8104870482
  0
LINE
  8
QUILTS
 62
7
  6
CONTINUOUS
 10
70.6893582859
 20
235.4181153493
 11
71.1321975773
 21
235.3597572579
  0
LINE
  8
QUILTS
 62
7
  6
CONTINUOUS
 10
71.5407234068
 20
239.0595029988
 11
71.2454997373
 21
239.098410325
  0
LINE
  8
QUILTS
 62
7
  6
CONTINUOUS
 10
67.349023535
 20
237.319832447
 11
66.8289510062
 21
237.4107069878
  0
LINE
  8
QUILTS
 62
7
  6
CONTINUOUS
 10
140.3210874374
 20
225.964167713
 11
140.0291081953
 21
226.0226392216
  0
LINE
  8
QUILTS
 62
7
  6
CONTINUOUS
 10
145.1782145322
 20
219.4320210521
 11
144.6697761291
 21
219.5742321896
  0
LINE
  8
QUILTS
 62
7
  6
CONTINUOUS
 10
142.9256167452
 20
218.4710181981
 11
143.1982162547
 21
218.3511837184
  0
LINE
  8
0
 62
7
  6
CONTINUOUS
 10
140.7403121397
 20
204.8066283943
 11
103.5664381446
 21
241.9805023894
  0
LINE
  8
QUILTS
 62
7
  6
CONTINUOUS
 10
141.6505302638
 20
226.4569846556
 11
141.6905963537
 21
226.9803052914
  0
LINE
  8
QUILTS
 62
7
  6
CONTINUOUS
 10
141.2962532225
 20
217.9677641529
 11
141.1814540043
 21
217.367813133
  0
LINE
  8
QUILTS
 62
7
  6
CONTINUOUS
 10
144.4051501124
 20
216.3571579634
 11
144.5199459388
 21
216.9571178965
  0
LINE
  8
QUILTS
 62
7
  6
CONTINUOUS
 10
141.7159053272
 20
217.4580716292
 11
141.8046916605
 21
217.8255530285
  0
LINE
  8
QUILTS
 62
7
  6
CONTINUOUS
 10
143.9854980426
 20
216.8668505003
 11
143.8967117093
 21
216.4993691009
  0
LINE
  8
QUILTS
 62
7
  6
CONTINUOUS
 10
145.6408710932
 20
217.6025830924
 11
145.5520847599
 21
217.235101693
  0
LINE
  8
QUILTS
 62
7
  6
CONTINUOUS
 10
71.1321975773
 20
235.3597572579
 11
71.3617871311
 21
235.4045726666
  0
LINE
  8
QUILTS
 62
7
  6
CONTINUOUS
 10
71.4927880975
 20
235.912811348
 11
71.0336071021
 21
235.8231790742
  0
LINE
  8
QUILTS
 62
7
  6
CONTINUOUS
 10
66.8289510062
 20
237.4107069878
 11
66.3073178314
 21
237.3527014992
  0
LINE
  8
QUILTS
 62
7
  6
CONTINUOUS
 10
71.2454997373
 20
239.098410325
 11
70.8682964781
 21
239.0730471011
  0
LINE
  8
QUILTS
 62
7
  6
CONTINUOUS
 10
139.5510654361
 20
225.5870378361
 11
140.0458820132
 21
225.4120340235
  0
LINE
  8
QUILTS
 62
7
  6
CONTINUOUS
 10
92.899022208
 20
245.3709193508
 11
93.4547815194
 21
245.117430413
  0
LINE
  8
QUILTS
 62
7
  6
CONTINUOUS
 10
95.3028632179
 20
248.0231293798
 11
94.7471039099
 21
248.2766182899
  0
LINE
  8
QUILTS
 62
7
  6
CONTINUOUS
 10
93.4935334982
 20
245.6580616213
 11
93.1574932178
 21
245.8312739817
  0
LINE
  8
QUILTS
 62
7
  6
CONTINUOUS
 10
94.7083519231
 20
247.7359871464
 11
95.0443922035
 21
247.5627747859
  0
LINE
  8
QUILTS
 62
7
  6
CONTINUOUS
 10
142.5031871151
 20
215.973738411
 11
142.1938236241
 21
216.1910396358
  0
LINE
  8
QUILTS
 62
7
  6
CONTINUOUS
 10
143.1982162547
 20
218.3511837184
 11
143.5075797457
 21
218.1338824936
  0
LINE
  8
QUILTS
 62
7
  6
CONTINUOUS
 10
143.9685030445
 20
218.4190744569
 11
143.3497760625
 21
218.8536769064
  0
LINE
  8
QUILTS
 62
7
  6
CONTINUOUS
 10
144.8903532868
 20
218.9894495655
 11
145.1997167778
 21
218.7721483407
  0
LINE
  8
QUILTS
 62
7
  6
CONTINUOUS
 10
141.7328968986
 20
215.9058565726
 11
142.2153258348
 21
215.5311669112
  0
LINE
  8
QUILTS
 62
7
  6
CONTINUOUS
 10
141.72665645
 20
217.1281352734
 11
141.7159053272
 21
217.4580716292
  0
LINE
  8
QUILTS
 62
7
  6
CONTINUOUS
 10
143.9747469198
 20
217.196786856
 11
143.9854980426
 21
216.8668505003
  0
LINE
  8
QUILTS
 62
7
  6
CONTINUOUS
 10
145.6301199704
 20
217.9325194481
 11
145.6408710932
 21
217.6025830924
  0
LINE
  8
QUILTS
 62
7
  6
CONTINUOUS
 10
146.060523163
 20
217.0928905555
 11
146.1753223551
 21
217.6928415656
  0
LINE
  8
QUILTS
 62
7
  6
CONTINUOUS
 10
85.5580429965
 20
243.1864804217
 11
89.5666487132
 21
244.3232205297
  0
LINE
  8
QUILTS
 62
7
  6
CONTINUOUS
 10
89.3925097371
 20
244.9373050425
 11
85.9851951072
 21
243.9710760157
  0
LINE
  8
QUILTS
 62
7
  6
CONTINUOUS
 10
91.0044966497
 20
244.5845411499
 11
91.6174406955
 21
244.7067074166
  0
LINE
  8
QUILTS
 62
7
  6
CONTINUOUS
 10
70.9668850426
 20
238.6096238578
 11
71.196476467
 21
238.6544407448
  0
LINE
  8
QUILTS
 62
7
  6
CONTINUOUS
 10
93.9846796735
 20
245.0751298989
 11
94.6050473902
 21
245.1510831476
  0
LINE
  8
QUILTS
 62
7
  6
CONTINUOUS
 10
94.5404063261
 20
245.6790556835
 11
93.9200386094
 21
245.6031024348
  0
LINE
  8
QUILTS
 62
7
  6
CONTINUOUS
 10
92.8989895481
 20
246.2283340825
 11
92.2786218314
 21
246.1523808338
  0
LINE
  8
QUILTS
 62
7
  6
CONTINUOUS
 10
92.1622679142
 20
247.1027314133
 11
92.8860334058
 21
247.1913439231
  0
LINE
  8
QUILTS
 62
7
  6
CONTINUOUS
 10
93.4547815194
 20
245.117430413
 11
93.9846796735
 21
245.0751298989
  0
LINE
  8
QUILTS
 62
7
  6
CONTINUOUS
 10
94.7471039099
 20
248.2766182899
 11
94.2172010239
 21
248.3189182153
  0
LINE
  8
QUILTS
 62
7
  6
CONTINUOUS
 10
93.9200386094
 20
245.6031024348
 11
93.4935334982
 21
245.6580616213
  0
LINE
  8
QUILTS
 62
7
  6
CONTINUOUS
 10
94.2818420789
 20
247.7909457533
 11
94.7083519231
 21
247.7359871464
  0
LINE
  8
QUILTS
 62
7
  6
CONTINUOUS
 10
145.6606400766
 20
219.057340304
 11
145.1782145322
 21
219.4320210521
  0
LINE
  8
QUILTS
 62
7
  6
CONTINUOUS
 10
140.0291081953
 20
226.0226392216
 11
139.7694309525
 21
226.226456088
  0
LINE
  8
QUILTS
 62
7
  6
CONTINUOUS
 10
139.1777031736
 20
225.9654318188
 11
139.5510654361
 21
225.5870378361
  0
LINE
  8
QUILTS
 62
7
  6
CONTINUOUS
 10
142.1938236241
 20
216.1910396358
 11
141.9839975892
 21
216.4458859042
  0
LINE
  8
QUILTS
 62
7
  6
CONTINUOUS
 10
143.5075797457
 20
218.1338824936
 11
143.7174057806
 21
217.8790362252
  0
LINE
  8
QUILTS
 62
7
  6
CONTINUOUS
 10
145.1997167778
 20
218.7721483407
 11
145.4095428127
 21
218.5173020723
  0
LINE
  8
QUILTS
 62
7
  6
CONTINUOUS
 10
135.9413725362
 20
226.841280137
 11
136.2824327995
 21
226.3175407966
  0
LINE
  8
QUILTS
 62
7
  6
CONTINUOUS
 10
138.1545223836
 20
227.5366498402
 11
139.1777031736
 21
225.9654318188
  0
LINE
  8
QUILTS
 62
7
  6
CONTINUOUS
 10
141.4495462576
 20
216.3556274048
 11
141.7328968986
 21
215.9058565726
  0
LINE
  8
QUILTS
 62
7
  6
CONTINUOUS
 10
144.2518570425
 20
217.9692946983
 11
143.9685030445
 21
218.4190744569
  0
LINE
  8
QUILTS
 62
7
  6
CONTINUOUS
 10
138.4698000236
 20
222.8907026853
 11
138.7519462081
 21
222.3330123316
  0
LINE
  8
QUILTS
 62
7
  6
CONTINUOUS
 10
140.0686298372
 20
219.7304545111
 11
140.3507760216
 21
219.1727641574
  0
LINE
  8
QUILTS
 62
7
  6
CONTINUOUS
 10
140.0791573084
 20
222.537514514
 11
141.0196431548
 21
220.6785495049
  0
LINE
  8
QUILTS
 62
7
  6
CONTINUOUS
 10
141.352321381
 20
220.9636002406
 11
140.5058828277
 21
222.6366713017
  0
LINE
  8
QUILTS
 62
7
  6
CONTINUOUS
 10
141.2657330814
 20
216.8429432839
 11
141.4495462576
 21
216.3556274048
  0
LINE
  8
QUILTS
 62
7
  6
CONTINUOUS
 10
141.9839975892
 20
216.4458859042
 11
141.72665645
 21
217.1281352734
  0
LINE
  8
QUILTS
 62
7
  6
CONTINUOUS
 10
141.1066378696
 20
227.0972483085
 11
141.1880208901
 21
226.7773258344
  0
LINE
  8
QUILTS
 62
7
  6
CONTINUOUS
 10
141.1814540043
 20
217.367813133
 11
141.2657330814
 21
216.8429432839
  0
LINE
  8
QUILTS
 62
7
  6
CONTINUOUS
 10
144.5199459388
 20
216.9571178965
 11
144.4356702187
 21
217.4819788192
  0
LINE
  8
QUILTS
 62
7
  6
CONTINUOUS
 10
84.339070143
 20
247.4850720826
 11
87.8465984249
 21
248.4797191893
  0
LINE
  8
QUILTS
 62
7
  6
CONTINUOUS
 10
88.2025600633
 20
249.1335492248
 11
84.1939543465
 21
247.9968091168
  0
LINE
  8
QUILTS
 62
7
  6
CONTINUOUS
 10
90.6401105618
 20
249.610259783
 11
90.027166516
 21
249.4880935163
  0
LINE
  8
QUILTS
 62
7
  6
CONTINUOUS
 10
93.6614743621
 20
247.7149925046
 11
94.2818420789
 21
247.7909457533
  0
LINE
  8
QUILTS
 62
7
  6
CONTINUOUS
 10
94.2172010239
 20
248.3189182153
 11
93.5968333071
 21
248.2429649666
  0
LINE
  8
QUILTS
 62
7
  6
CONTINUOUS
 10
92.4077501219
 20
249.3835106164
 11
95.406195664
 21
249.7506181783
  0
LINE
  8
QUILTS
 62
7
  6
CONTINUOUS
 10
95.341554609
 20
250.2785906403
 11
91.8261343919
 21
249.8481885113
  0
LINE
  8
QUILTS
 62
7
  6
CONTINUOUS
 10
139.7694309525
 20
226.226456088
 11
138.6894050505
 21
227.8849666634
  0
LINE
  8
QUILTS
 62
7
  6
CONTINUOUS
 10
140.0266119676
 20
228.7557588839
 11
141.1066378696
 21
227.0972483085
  0
LINE
  8
QUILTS
 62
7
  6
CONTINUOUS
 10
141.4955283134
 20
227.4748048818
 11
140.1312872601
 21
229.5697622437
  0
LINE
  8
QUILTS
 62
7
  6
CONTINUOUS
 10
145.9439940746
 20
218.6075605454
 11
145.6606400766
 21
219.057340304
  0
LINE
  8
QUILTS
 62
7
  6
CONTINUOUS
 10
144.059907591
 20
222.917110746
 11
143.6837141134
 21
223.6606950477
  0
LINE
  8
QUILTS
 62
7
  6
CONTINUOUS
 10
141.6905963537
 20
226.9803052914
 11
141.4955283134
 21
227.4748048818
  0
LINE
  8
QUILTS
 62
7
  6
CONTINUOUS
 10
143.7174057806
 20
217.8790362252
 11
143.9747469198
 21
217.196786856
  0
LINE
  8
QUILTS
 62
7
  6
CONTINUOUS
 10
144.4356702187
 20
217.4819788192
 11
144.2518570425
 21
217.9692946983
  0
LINE
  8
QUILTS
 62
7
  6
CONTINUOUS
 10
145.326996989
 20
216.9275419951
 11
145.5108135309
 21
216.4402171929
  0
LINE
  8
QUILTS
 62
7
  6
CONTINUOUS
 10
145.4095428127
 20
218.5173020723
 11
145.6301199704
 21
217.9325194481
  0
LINE
  8
QUILTS
 62
7
  6
CONTINUOUS
 10
146.0910432692
 20
218.2177114114
 11
145.9439940746
 21
218.6075605454
  0
LINE
  8
QUILTS
 62
7
  6
CONTINUOUS
 10
146.1753223551
 20
217.6928415656
 11
146.0910432692
 21
218.2177114114
  0
LINE
  8
0
 62
7
  6
CONTINUOUS
 10
159.6989056902
 20
191.4023809093
 11
160.3714360821
 21
197.8010801643
  0
LINE
  8
0
 62
7
  6
CONTINUOUS
 10
150.6314752833
 20
167.824563161
 11
153.8484478229
 21
173.3965230462
  0
LINE
  8
0
 62
7
  6
CONTINUOUS
 10
137.9631738906
 20
153.7549890926
 11
132.7580029805
 21
149.9732110609
  0
LINE
  8
0
 62
7
  6
CONTINUOUS
 10
102.9197073792
 20
261.6076890604
 11
96.4857622998
 21
261.6076890604
  0
LINE
  8
0
 62
7
  6
CONTINUOUS
 10
127.3161679411
 20
255.0544840424
 11
121.4384666391
 21
257.6714052657
  0
LINE
  8
0
 62
7
  6
CONTINUOUS
 10
142.6328654874
 20
243.9262518864
 11
146.9380150596
 21
239.1448988933
  0
LINE
  8
0
 62
7
  6
CONTINUOUS
 10
156.4042547386
 20
222.7488908126
 11
158.392453109
 21
216.6298454194
  0
POLYLINE
  8
0
 62
7
  6
CONTINUOUS
 66
1
 70
0
  0
VERTEX
  8
0
 62
7
  6
CONTINUOUS
 10
39.0329639286
 20
72.9897547593
  0
VERTEX
  8
0
 62
7
  6
CONTINUOUS
 10
39.0335286454
 20
72.9659976909
  0
VERTEX
  8
0
 62
7
  6
CONTINUOUS
 10
39.0408440903
 20
72.9013344952
  0
VERTEX
  8
0
 62
7
  6
CONTINUOUS
 10
39.0561847695
 20
72.8391496394
  0
VERTEX
  8
0
 62
7
  6
CONTINUOUS
 10
39.07884057
 20
72.7805358568
  0
VERTEX
  8
0
 62
7
  6
CONTINUOUS
 10
39.1079332063
 20
72.726411092
  0
VERTEX
  8
0
 62
7
  6
CONTINUOUS
 10
39.1424580783
 20
72.6774940497
  0
VERTEX
  8
0
 62
7
  6
CONTINUOUS
 10
39.1813288788
 20
72.63429013
  0
VERTEX
  8
0
 62
7
  6
CONTINUOUS
 10
39.2234207796
 20
72.5970890914
  0
VERTEX
  8
0
 62
7
  6
CONTINUOUS
 10
39.2676138343
 20
72.5659694975
  0
VERTEX
  8
0
 62
7
  6
CONTINUOUS
 10
39.312829885
 20
72.540814275
  0
VERTEX
  8
0
 62
7
  6
CONTINUOUS
 10
39.3580485902
 20
72.5213379697
  0
VERTEX
  8
0
 62
7
  6
CONTINUOUS
 10
39.4023269259
 20
72.5071062548
  0
VERTEX
  8
0
 62
7
  6
CONTINUOUS
 10
39.4436094616
 20
72.4977722653
  0
VERTEX
  8
0
 62
7
  6
CONTINUOUS
 10
39.4730627919
 20
72.4932722421
  0
VERTEX
  8
0
 62
7
  6
CONTINUOUS
 10
39.4892503588
 20
72.4914307271
  0
VERTEX
  8
0
 62
7
  6
CONTINUOUS
 10
39.5064286391
 20
72.4896956603
  0
VERTEX
  8
0
 62
7
  6
CONTINUOUS
 10
39.5593342358
 20
72.484699521
  0
SEQEND
  0
LINE
  8
2_FEATURE
 62
7
  6
CONTINUOUS
 10
39.0329629959
 20
79.5715785497
 11
39.0329629959
 21
72.9896580734
  0
LINE
  8
2_FEATURE
 62
7
  6
CONTINUOUS
 10
40.9858852879
 20
79.5724390555
 11
40.9858852879
 21
72.9887975676
  0
POLYLINE
  8
0
 62
7
  6
CONTINUOUS
 66
1
 70
0
  0
VERTEX
  8
0
 62
7
  6
CONTINUOUS
 10
40.9858856299
 20
72.9889037972
  0
VERTEX
  8
0
 62
7
  6
CONTINUOUS
 10
41.0016722519
 20
72.8642349204
  0
VERTEX
  8
0
 62
7
  6
CONTINUOUS
 10
41.0412426187
 20
72.7601875414
  0
VERTEX
  8
0
 62
7
  6
CONTINUOUS
 10
41.0999854637
 20
72.6709045256
  0
VERTEX
  8
0
 62
7
  6
CONTINUOUS
 10
41.1722565007
 20
72.599393521
  0
VERTEX
  8
0
 62
7
  6
CONTINUOUS
 10
41.252039065
 20
72.5467889524
  0
VERTEX
  8
0
 62
7
  6
CONTINUOUS
 10
41.3330803573
 20
72.5125091336
  0
VERTEX
  8
0
 62
7
  6
CONTINUOUS
 10
41.4009645894
 20
72.4953889667
  0
SEQEND
  0
LINE
  8
1_AXIS
 62
7
  6
CONTINUOUS
 10
47.2027348395
 20
86.7806183115
 11
47.2027348395
 21
81.2806183115
  0
LINE
  8
1_AXIS
 62
7
  6
CONTINUOUS
 10
47.2027348395
 20
71.2806183115
 11
47.2027348395
 21
65.7806183115
  0
LINE
  8
2_FEATURE
 62
7
  6
CONTINUOUS
 10
52.2894830009
 20
79.5773563642
 11
52.2894830009
 21
72.9838802588
  0
POLYLINE
  8
0
 62
7
  6
CONTINUOUS
 66
1
 70
0
  0
VERTEX
  8
0
 62
7
  6
CONTINUOUS
 10
52.2894837728
 20
72.9839736891
  0
VERTEX
  8
0
 62
7
  6
CONTINUOUS
 10
52.2899831037
 20
73.006334887
  0
VERTEX
  8
0
 62
7
  6
CONTINUOUS
 10
52.3063356745
 20
72.8551365593
  0
VERTEX
  8
0
 62
7
  6
CONTINUOUS
 10
52.3643323336
 20
72.720538569
  0
VERTEX
  8
0
 62
7
  6
CONTINUOUS
 10
52.4517318847
 20
72.6147694462
  0
VERTEX
  8
0
 62
7
  6
CONTINUOUS
 10
52.5014194532
 20
72.5745944049
  0
VERTEX
  8
0
 62
7
  6
CONTINUOUS
 10
52.6028294901
 20
72.5188042833
  0
VERTEX
  8
0
 62
7
  6
CONTINUOUS
 10
52.6945733848
 20
72.4900480728
  0
VERTEX
  8
0
 62
7
  6
CONTINUOUS
 10
52.7752068731
 20
72.475562486
  0
SEQEND
  0
POLYLINE
  8
0
 62
7
  6
CONTINUOUS
 66
1
 70
0
  0
VERTEX
  8
0
 62
7
  6
CONTINUOUS
 10
71.6529358499
 20
72.975520997
  0
VERTEX
  8
0
 62
7
  6
CONTINUOUS
 10
71.6626498206
 20
72.8772609876
  0
VERTEX
  8
0
 62
7
  6
CONTINUOUS
 10
71.7256449544
 20
72.715303291
  0
VERTEX
  8
0
 62
7
  6
CONTINUOUS
 10
71.8302815982
 20
72.5924450486
  0
VERTEX
  8
0
 62
7
  6
CONTINUOUS
 10
71.9530814098
 20
72.5149749011
  0
VERTEX
  8
0
 62
7
  6
CONTINUOUS
 10
72.0145158015
 20
72.4916749009
  0
SEQEND
  0
LINE
  8
2_FEATURE
 62
7
  6
CONTINUOUS
 10
71.6529354248
 20
79.5857672564
 11
71.6529354248
 21
72.9754693666
  0
POLYLINE
  8
0
 62
7
  6
CONTINUOUS
 66
1
 70
0
  0
VERTEX
  8
0
 62
7
  6
CONTINUOUS
 10
41.3597965827
 20
80.0565940881
  0
VERTEX
  8
0
 62
7
  6
CONTINUOUS
 10
41.2875215909
 20
80.031517194
  0
VERTEX
  8
0
 62
7
  6
CONTINUOUS
 10
41.2128111746
 20
79.9913097218
  0
VERTEX
  8
0
 62
7
  6
CONTINUOUS
 10
41.1405553865
 20
79.9340090501
  0
VERTEX
  8
0
 62
7
  6
CONTINUOUS
 10
41.076820984
 20
79.8599063359
  0
VERTEX
  8
0
 62
7
  6
CONTINUOUS
 10
41.027203086
 20
79.7713901746
  0
VERTEX
  8
0
 62
7
  6
CONTINUOUS
 10
40.9960127006
 20
79.6724708887
  0
VERTEX
  8
0
 62
7
  6
CONTINUOUS
 10
40.9858856298
 20
79.5723328378
  0
SEQEND
  0
LINE
  8
0
 62
7
  6
CONTINUOUS
 10
72.4398002473
 20
80.2075681748
 11
72.4401058423
 21
80.2077874106
  0
LINE
  8
0
 62
7
  6
CONTINUOUS
 10
72.4404532563
 20
80.2079324831
 11
72.4398002473
 21
80.2075681748
  0
LINE
  8
0
 62
7
  6
CONTINUOUS
 10
72.4404534386
 20
72.3533042158
 11
72.4398200575
 21
72.3536575546
  0
LINE
  8
0
 62
7
  6
CONTINUOUS
 10
72.4401058423
 20
80.2077874106
 11
72.4374462645
 21
80.2065283235
  0
LINE
  8
0
 62
7
  6
CONTINUOUS
 10
72.4374462645
 20
80.2065283235
 11
72.4045838306
 21
80.1932611441
  0
LINE
  8
0
 62
7
  6
CONTINUOUS
 10
72.5824484366
 20
80.264378879
 11
72.4404533316
 21
80.207932348
  0
POLYLINE
  8
0
 62
7
  6
CONTINUOUS
 66
1
 70
0
  0
VERTEX
  8
0
 62
7
  6
CONTINUOUS
 10
72.0144975863
 20
80.0695560014
  0
VERTEX
  8
0
 62
7
  6
CONTINUOUS
 10
71.9565025943
 20
80.0477862075
  0
VERTEX
  8
0
 62
7
  6
CONTINUOUS
 10
71.8326104524
 20
79.9707611746
  0
VERTEX
  8
0
 62
7
  6
CONTINUOUS
 10
71.7267852914
 20
79.8478063176
  0
VERTEX
  8
0
 62
7
  6
CONTINUOUS
 10
71.6628853321
 20
79.6851479322
  0
VERTEX
  8
0
 62
7
  6
CONTINUOUS
 10
71.6529358499
 20
79.5857155969
  0
SEQEND
  0
LINE
  8
0
 62
7
  6
CONTINUOUS
 10
72.4045838306
 20
80.1932611441
 11
72.3536637182
 21
80.1760623829
  0
POLYLINE
  8
0
 62
7
  6
CONTINUOUS
 66
1
 70
0
  0
VERTEX
  8
0
 62
7
  6
CONTINUOUS
 10
146.6663674789
 20
72.4812327831
  0
VERTEX
  8
0
 62
7
  6
CONTINUOUS
 10
146.7411491283
 20
72.497702453
  0
VERTEX
  8
0
 62
7
  6
CONTINUOUS
 10
146.8325892522
 20
72.5322523349
  0
VERTEX
  8
0
 62
7
  6
CONTINUOUS
 10
146.9278912555
 20
72.5925759952
  0
VERTEX
  8
0
 62
7
  6
CONTINUOUS
 10
147.0137938725
 20
72.680716651
  0
VERTEX
  8
0
 62
7
  6
CONTINUOUS
 10
147.0781639789
 20
72.7930213261
  0
VERTEX
  8
0
 62
7
  6
CONTINUOUS
 10
147.1129137236
 20
72.9285809713
  0
VERTEX
  8
0
 62
7
  6
CONTINUOUS
 10
147.1159865065
 20
72.9839791441
  0
SEQEND
  0
LINE
  8
1_AXIS
 62
7
  6
CONTINUOUS
 10
150.2027348395
 20
63.7806183115
 11
49.2027348395
 21
63.7806183115
  0
POLYLINE
  8
0
 62
7
  6
CONTINUOUS
 66
1
 70
0
  0
VERTEX
  8
0
 62
7
  6
CONTINUOUS
 10
41.4009645894
 20
72.4953889667
  0
VERTEX
  8
0
 62
7
  6
CONTINUOUS
 10
41.4452106555
 20
72.4884341964
  0
VERTEX
  8
0
 62
7
  6
CONTINUOUS
 10
41.4897722299
 20
72.4829612401
  0
VERTEX
  8
0
 62
7
  6
CONTINUOUS
 10
41.5506601398
 20
72.4764290711
  0
SEQEND
  0
POLYLINE
  8
0
 62
7
  6
CONTINUOUS
 66
1
 70
0
  0
VERTEX
  8
0
 62
7
  6
CONTINUOUS
 10
72.3536707192
 20
72.3851720454
  0
VERTEX
  8
0
 62
7
  6
CONTINUOUS
 10
72.4035889398
 20
72.3683406824
  0
VERTEX
  8
0
 62
7
  6
CONTINUOUS
 10
72.4246537001
 20
72.3602237092
  0
SEQEND
  0
LINE
  8
0
 62
7
  6
CONTINUOUS
 10
72.4404534386
 20
72.3533042158
 11
72.5806173868
 21
72.2973169608
  0
LINE
  8
0
 62
7
  6
CONTINUOUS
 10
72.4246537001
 20
72.3602237092
 11
72.4398199802
 21
72.3536574162
  0
LINE
  8
0
 62
7
  6
CONTINUOUS
 10
72.3534858851
 20
80.1760065819
 11
72.0144674174
 21
80.0695474519
  0
LINE
  8
0
 62
7
  6
CONTINUOUS
 10
146.6126135507
 20
72.4731151122
 11
146.6663674789
 21
72.4812327831
  0
POLYLINE
  8
0
 62
7
  6
CONTINUOUS
 66
1
 70
0
  0
VERTEX
  8
0
 62
7
  6
CONTINUOUS
 10
145.3216443729
 20
72.295931977
  0
VERTEX
  8
0
 62
7
  6
CONTINUOUS
 10
145.4584854966
 20
72.316491321
  0
VERTEX
  8
0
 62
7
  6
CONTINUOUS
 10
145.6548642299
 20
72.3445654506
  0
SEQEND
  0
LINE
  8
0
 62
7
  6
CONTINUOUS
 10
145.2709047025
 20
72.2891153421
 11
145.321621606
 21
72.2959285995
  0
LINE
  8
0
 62
7
  6
CONTINUOUS
 10
145.6548642299
 20
72.3445654506
 11
146.6126716634
 21
72.4731226098
  0
POLYLINE
  8
0
 62
7
  6
CONTINUOUS
 66
1
 70
0
  0
VERTEX
  8
0
 62
7
  6
CONTINUOUS
 10
157.8570478215
 20
72.4766576075
  0
VERTEX
  8
0
 62
7
  6
CONTINUOUS
 10
157.9304877129
 20
72.4846835161
  0
VERTEX
  8
0
 62
7
  6
CONTINUOUS
 10
157.9853128226
 20
72.4920832185
  0
VERTEX
  8
0
 62
7
  6
CONTINUOUS
 10
158.0456964878
 20
72.5046487452
  0
SEQEND
  0
POLYLINE
  8
0
 62
7
  6
CONTINUOUS
 66
1
 70
0
  0
VERTEX
  8
0
 62
7
  6
CONTINUOUS
 10
159.8983307861
 20
72.4896261161
  0
VERTEX
  8
0
 62
7
  6
CONTINUOUS
 10
159.9169733372
 20
72.4915103211
  0
VERTEX
  8
0
 62
7
  6
CONTINUOUS
 10
159.9359335031
 20
72.4937235034
  0
VERTEX
  8
0
 62
7
  6
CONTINUOUS
 10
159.9692208812
 20
72.499170768
  0
VERTEX
  8
0
 62
7
  6
CONTINUOUS
 10
160.0101269824
 20
72.5090527796
  0
VERTEX
  8
0
 62
7
  6
CONTINUOUS
 10
160.0541721083
 20
72.5239159192
  0
VERTEX
  8
0
 62
7
  6
CONTINUOUS
 10
160.0765034523
 20
72.5332553891
  0
VERTEX
  8
0
 62
7
  6
CONTINUOUS
 10
160.1207816814
 20
72.5557464001
  0
VERTEX
  8
0
 62
7
  6
CONTINUOUS
 10
160.1646773833
 20
72.5839985924
  0
VERTEX
  8
0
 62
7
  6
CONTINUOUS
 10
160.2079569162
 20
72.6189807892
  0
VERTEX
  8
0
 62
7
  6
CONTINUOUS
 10
160.2494975725
 20
72.6613088626
  0
VERTEX
  8
0
 62
7
  6
CONTINUOUS
 10
160.2876184812
 20
72.7110436819
  0
VERTEX
  8
0
 62
7
  6
CONTINUOUS
 10
160.3206629225
 20
72.7680507457
  0
VERTEX
  8
0
 62
7
  6
CONTINUOUS
 10
160.346974316
 20
72.8320323307
  0
VERTEX
  8
0
 62
7
  6
CONTINUOUS
 10
160.364802298
 20
72.90234552
  0
VERTEX
  8
0
 62
7
  6
CONTINUOUS
 10
160.3723619921
 20
72.9779333595
  0
VERTEX
  8
0
 62
7
  6
CONTINUOUS
 10
160.3725017447
 20
72.9897541887
  0
SEQEND
  0
LINE
  8
0
 62
7
  6
CONTINUOUS
 10
157.7940266087
 20
72.4704559544
 11
157.8570478215
 21
72.4766576075
  0
LINE
  8
0
 62
7
  6
CONTINUOUS
 10
155.9441447366
 20
72.2925651277
 11
157.7940266087
 21
72.4704559544
  0
LINE
  8
0
 62
7
  6
CONTINUOUS
 10
159.83811768
 20
72.4839609866
 11
159.8983307861
 21
72.4896261161
  0
LINE
  8
0
 62
7
  6
CONTINUOUS
 10
159.83811768
 20
72.4839609866
 11
157.6707258361
 21
72.2920342173
  0
LINE
  8
0
 62
7
  6
CONTINUOUS
 10
155.886204077
 20
72.287515088
 11
155.9441442262
 21
72.2925651875
  0
LINE
  8
0
 62
7
  6
CONTINUOUS
 10
43.4613252224
 20
72.2925652104
 11
43.5128053983
 21
72.2880100443
  0
LINE
  8
0
 62
7
  6
CONTINUOUS
 10
39.5593342358
 20
72.484699521
 11
41.7347438429
 21
72.2920342173
  0
LINE
  8
0
 62
7
  6
CONTINUOUS
 10
41.5506601398
 20
72.4764290711
 11
43.2407962939
 21
72.3142762761
  0
LINE
  8
0
 62
7
  6
CONTINUOUS
 10
43.2407962939
 20
72.3142762761
 11
43.4613249233
 21
72.2925651316
  0
POLYLINE
  8
0
 62
7
  6
CONTINUOUS
 66
1
 70
0
  0
VERTEX
  8
0
 62
7
  6
CONTINUOUS
 10
52.7927980166
 20
72.4731226097
  0
VERTEX
  8
0
 62
7
  6
CONTINUOUS
 10
53.7464046403
 20
72.3451497364
  0
VERTEX
  8
0
 62
7
  6
CONTINUOUS
 10
53.9430798424
 20
72.3170650214
  0
VERTEX
  8
0
 62
7
  6
CONTINUOUS
 10
54.0838255973
 20
72.2959319327
  0
SEQEND
  0
LINE
  8
0
 62
7
  6
CONTINUOUS
 10
54.0838463257
 20
72.2959288679
 11
54.1292942264
 21
72.2897319524
  0
LINE
  8
0
 62
7
  6
CONTINUOUS
 10
52.7752068731
 20
72.475562486
 11
52.7929102105
 21
72.4731078425
  0
LINE
  8
0
 62
7
  6
CONTINUOUS
 10
72.0144674159
 20
72.4916891717
 11
72.3534858851
 21
72.3852300411
  0
LINE
  8
0
 62
7
  6
CONTINUOUS
 10
126.6912742763
 20
72.2806184341
 11
126.8230168594
 21
72.2968566535
  0
LINE
  8
0
 62
7
  6
CONTINUOUS
 10
157.6707258361
 20
72.2920342173
 11
157.4125125885
 21
72.2806183115
  0
POLYLINE
  8
0
 62
7
  6
CONTINUOUS
 66
1
 70
0
  0
VERTEX
  8
0
 62
7
  6
CONTINUOUS
 10
145.1241840581
 20
72.2806184175
  0
VERTEX
  8
0
 62
7
  6
CONTINUOUS
 10
145.164312321
 20
72.2812604808
  0
VERTEX
  8
0
 62
7
  6
CONTINUOUS
 10
145.2709047025
 20
72.2891153421
  0
SEQEND
  0
POLYLINE
  8
0
 62
7
  6
CONTINUOUS
 66
1
 70
0
  0
VERTEX
  8
0
 62
7
  6
CONTINUOUS
 10
155.7034182238
 20
72.2806184162
  0
VERTEX
  8
0
 62
7
  6
CONTINUOUS
 10
155.7562217006
 20
72.2811966945
  0
VERTEX
  8
0
 62
7
  6
CONTINUOUS
 10
155.886204077
 20
72.287515088
  0
SEQEND
  0
LINE
  8
0
 62
7
  6
CONTINUOUS
 10
157.4125125877
 20
72.2806183115
 11
155.7241932829
 21
72.2806183115
  0
LINE
  8
0
 62
7
  6
CONTINUOUS
 10
155.7034157532
 20
72.2806183121
 11
126.7121431501
 21
72.2806183115
  0
LINE
  8
0
 62
7
  6
CONTINUOUS
 10
126.6913335114
 20
72.2806183115
 11
43.7021052
 21
72.2806183115
  0
LINE
  8
0
 62
7
  6
CONTINUOUS
 10
43.6810514505
 20
72.2806183115
 11
41.9929570912
 21
72.2806183115
  0
LINE
  8
0
 62
7
  6
CONTINUOUS
 10
41.9929570905
 20
72.2806183115
 11
41.7347438429
 21
72.2920342173
  0
POLYLINE
  8
0
 62
7
  6
CONTINUOUS
 66
1
 70
0
  0
VERTEX
  8
0
 62
7
  6
CONTINUOUS
 10
43.5128053983
 20
72.2880100443
  0
VERTEX
  8
0
 62
7
  6
CONTINUOUS
 10
43.6428279425
 20
72.2813455738
  0
VERTEX
  8
0
 62
7
  6
CONTINUOUS
 10
43.7020586095
 20
72.2806184162
  0
SEQEND
  0
POLYLINE
  8
0
 62
7
  6
CONTINUOUS
 66
1
 70
0
  0
VERTEX
  8
0
 62
7
  6
CONTINUOUS
 10
54.1292942264
 20
72.2897319524
  0
VERTEX
  8
0
 62
7
  6
CONTINUOUS
 10
54.2358671051
 20
72.2814406862
  0
VERTEX
  8
0
 62
7
  6
CONTINUOUS
 10
54.2812919234
 20
72.2806184181
  0
SEQEND
  0
LINE
  8
0
 62
7
  6
CONTINUOUS
 10
72.5806173868
 20
72.2973169608
 11
72.7141995078
 21
72.2806184368
  0
LINE
  8
1_AXIS
 62
2
  6
CENTER
 10
99.7027348395
 20
61.7806183115
 11
99.7027348395
 21
90.7806183115
  0
POLYLINE
  8
0
 62
7
  6
CONTINUOUS
 66
1
 70
0
  0
VERTEX
  8
0
 62
7
  6
CONTINUOUS
 10
43.7020918784
 20
80.2806182061
  0
VERTEX
  8
0
 62
7
  6
CONTINUOUS
 10
43.6492526149
 20
80.2800400254
  0
VERTEX
  8
0
 62
7
  6
CONTINUOUS
 10
43.5192703039
 20
80.2737218933
  0
SEQEND
  0
LINE
  8
1_AXIS
 62
7
  6
CONTINUOUS
 10
155.7033644797
 20
80.2806183115
 11
153.2997601926
 21
80.2806183115
  0
LINE
  8
1_AXIS
 62
7
  6
CONTINUOUS
 10
126.6913335115
 20
80.2806183115
 11
119.5855696913
 21
80.2806183115
  0
LINE
  8
1_AXIS
 62
7
  6
CONTINUOUS
 10
103.5918482715
 20
80.2806183115
 11
95.8136214075
 21
80.2806183115
  0
LINE
  8
1_AXIS
 62
7
  6
CONTINUOUS
 10
79.8198999876
 20
80.2806183115
 11
72.7141361675
 21
80.2806183115
  0
LINE
  8
1_AXIS
 62
7
  6
CONTINUOUS
 10
46.1057094864
 20
80.2806183115
 11
43.7021051993
 21
80.2806183115
  0
LINE
  8
0
 62
7
  6
CONTINUOUS
 10
41.9929570912
 20
80.2806183115
 11
43.6810514518
 21
80.2806183115
  0
LINE
  8
0
 62
7
  6
CONTINUOUS
 10
43.7021052
 20
80.2806183115
 11
72.6933265289
 21
80.2806183115
  0
LINE
  8
0
 62
7
  6
CONTINUOUS
 10
72.7141361675
 20
80.2806183115
 11
155.703364479
 21
80.2806183115
  0
LINE
  8
0
 62
7
  6
CONTINUOUS
 10
155.7241932848
 20
80.2806183115
 11
157.4125125877
 21
80.2806183115
  0
LINE
  8
0
 62
7
  6
CONTINUOUS
 10
72.7141955963
 20
80.2806181878
 11
72.5824484366
 21
80.264378879
  0
LINE
  8
0
 62
7
  6
CONTINUOUS
 10
43.5192703039
 20
80.2737218933
 11
43.4613255206
 21
80.268671443
  0
LINE
  8
0
 62
7
  6
CONTINUOUS
 10
41.7347438429
 20
80.2692024058
 11
41.9929570905
 21
80.2806183115
  0
POLYLINE
  8
0
 62
7
  6
CONTINUOUS
 66
1
 70
0
  0
VERTEX
  8
0
 62
7
  6
CONTINUOUS
 10
54.2812872041
 20
80.2806182042
  0
VERTEX
  8
0
 62
7
  6
CONTINUOUS
 10
54.2411627913
 20
80.2799763105
  0
VERTEX
  8
0
 62
7
  6
CONTINUOUS
 10
54.134570473
 20
80.2721219157
  0
SEQEND
  0
LINE
  8
0
 62
7
  6
CONTINUOUS
 10
157.4125125885
 20
80.2806183115
 11
157.6707258361
 21
80.2692024058
  0
POLYLINE
  8
0
 62
7
  6
CONTINUOUS
 66
1
 70
0
  0
VERTEX
  8
0
 62
7
  6
CONTINUOUS
 10
155.8926594934
 20
80.2732269581
  0
VERTEX
  8
0
 62
7
  6
CONTINUOUS
 10
155.7626369966
 20
80.2798911628
  0
VERTEX
  8
0
 62
7
  6
CONTINUOUS
 10
155.70337093
 20
80.2806182062
  0
SEQEND
  0
POLYLINE
  8
0
 62
7
  6
CONTINUOUS
 66
1
 70
0
  0
VERTEX
  8
0
 62
7
  6
CONTINUOUS
 10
145.2761698582
 20
80.2715053413
  0
VERTEX
  8
0
 62
7
  6
CONTINUOUS
 10
145.1695970257
 20
80.2797961335
  0
VERTEX
  8
0
 62
7
  6
CONTINUOUS
 10
145.1241762729
 20
80.2806182039
  0
SEQEND
  0
LINE
  8
0
 62
7
  6
CONTINUOUS
 10
126.8248565006
 20
80.2639185997
 11
126.6912699802
 21
80.2806181852
  0
LINE
  8
0
 62
7
  6
CONTINUOUS
 10
127.0008857243
 20
72.3679754315
 11
127.05180581
 21
72.3851742011
  0
LINE
  8
0
 62
7
  6
CONTINUOUS
 10
127.0519837937
 20
72.3852300411
 11
127.3910022643
 21
72.4916891721
  0
LINE
  8
0
 62
7
  6
CONTINUOUS
 10
52.7928529284
 20
80.0881211304
 11
52.7391140706
 21
80.0800059038
  0
POLYLINE
  8
0
 62
7
  6
CONTINUOUS
 66
1
 70
0
  0
VERTEX
  8
0
 62
7
  6
CONTINUOUS
 10
54.0838253172
 20
80.265304648
  0
VERTEX
  8
0
 62
7
  6
CONTINUOUS
 10
53.9469944707
 20
80.2447468123
  0
VERTEX
  8
0
 62
7
  6
CONTINUOUS
 10
53.7506163694
 20
80.216672694
  0
SEQEND
  0
LINE
  8
0
 62
7
  6
CONTINUOUS
 10
54.134570473
 20
80.2721219157
 11
54.0838482948
 21
80.2653080583
  0
LINE
  8
0
 62
7
  6
CONTINUOUS
 10
53.7506163694
 20
80.216672694
 11
52.7927980179
 21
80.0881140136
  0
POLYLINE
  8
0
 62
7
  6
CONTINUOUS
 66
1
 70
0
  0
VERTEX
  8
0
 62
7
  6
CONTINUOUS
 10
41.5484584142
 20
80.0845827582
  0
VERTEX
  8
0
 62
7
  6
CONTINUOUS
 10
41.4749975465
 20
80.0765549309
  0
VERTEX
  8
0
 62
7
  6
CONTINUOUS
 10
41.4201711737
 20
80.0691557312
  0
VERTEX
  8
0
 62
7
  6
CONTINUOUS
 10
41.3597965827
 20
80.0565940881
  0
SEQEND
  0
POLYLINE
  8
0
 62
7
  6
CONTINUOUS
 66
1
 70
0
  0
VERTEX
  8
0
 62
7
  6
CONTINUOUS
 10
39.5071344311
 20
80.0716100825
  0
VERTEX
  8
0
 62
7
  6
CONTINUOUS
 10
39.4884973207
 20
80.0697263967
  0
VERTEX
  8
0
 62
7
  6
CONTINUOUS
 10
39.4695297302
 20
80.0675122576
  0
VERTEX
  8
0
 62
7
  6
CONTINUOUS
 10
39.4362592974
 20
80.0620680134
  0
VERTEX
  8
0
 62
7
  6
CONTINUOUS
 10
39.3953553953
 20
80.0521878083
  0
VERTEX
  8
0
 62
7
  6
CONTINUOUS
 10
39.3513000196
 20
80.0373222923
  0
VERTEX
  8
0
 62
7
  6
CONTINUOUS
 10
39.3289665179
 20
80.027982176
  0
VERTEX
  8
0
 62
7
  6
CONTINUOUS
 10
39.2846846635
 20
80.0054895472
  0
VERTEX
  8
0
 62
7
  6
CONTINUOUS
 10
39.2407853376
 20
79.9772347884
  0
VERTEX
  8
0
 62
7
  6
CONTINUOUS
 10
39.197503725
 20
79.9422501373
  0
VERTEX
  8
0
 62
7
  6
CONTINUOUS
 10
39.1559630937
 20
79.8999208749
  0
VERTEX
  8
0
 62
7
  6
CONTINUOUS
 10
39.1178431688
 20
79.8501858513
  0
VERTEX
  8
0
 62
7
  6
CONTINUOUS
 10
39.0847999547
 20
79.7931792048
  0
VERTEX
  8
0
 62
7
  6
CONTINUOUS
 10
39.058489761
 20
79.7291985817
  0
VERTEX
  8
0
 62
7
  6
CONTINUOUS
 10
39.0406627418
 20
79.6588867722
  0
VERTEX
  8
0
 62
7
  6
CONTINUOUS
 10
39.0331036306
 20
79.5833005437
  0
VERTEX
  8
0
 62
7
  6
CONTINUOUS
 10
39.0329639283
 20
79.5714818633
  0
SEQEND
  0
LINE
  8
0
 62
7
  6
CONTINUOUS
 10
43.4613249446
 20
80.268671495
 11
41.6114430703
 21
80.0907806687
  0
LINE
  8
0
 62
7
  6
CONTINUOUS
 10
41.6114430703
 20
80.0907806687
 11
41.5484584142
 21
80.0845827582
  0
LINE
  8
0
 62
7
  6
CONTINUOUS
 10
39.5673413317
 20
80.0772746573
 11
39.5071344311
 21
80.0716100825
  0
LINE
  8
0
 62
7
  6
CONTINUOUS
 10
39.5673413317
 20
80.0772746573
 11
41.7347438429
 21
80.2692024058
  0
LINE
  8
1_AXIS
 62
7
  6
CONTINUOUS
 10
150.2027348395
 20
88.7806183115
 11
49.2027348395
 21
88.7806183115
  0
LINE
  8
0
 62
7
  6
CONTINUOUS
 10
155.9441443962
 20
80.2686714193
 11
155.8926594934
 21
80.2732269581
  0
LINE
  8
0
 62
7
  6
CONTINUOUS
 10
158.2325025356
 20
80.2194148357
 11
159.6894360769
 21
80.0906302045
  0
LINE
  8
0
 62
7
  6
CONTINUOUS
 10
157.6707258361
 20
80.2692024058
 11
158.2325025356
 21
80.2194148357
  0
LINE
  8
0
 62
7
  6
CONTINUOUS
 10
159.8461220804
 20
80.0765383388
 11
159.6899467099
 21
80.0905894852
  0
LINE
  8
0
 62
7
  6
CONTINUOUS
 10
157.8548411557
 20
80.0848043264
 11
155.9441447388
 21
80.2686714961
  0
POLYLINE
  8
0
 62
7
  6
CONTINUOUS
 66
1
 70
0
  0
VERTEX
  8
0
 62
7
  6
CONTINUOUS
 10
146.6126716623
 20
80.0881140134
  0
VERTEX
  8
0
 62
7
  6
CONTINUOUS
 10
145.659074699
 20
80.2160855418
  0
VERTEX
  8
0
 62
7
  6
CONTINUOUS
 10
145.4623990098
 20
80.2441702567
  0
VERTEX
  8
0
 62
7
  6
CONTINUOUS
 10
145.3216440647
 20
80.2653046934
  0
SEQEND
  0
LINE
  8
0
 62
7
  6
CONTINUOUS
 10
145.3216230951
 20
80.2653077954
 11
145.2761698582
 21
80.2715053413
  0
LINE
  8
0
 62
7
  6
CONTINUOUS
 10
146.6304994984
 20
80.0856399181
 11
146.6125538072
 21
80.088129489
  0
POLYLINE
  8
0
 62
7
  6
CONTINUOUS
 66
1
 70
0
  0
VERTEX
  8
0
 62
7
  6
CONTINUOUS
 10
158.0044930455
 20
80.0658499651
  0
VERTEX
  8
0
 62
7
  6
CONTINUOUS
 10
157.9602603249
 20
80.0728022632
  0
VERTEX
  8
0
 62
7
  6
CONTINUOUS
 10
157.9157106516
 20
80.0782738498
  0
VERTEX
  8
0
 62
7
  6
CONTINUOUS
 10
157.8548411557
 20
80.0848043264
  0
SEQEND
  0
LINE
  8
0
 62
7
  6
CONTINUOUS
 10
127.3910022629
 20
80.0695474514
 11
127.0519837937
 21
80.176006582
  0
POLYLINE
  8
0
 62
7
  6
CONTINUOUS
 66
1
 70
0
  0
VERTEX
  8
0
 62
7
  6
CONTINUOUS
 10
127.0517987951
 20
80.1760646207
  0
VERTEX
  8
0
 62
7
  6
CONTINUOUS
 10
127.0018806192
 20
80.1928959867
  0
VERTEX
  8
0
 62
7
  6
CONTINUOUS
 10
126.9808156746
 20
80.2010130419
  0
SEQEND
  0
LINE
  8
0
 62
7
  6
CONTINUOUS
 10
126.9650167124
 20
72.3533043057
 11
126.9656693435
 21
72.3536684034
  0
LINE
  8
0
 62
7
  6
CONTINUOUS
 10
126.9653636784
 20
72.3534491593
 11
126.9680232003
 21
72.3547082256
  0
LINE
  8
0
 62
7
  6
CONTINUOUS
 10
126.9680232003
 20
72.3547082256
 11
127.0008857243
 21
72.3679754315
  0
LINE
  8
0
 62
7
  6
CONTINUOUS
 10
126.8230168594
 20
72.2968566535
 11
126.9650166388
 21
72.3533044377
  0
POLYLINE
  8
0
 62
7
  6
CONTINUOUS
 66
1
 70
0
  0
VERTEX
  8
0
 62
7
  6
CONTINUOUS
 10
127.3910195639
 20
72.4916957176
  0
VERTEX
  8
0
 62
7
  6
CONTINUOUS
 10
127.4489544612
 20
72.5134453963
  0
VERTEX
  8
0
 62
7
  6
CONTINUOUS
 10
127.5728609424
 20
72.5904766505
  0
VERTEX
  8
0
 62
7
  6
CONTINUOUS
 10
127.6786851191
 20
72.7134324938
  0
VERTEX
  8
0
 62
7
  6
CONTINUOUS
 10
127.7425844971
 20
72.8760908526
  0
VERTEX
  8
0
 62
7
  6
CONTINUOUS
 10
127.7525343577
 20
72.9755277877
  0
SEQEND
  0
POLYLINE
  8
0
 62
7
  6
CONTINUOUS
 66
1
 70
0
  0
VERTEX
  8
0
 62
7
  6
CONTINUOUS
 10
52.7391140706
 20
80.0800059038
  0
VERTEX
  8
0
 62
7
  6
CONTINUOUS
 10
52.6643278392
 20
80.0635364845
  0
VERTEX
  8
0
 62
7
  6
CONTINUOUS
 10
52.5728707048
 20
80.0289792622
  0
VERTEX
  8
0
 62
7
  6
CONTINUOUS
 10
52.4775436838
 20
79.9686335586
  0
VERTEX
  8
0
 62
7
  6
CONTINUOUS
 10
52.3916474738
 20
79.8804846223
  0
VERTEX
  8
0
 62
7
  6
CONTINUOUS
 10
52.3272906961
 20
79.7681812663
  0
VERTEX
  8
0
 62
7
  6
CONTINUOUS
 10
52.2925539469
 20
79.6326363176
  0
VERTEX
  8
0
 62
7
  6
CONTINUOUS
 10
52.2894837728
 20
79.5772629585
  0
SEQEND
  0
LINE
  8
0
 62
7
  6
CONTINUOUS
 10
126.9650159955
 20
80.2079325439
 11
126.8248565006
 21
80.2639185997
  0
LINE
  8
0
 62
7
  6
CONTINUOUS
 10
126.9808156746
 20
80.2010130419
 11
126.9656498408
 21
80.2075791137
  0
LINE
  8
0
 62
7
  6
CONTINUOUS
 10
126.9650159955
 20
80.2079325439
 11
126.9656497694
 21
80.207578986
  0
LINE
  8
0
 62
7
  6
CONTINUOUS
 10
126.9656693435
 20
72.3536684034
 11
126.9653636784
 21
72.3534491593
  0
POLYLINE
  8
0
 62
7
  6
CONTINUOUS
 66
1
 70
0
  0
VERTEX
  8
0
 62
7
  6
CONTINUOUS
 10
158.0456964878
 20
72.5046487452
  0
VERTEX
  8
0
 62
7
  6
CONTINUOUS
 10
158.1179548144
 20
72.5297228767
  0
VERTEX
  8
0
 62
7
  6
CONTINUOUS
 10
158.1926592795
 20
72.5699282012
  0
VERTEX
  8
0
 62
7
  6
CONTINUOUS
 10
158.2649124895
 20
72.6272266552
  0
VERTEX
  8
0
 62
7
  6
CONTINUOUS
 10
158.3286467943
 20
72.7013282211
  0
VERTEX
  8
0
 62
7
  6
CONTINUOUS
 10
158.3782655389
 20
72.7898442401
  0
VERTEX
  8
0
 62
7
  6
CONTINUOUS
 10
158.4094568846
 20
72.8887642772
  0
VERTEX
  8
0
 62
7
  6
CONTINUOUS
 10
158.419584486
 20
72.9889051637
  0
SEQEND
  0
POLYLINE
  8
0
 62
7
  6
CONTINUOUS
 66
1
 70
0
  0
VERTEX
  8
0
 62
7
  6
CONTINUOUS
 10
127.7525343579
 20
79.585708865
  0
VERTEX
  8
0
 62
7
  6
CONTINUOUS
 10
127.7428202871
 20
79.683972089
  0
VERTEX
  8
0
 62
7
  6
CONTINUOUS
 10
127.6798267337
 20
79.8459290056
  0
VERTEX
  8
0
 62
7
  6
CONTINUOUS
 10
127.5751923521
 20
79.9687881647
  0
VERTEX
  8
0
 62
7
  6
CONTINUOUS
 10
127.4523781818
 20
80.0462657816
  0
VERTEX
  8
0
 62
7
  6
CONTINUOUS
 10
127.391001062
 20
80.0695467185
  0
SEQEND
  0
LINE
  8
0
 62
7
  6
CONTINUOUS
 10
127.7525342541
 20
79.5857684608
 11
127.7525342541
 21
72.9754681623
  0
LINE
  8
0
 62
7
  6
CONTINUOUS
 10
147.1159866781
 20
79.5773574856
 11
147.1159866781
 21
72.9838791375
  0
POLYLINE
  8
0
 62
7
  6
CONTINUOUS
 66
1
 70
0
  0
VERTEX
  8
0
 62
7
  6
CONTINUOUS
 10
147.1159865065
 20
79.5772574593
  0
VERTEX
  8
0
 62
7
  6
CONTINUOUS
 10
147.1154824634
 20
79.5547925956
  0
VERTEX
  8
0
 62
7
  6
CONTINUOUS
 10
147.0992014891
 20
79.7058444185
  0
VERTEX
  8
0
 62
7
  6
CONTINUOUS
 10
147.0413289543
 20
79.8403854943
  0
VERTEX
  8
0
 62
7
  6
CONTINUOUS
 10
146.9540642916
 20
79.9461656552
  0
VERTEX
  8
0
 62
7
  6
CONTINUOUS
 10
146.9044427732
 20
79.9863632016
  0
VERTEX
  8
0
 62
7
  6
CONTINUOUS
 10
146.8031474319
 20
80.042223509
  0
VERTEX
  8
0
 62
7
  6
CONTINUOUS
 10
146.7113477301
 20
80.0710855766
  0
VERTEX
  8
0
 62
7
  6
CONTINUOUS
 10
146.6304994984
 20
80.0856399181
  0
SEQEND
  0
LINE
  8
1_AXIS
 62
7
  6
CONTINUOUS
 10
152.2027348395
 20
86.7806183115
 11
152.2027348395
 21
81.2806183115
  0
LINE
  8
1_AXIS
 62
7
  6
CONTINUOUS
 10
152.2027348395
 20
71.2806183115
 11
152.2027348395
 21
65.7806183115
  0
POLYLINE
  8
0
 62
7
  6
CONTINUOUS
 66
1
 70
0
  0
VERTEX
  8
0
 62
7
  6
CONTINUOUS
 10
160.3725017439
 20
79.5714824348
  0
VERTEX
  8
0
 62
7
  6
CONTINUOUS
 10
160.3719371123
 20
79.5952377645
  0
VERTEX
  8
0
 62
7
  6
CONTINUOUS
 10
160.3646220504
 20
79.6599002894
  0
VERTEX
  8
0
 62
7
  6
CONTINUOUS
 10
160.3492819411
 20
79.7220845928
  0
VERTEX
  8
0
 62
7
  6
CONTINUOUS
 10
160.326626852
 20
79.7806979698
  0
VERTEX
  8
0
 62
7
  6
CONTINUOUS
 10
160.2975350181
 20
79.8348224922
  0
VERTEX
  8
0
 62
7
  6
CONTINUOUS
 10
160.2630109879
 20
79.8837394579
  0
VERTEX
  8
0
 62
7
  6
CONTINUOUS
 10
160.2241410235
 20
79.9269434547
  0
VERTEX
  8
0
 62
7
  6
CONTINUOUS
 10
160.1820499247
 20
79.964144696
  0
VERTEX
  8
0
 62
7
  6
CONTINUOUS
 10
160.1378576137
 20
79.9952645943
  0
VERTEX
  8
0
 62
7
  6
CONTINUOUS
 10
160.0926422473
 20
80.0204201912
  0
VERTEX
  8
0
 62
7
  6
CONTINUOUS
 10
160.0474242511
 20
80.0398968895
  0
VERTEX
  8
0
 62
7
  6
CONTINUOUS
 10
160.0031466068
 20
80.0541290412
  0
VERTEX
  8
0
 62
7
  6
CONTINUOUS
 10
159.9618654742
 20
80.0634633548
  0
VERTEX
  8
0
 62
7
  6
CONTINUOUS
 10
159.9323953559
 20
80.0679658324
  0
VERTEX
  8
0
 62
7
  6
CONTINUOUS
 10
159.9162174049
 20
80.0698061098
  0
VERTEX
  8
0
 62
7
  6
CONTINUOUS
 10
159.8990322272
 20
80.0715418144
  0
VERTEX
  8
0
 62
7
  6
CONTINUOUS
 10
159.8461220804
 20
80.0765383388
  0
SEQEND
  0
LINE
  8
0
 62
7
  6
CONTINUOUS
 10
158.419584391
 20
79.5724394658
 11
158.419584391
 21
72.9887971574
  0
LINE
  8
0
 62
7
  6
CONTINUOUS
 10
160.372506683
 20
79.571578554
 11
160.372506683
 21
72.989658069
  0
POLYLINE
  8
0
 62
7
  6
CONTINUOUS
 66
1
 70
0
  0
VERTEX
  8
0
 62
7
  6
CONTINUOUS
 10
158.4195844859
 20
79.5723314498
  0
VERTEX
  8
0
 62
7
  6
CONTINUOUS
 10
158.4037992242
 20
79.696995253
  0
VERTEX
  8
0
 62
7
  6
CONTINUOUS
 10
158.3642312765
 20
79.8010404861
  0
VERTEX
  8
0
 62
7
  6
CONTINUOUS
 10
158.3054916024
 20
79.8903224029
  0
VERTEX
  8
0
 62
7
  6
CONTINUOUS
 10
158.2332239732
 20
79.961833578
  0
VERTEX
  8
0
 62
7
  6
CONTINUOUS
 10
158.1534460959
 20
80.0144387674
  0
VERTEX
  8
0
 62
7
  6
CONTINUOUS
 10
158.072412137
 20
80.0487198803
  0
VERTEX
  8
0
 62
7
  6
CONTINUOUS
 10
158.0044930455
 20
80.0658499651
  0
SEQEND
  0
ARC
  8
0
 62
7
  6
CONTINUOUS
 10
53.2012021714
 20
162.224931151
 40
6.2
 50
104.5147783931
 51
111.838
  0
ARC
  8
0
 62
7
  6
CONTINUOUS
 10
53.2012021714
 20
162.224931151
 40
6.2
 50
88.058871156
 51
102.5279766092
  0
ARC
  8
0
 62
7
  6
CONTINUOUS
 10
56.3361083738
 20
158.7432650897
 40
6.2
 50
341.4720233908
 51
355.941128844
  0
ARC
  8
0
 62
7
  6
CONTINUOUS
 10
56.3361083738
 20
158.7432650897
 40
6.2
 50
332.162
 51
339.4852216069
  0
ARC
  8
0
 62
7
  6
CONTINUOUS
 10
53.3434671287
 20
166.4225210168
 40
2.0
 50
36.6723979408
 51
88.058871156
  0
ARC
  8
0
 62
7
  6
CONTINUOUS
 10
60.5255741406
 20
158.4459830866
 40
2.0
 50
355.941128844
 51
47.3276020592
  0
ARC
  8
0
 62
7
  6
CONTINUOUS
 10
49.4446609365
 20
168.2606897378
 40
0.8
 50
213.0354765661
 51
291.838
  0
ARC
  8
0
 62
7
  6
CONTINUOUS
 10
67.0827624106
 20
150.6444171716
 40
0.8
 50
237.0354765661
 51
315.838
  0
ARC
  8
0
 62
7
  6
CONTINUOUS
 10
61.9461369611
 20
154.3763940111
 40
0.8
 50
152.162
 51
230.9645234339
  0
ARC
  8
0
 62
7
  6
CONTINUOUS
 10
41.4734440161
 20
184.4861548932
 40
6.2
 50
80.5147783931
 51
87.838
  0
ARC
  8
0
 62
7
  6
CONTINUOUS
 10
41.4734440161
 20
184.4861548932
 40
6.2
 50
64.058871156
 51
78.5279766092
  0
ARC
  8
0
 62
7
  6
CONTINUOUS
 10
42.9212021714
 20
180.0304134528
 40
6.2
 50
317.4720233908
 51
331.941128844
  0
ARC
  8
0
 62
7
  6
CONTINUOUS
 10
42.9212021714
 20
180.0304134528
 40
6.2
 50
308.162
 51
315.4852216069
  0
ARC
  8
0
 62
7
  6
CONTINUOUS
 10
43.3107231326
 20
188.2629796771
 40
2.0
 50
12.6723979408
 51
64.058871156
  0
ARC
  8
0
 62
7
  6
CONTINUOUS
 10
46.6275541085
 20
178.0548235869
 40
2.0
 50
331.941128844
 51
23.3276020592
  0
ARC
  8
0
 62
7
  6
CONTINUOUS
 10
40.4966370205
 20
191.5280177051
 40
0.8
 50
189.0354765661
 51
267.838
  0
ARC
  8
0
 62
7
  6
CONTINUOUS
 10
39.8329629959
 20
197.8424542538
 40
0.8
 50
104.162
 51
182.9645234339
  0
ARC
  8
0
 62
7
  6
CONTINUOUS
 10
46.2700518212
 20
173.7592740196
 40
0.8
 50
128.162
 51
206.9645234339
  0
ARC
  8
0
 62
7
  6
CONTINUOUS
 10
72.9694977782
 20
146.6584003026
 40
6.2
 50
128.5147783931
 51
135.838
  0
ARC
  8
0
 62
7
  6
CONTINUOUS
 10
72.9694977782
 20
146.6584003026
 40
6.2
 50
112.058871156
 51
126.5279766092
  0
ARC
  8
0
 62
7
  6
CONTINUOUS
 10
97.3602129367
 20
140.4781569493
 40
6.2
 50
152.5147783931
 51
159.838
  0
ARC
  8
0
 62
7
  6
CONTINUOUS
 10
97.3602129367
 20
140.4781569493
 40
6.2
 50
136.058871156
 51
150.5279766092
  0
ARC
  8
0
 62
7
  6
CONTINUOUS
 10
77.2494982656
 20
144.7528213125
 40
6.2
 50
5.4720233908
 51
19.941128844
  0
ARC
  8
0
 62
7
  6
CONTINUOUS
 10
77.2494982656
 20
144.7528213125
 40
6.2
 50
356.162
 51
3.4852216069
  0
ARC
  8
0
 62
7
  6
CONTINUOUS
 10
71.3921496726
 20
150.5509538288
 40
2.0
 50
60.6723979408
 51
112.058871156
  0
ARC
  8
0
 62
7
  6
CONTINUOUS
 10
94.3359895855
 20
143.3926162683
 40
2.0
 50
84.6723979408
 51
136.058871156
  0
ARC
  8
0
 62
7
  6
CONTINUOUS
 10
81.1976811708
 20
146.1852499311
 40
2.0
 50
19.941128844
 51
71.3276020592
  0
ARC
  8
0
 62
7
  6
CONTINUOUS
 10
90.3611534608
 20
141.7252135719
 40
0.8
 50
261.0354765661
 51
339.838
  0
ARC
  8
0
 62
7
  6
CONTINUOUS
 10
84.150680882
 20
143.0452902696
 40
0.8
 50
176.162
 51
254.9645234339
  0
ARC
  8
0
 62
7
  6
CONTINUOUS
 10
39.8140592406
 20
209.5929037074
 40
6.2
 50
56.5147783931
 51
63.838
  0
ARC
  8
0
 62
7
  6
CONTINUOUS
 10
39.8140592406
 20
209.5929037074
 40
6.2
 50
40.058871156
 51
54.5279766092
  0
ARC
  8
0
 62
7
  6
CONTINUOUS
 10
46.167448645
 20
229.1466256824
 40
6.2
 50
269.4720233908
 51
283.941128844
  0
ARC
  8
0
 62
7
  6
CONTINUOUS
 10
46.167448645
 20
229.1466256824
 40
6.2
 50
260.162
 51
267.4852216069
  0
ARC
  8
0
 62
7
  6
CONTINUOUS
 10
39.3243388113
 20
204.933525062
 40
6.2
 50
293.4720233908
 51
307.941128844
  0
ARC
  8
0
 62
7
  6
CONTINUOUS
 10
39.3243388113
 20
204.933525062
 40
6.2
 50
284.162
 51
291.4852216069
  0
ARC
  8
QUILTS
 62
7
  6
CONTINUOUS
 10
57.6298813589
 20
200.9429250892
 40
4.0
 50
179.1615897475
 51
285.0
  0
ARC
  8
QUILTS
 62
7
  6
CONTINUOUS
 10
57.6298813589
 20
200.9429250892
 40
4.0
 50
75.0
 51
171.6891999572
  0
ARC
  8
0
 62
7
  6
CONTINUOUS
 10
43.028670266
 20
212.2959160927
 40
2.0
 50
348.6723979408
 51
40.058871156
  0
ARC
  8
0
 62
7
  6
CONTINUOUS
 10
47.179332778
 20
225.0703417741
 40
2.0
 50
283.941128844
 51
335.3276020592
  0
ARC
  8
0
 62
7
  6
CONTINUOUS
 10
41.9067149978
 20
201.6212247689
 40
2.0
 50
307.941128844
 51
359.3276020592
  0
ARC
  8
0
 62
7
  6
CONTINUOUS
 10
41.7858852879
 20
216.4232686908
 40
0.8
 50
165.0354765661
 51
243.838
  0
ARC
  8
0
 62
7
  6
CONTINUOUS
 10
43.7479016222
 20
222.4617340624
 40
0.8
 50
80.162
 51
158.9645234339
  0
ARC
  8
0
 62
7
  6
CONTINUOUS
 10
66.0575758726
 20
251.2368499029
 40
6.2
 50
8.5147783931
 51
15.838
  0
ARC
  8
0
 62
7
  6
CONTINUOUS
 10
66.0575758726
 20
251.2368499029
 40
6.2
 50
352.058871156
 51
6.5279766092
  0
ARC
  8
0
 62
7
  6
CONTINUOUS
 10
48.5099705478
 20
233.2039926359
 40
6.2
 50
32.5147783931
 51
39.838
  0
ARC
  8
0
 62
7
  6
CONTINUOUS
 10
48.5099705478
 20
233.2039926359
 40
6.2
 50
16.058871156
 51
30.5279766092
  0
ARC
  8
0
 62
7
  6
CONTINUOUS
 10
62.2672958145
 20
248.4830502477
 40
6.2
 50
245.4720233908
 51
259.941128844
  0
ARC
  8
0
 62
7
  6
CONTINUOUS
 10
62.2672958145
 20
248.4830502477
 40
6.2
 50
236.162
 51
243.4852216069
  0
ARC
  8
0
 62
7
  6
CONTINUOUS
 10
52.5460780319
 20
234.3658172252
 40
2.0
 50
324.6723979408
 51
16.058871156
  0
ARC
  8
0
 62
7
  6
CONTINUOUS
 10
61.5337239348
 20
244.3476092437
 40
2.0
 50
259.941128844
 51
311.3276020592
  0
ARC
  8
0
 62
7
  6
CONTINUOUS
 10
53.0894830009
 20
238.6418276333
 40
0.8
 50
141.0354765661
 51
219.838
  0
ARC
  8
0
 62
7
  6
CONTINUOUS
 10
57.3379392454
 20
243.3602163072
 40
0.8
 50
56.162
 51
134.9645234339
  0
ARC
  8
0
 62
7
  6
CONTINUOUS
 10
89.4227348395
 20
260.5734306638
 40
6.2
 50
344.5147783931
 51
351.838
  0
ARC
  8
0
 62
7
  6
CONTINUOUS
 10
89.4227348395
 20
260.5734306638
 40
6.2
 50
328.058871156
 51
342.5279766092
  0
ARC
  8
0
 62
7
  6
CONTINUOUS
 10
84.8400704817
 20
259.5993552846
 40
6.2
 50
221.4720233908
 51
235.941128844
  0
ARC
  8
0
 62
7
  6
CONTINUOUS
 10
84.8400704817
 20
259.5993552846
 40
6.2
 50
212.162
 51
219.4852216069
  0
ARC
  8
0
 62
7
  6
CONTINUOUS
 10
92.9868218193
 20
258.3514306638
 40
2.0
 50
276.6723979408
 51
328.058871156
  0
ARC
  8
0
 62
7
  6
CONTINUOUS
 10
70.2173001646
 20
250.6565966699
 40
2.0
 50
300.6723979408
 51
352.058871156
  0
ARC
  8
0
 62
7
  6
CONTINUOUS
 10
82.4878838315
 20
256.1198125039
 40
2.0
 50
235.941128844
 51
287.3276020592
  0
ARC
  8
0
 62
7
  6
CONTINUOUS
 10
96.5281257242
 20
260.8088115101
 40
0.8
 50
93.0354765661
 51
171.838
  0
ARC
  8
0
 62
7
  6
CONTINUOUS
 10
72.4529354248
 20
254.3419038421
 40
0.8
 50
117.0354765661
 51
195.838
  0
ARC
  8
0
 62
7
  6
CONTINUOUS
 10
78.2532348989
 20
256.9243635514
 40
0.8
 50
32.162
 51
110.9645234339
  0
ARC
  8
0
 62
7
  6
CONTINUOUS
 10
122.1559714133
 20
144.7528213125
 40
6.2
 50
176.5147783931
 51
183.838
  0
ARC
  8
0
 62
7
  6
CONTINUOUS
 10
122.1559714133
 20
144.7528213125
 40
6.2
 50
160.058871156
 51
174.5279766092
  0
ARC
  8
0
 62
7
  6
CONTINUOUS
 10
102.0452567423
 20
140.4781569493
 40
6.2
 50
29.4720233908
 51
43.941128844
  0
ARC
  8
0
 62
7
  6
CONTINUOUS
 10
102.0452567423
 20
140.4781569493
 40
6.2
 50
20.162
 51
27.4852216069
  0
ARC
  8
0
 62
7
  6
CONTINUOUS
 10
126.4359719008
 20
146.6584003026
 40
6.2
 50
53.4720233908
 51
67.941128844
  0
ARC
  8
0
 62
7
  6
CONTINUOUS
 10
126.4359719008
 20
146.6584003026
 40
6.2
 50
44.162
 51
51.4852216069
  0
ARC
  8
0
 62
7
  6
CONTINUOUS
 10
99.7027348395
 20
158.8700716086
 40
4.0
 50
165.0
 51
358.8461538462
  0
ARC
  8
0
 62
7
  6
CONTINUOUS
 10
118.2077885082
 20
146.1852499311
 40
2.0
 50
108.6723979408
 51
160.058871156
  0
ARC
  8
0
 62
7
  6
CONTINUOUS
 10
105.0694800934
 20
143.3926162683
 40
2.0
 50
43.941128844
 51
95.3276020592
  0
ARC
  8
0
 62
7
  6
CONTINUOUS
 10
128.0133200063
 20
150.5509538288
 40
2.0
 50
67.941128844
 51
119.3276020592
  0
ARC
  8
0
 62
7
  6
CONTINUOUS
 10
115.2547887969
 20
143.0452902696
 40
0.8
 50
285.0354765661
 51
3.838
  0
ARC
  8
0
 62
7
  6
CONTINUOUS
 10
109.0443162182
 20
141.7252135719
 40
0.8
 50
200.162
 51
278.9645234339
  0
ARC
  8
0
 62
7
  6
CONTINUOUS
 10
146.2042675076
 20
162.224931151
 40
6.2
 50
68.162
 51
75.4852216069
  0
ARC
  8
0
 62
7
  6
CONTINUOUS
 10
146.2042675076
 20
162.224931151
 40
6.2
 50
77.4720233908
 51
91.941128844
  0
ARC
  8
0
 62
7
  6
CONTINUOUS
 10
143.0693613051
 20
158.7432650897
 40
6.2
 50
200.5147783931
 51
207.838
  0
ARC
  8
0
 62
7
  6
CONTINUOUS
 10
143.0693613051
 20
158.7432650897
 40
6.2
 50
184.058871156
 51
198.5279766092
  0
ARC
  8
0
 62
7
  6
CONTINUOUS
 10
146.0620025503
 20
166.4225210168
 40
2.0
 50
91.941128844
 51
143.3276020592
  0
ARC
  8
0
 62
7
  6
CONTINUOUS
 10
138.8798955384
 20
158.4459830866
 40
2.0
 50
132.6723979408
 51
184.058871156
  0
ARC
  8
0
 62
7
  6
CONTINUOUS
 10
149.9608087424
 20
168.2606897378
 40
0.8
 50
248.162
 51
326.9645234339
  0
ARC
  8
0
 62
7
  6
CONTINUOUS
 10
137.4593327179
 20
154.3763940111
 40
0.8
 50
309.0354765661
 51
27.838
  0
ARC
  8
0
 62
7
  6
CONTINUOUS
 10
132.3227072684
 20
150.6444171716
 40
0.8
 50
224.162
 51
302.9645234339
  0
ARC
  8
0
 62
7
  6
CONTINUOUS
 10
157.9320256629
 20
184.4861548932
 40
6.2
 50
92.162
 51
99.4852216069
  0
ARC
  8
0
 62
7
  6
CONTINUOUS
 10
157.9320256629
 20
184.4861548932
 40
6.2
 50
101.4720233908
 51
115.941128844
  0
ARC
  8
0
 62
7
  6
CONTINUOUS
 10
156.4842675076
 20
180.0304134528
 40
6.2
 50
208.058871156
 51
222.5279766092
  0
ARC
  8
0
 62
7
  6
CONTINUOUS
 10
156.4842675076
 20
180.0304134528
 40
6.2
 50
224.5147783931
 51
231.838
  0
ARC
  8
0
 62
7
  6
CONTINUOUS
 10
156.0947465463
 20
188.2629796771
 40
2.0
 50
115.941128844
 51
167.3276020592
  0
ARC
  8
0
 62
7
  6
CONTINUOUS
 10
152.7779155704
 20
178.0548235869
 40
2.0
 50
156.6723979408
 51
208.058871156
  0
ARC
  8
0
 62
7
  6
CONTINUOUS
 10
158.9088326584
 20
191.5280177051
 40
0.8
 50
272.162
 51
350.9645234339
  0
ARC
  8
0
 62
7
  6
CONTINUOUS
 10
159.572506683
 20
197.8424542538
 40
0.8
 50
357.0354765661
 51
75.838
  0
ARC
  8
0
 62
7
  6
CONTINUOUS
 10
153.1354178577
 20
173.7592740196
 40
0.8
 50
333.0354765661
 51
51.838
  0
ARC
  8
0
 62
7
  6
CONTINUOUS
 10
99.7027348395
 20
200.9429250892
 40
55.8
 50
96.6723979408
 51
107.3276020592
  0
ARC
  8
0
 62
7
  6
CONTINUOUS
 10
99.7027348395
 20
200.9429250892
 40
55.8
 50
72.6723979408
 51
83.3276020592
  0
ARC
  8
0
 62
7
  6
CONTINUOUS
 10
99.7027348395
 20
200.9429250892
 40
55.8
 50
120.6723979408
 51
131.3276020592
  0
ARC
  8
0
 62
7
  6
CONTINUOUS
 10
99.7027348395
 20
200.9429250892
 40
55.8
 50
144.6723979408
 51
155.3276020592
  0
ARC
  8
0
 62
7
  6
CONTINUOUS
 10
99.7027348395
 20
200.9429250892
 40
55.8
 50
168.6723979408
 51
179.3276020592
  0
ARC
  8
0
 62
7
  6
CONTINUOUS
 10
99.7027348395
 20
200.9429250892
 40
55.8
 50
192.6723979408
 51
203.3276020592
  0
ARC
  8
0
 62
7
  6
CONTINUOUS
 10
99.7027348395
 20
200.9429250892
 40
55.8
 50
48.6723979408
 51
59.3276020592
  0
ARC
  8
0
 62
7
  6
CONTINUOUS
 10
99.7027348395
 20
200.9429250892
 40
55.8
 50
216.6723979408
 51
227.3276020592
  0
ARC
  8
0
 62
7
  6
CONTINUOUS
 10
99.7027348395
 20
200.9429250892
 40
55.8
 50
240.6723979408
 51
251.3276020592
  0
ARC
  8
0
 62
7
  6
CONTINUOUS
 10
99.7027348395
 20
200.9429250892
 40
55.8
 50
24.6723979408
 51
35.3276020592
  0
ARC
  8
0
 62
7
  6
CONTINUOUS
 10
99.7027348395
 20
200.9429250892
 40
55.8
 50
264.6723979408
 51
275.3276020592
  0
ARC
  8
0
 62
7
  6
CONTINUOUS
 10
99.7027348395
 20
200.9429250892
 40
55.8
 50
288.6723979408
 51
299.3276020592
  0
ARC
  8
0
 62
7
  6
CONTINUOUS
 10
99.7027348395
 20
200.9429250892
 40
55.8
 50
0.6723979408
 51
11.3276020592
  0
ARC
  8
0
 62
7
  6
CONTINUOUS
 10
99.7027348395
 20
200.9429250892
 40
55.8
 50
312.6723979408
 51
323.3276020592
  0
ARC
  8
0
 62
7
  6
CONTINUOUS
 10
99.7027348395
 20
200.9429250892
 40
55.8
 50
336.6723979408
 51
347.3276020592
  0
CIRCLE
  8
1_AXIS
 62
7
  6
CONTINUOUS
 10
99.7027348395
 20
200.9429250892
 40
52.5
  0
ARC
  8
0
 62
7
  6
CONTINUOUS
 10
109.9827348395
 20
260.5734306638
 40
6.2
 50
197.4720233908
 51
211.941128844
  0
ARC
  8
0
 62
7
  6
CONTINUOUS
 10
109.9827348395
 20
260.5734306638
 40
6.2
 50
188.162
 51
195.4852216069
  0
ARC
  8
0
 62
7
  6
CONTINUOUS
 10
114.5653991972
 20
259.5993552846
 40
6.2
 50
304.058871156
 51
318.5279766092
  0
ARC
  8
0
 62
7
  6
CONTINUOUS
 10
114.5653991972
 20
259.5993552846
 40
6.2
 50
320.5147783931
 51
327.838
  0
ARC
  8
0
 62
7
  6
CONTINUOUS
 10
99.7027348395
 20
243.0157785698
 40
4.0
 50
345.0
 51
178.8461538462
  0
ARC
  8
0
 62
7
  6
CONTINUOUS
 10
106.4186478596
 20
258.3514306638
 40
2.0
 50
211.941128844
 51
263.3276020592
  0
ARC
  8
0
 62
7
  6
CONTINUOUS
 10
129.1881695144
 20
250.6565966699
 40
2.0
 50
187.941128844
 51
239.3276020592
  0
ARC
  8
0
 62
7
  6
CONTINUOUS
 10
116.9175858474
 20
256.1198125039
 40
2.0
 50
252.6723979408
 51
304.058871156
  0
ARC
  8
0
 62
7
  6
CONTINUOUS
 10
102.8773439548
 20
260.8088115101
 40
0.8
 50
8.162
 51
86.9645234339
  0
ARC
  8
0
 62
7
  6
CONTINUOUS
 10
126.9525342541
 20
254.3419038421
 40
0.8
 50
344.162
 51
62.9645234339
  0
ARC
  8
0
 62
7
  6
CONTINUOUS
 10
121.15223478
 20
256.9243635514
 40
0.8
 50
69.0354765661
 51
147.838
  0
ARC
  8
0
 62
7
  6
CONTINUOUS
 10
159.5914104383
 20
209.5929037074
 40
6.2
 50
116.162
 51
123.4852216069
  0
ARC
  8
0
 62
7
  6
CONTINUOUS
 10
159.5914104383
 20
209.5929037074
 40
6.2
 50
125.4720233908
 51
139.941128844
  0
ARC
  8
0
 62
7
  6
CONTINUOUS
 10
153.238021034
 20
229.1466256824
 40
6.2
 50
256.058871156
 51
270.5279766092
  0
ARC
  8
0
 62
7
  6
CONTINUOUS
 10
153.238021034
 20
229.1466256824
 40
6.2
 50
272.5147783931
 51
279.838
  0
ARC
  8
0
 62
7
  6
CONTINUOUS
 10
160.0811308677
 20
204.933525062
 40
6.2
 50
232.058871156
 51
246.5279766092
  0
ARC
  8
0
 62
7
  6
CONTINUOUS
 10
160.0811308677
 20
204.933525062
 40
6.2
 50
248.5147783931
 51
255.838
  0
ARC
  8
0
 62
7
  6
CONTINUOUS
 10
141.7755883201
 20
200.9429250892
 40
4.0
 50
255.0
 51
88.8461538462
  0
ARC
  8
0
 62
7
  6
CONTINUOUS
 10
156.3767994129
 20
212.2959160927
 40
2.0
 50
139.941128844
 51
191.3276020592
  0
ARC
  8
0
 62
7
  6
CONTINUOUS
 10
152.226136901
 20
225.0703417741
 40
2.0
 50
204.6723979408
 51
256.058871156
  0
ARC
  8
0
 62
7
  6
CONTINUOUS
 10
157.4987546812
 20
201.6212247689
 40
2.0
 50
180.6723979408
 51
232.058871156
  0
ARC
  8
0
 62
7
  6
CONTINUOUS
 10
157.619584391
 20
216.4232686908
 40
0.8
 50
296.162
 51
14.9645234339
  0
ARC
  8
0
 62
7
  6
CONTINUOUS
 10
155.6575680568
 20
222.4617340624
 40
0.8
 50
21.0354765661
 51
99.838
  0
ARC
  8
0
 62
7
  6
CONTINUOUS
 10
133.3478938064
 20
251.2368499029
 40
6.2
 50
164.162
 51
171.4852216069
  0
ARC
  8
0
 62
7
  6
CONTINUOUS
 10
133.3478938064
 20
251.2368499029
 40
6.2
 50
173.4720233908
 51
187.941128844
  0
ARC
  8
0
 62
7
  6
CONTINUOUS
 10
150.8954991312
 20
233.2039926359
 40
6.2
 50
140.162
 51
147.4852216069
  0
ARC
  8
0
 62
7
  6
CONTINUOUS
 10
150.8954991312
 20
233.2039926359
 40
6.2
 50
149.4720233908
 51
163.941128844
  0
ARC
  8
0
 62
7
  6
CONTINUOUS
 10
137.1381738645
 20
248.4830502477
 40
6.2
 50
280.058871156
 51
294.5279766092
  0
ARC
  8
0
 62
7
  6
CONTINUOUS
 10
137.1381738645
 20
248.4830502477
 40
6.2
 50
296.5147783931
 51
303.838
  0
ARC
  8
0
 62
7
  6
CONTINUOUS
 10
146.859391647
 20
234.3658172252
 40
2.0
 50
163.941128844
 51
215.3276020592
  0
ARC
  8
0
 62
7
  6
CONTINUOUS
 10
137.8717457442
 20
244.3476092437
 40
2.0
 50
228.6723979408
 51
280.058871156
  0
ARC
  8
0
 62
7
  6
CONTINUOUS
 10
146.3159866781
 20
238.6418276333
 40
0.8
 50
320.162
 51
38.9645234339
  0
ARC
  8
0
 62
7
  6
CONTINUOUS
 10
142.0675304336
 20
243.3602163072
 40
0.8
 50
45.0354765661
 51
123.838
  0
ARC
  8
1_AXIS
 62
7
  6
CONTINUOUS
 10
150.2027348395
 20
86.7806183115
 40
2.0
 50
0.0
 51
90.0
  0
ARC
  8
1_AXIS
 62
7
  6
CONTINUOUS
 10
150.2027348395
 20
65.7806183115
 40
2.0
 50
270.0
 51
360.0
  0
ARC
  8
1_AXIS
 62
7
  6
CONTINUOUS
 10
49.2027348395
 20
86.7806183115
 40
2.0
 50
90.0
 51
180.0
  0
ARC
  8
1_AXIS
 62
7
  6
CONTINUOUS
 10
49.2027348395
 20
65.7806183115
 40
2.0
 50
180.0
 51
270.0
  0
ARC
  8
1_AXIS
 62
7
  6
CONTINUOUS
 10
153.2027348395
 20
81.2806183115
 40
1.0
 50
180.0
 51
270.0
  0
ARC
  8
1_AXIS
 62
7
  6
CONTINUOUS
 10
153.2027348395
 20
71.2806183115
 40
1.0
 50
90.0
 51
180.0
  0
ARC
  8
1_AXIS
 62
7
  6
CONTINUOUS
 10
46.2027348395
 20
81.2806183115
 40
1.0
 50
270.0
 51
360.0
  0
ARC
  8
1_AXIS
 62
7
  6
CONTINUOUS
 10
46.2027348395
 20
71.2806183115
 40
1.0
 50
0.0
 51
90.0
  0
ENDSEC
  0
EOF
