  0
SECTION
  2
HEADER
  9
$EXTMAX
 10
210.0
 20
297.0
 30
0.0
  9
$EXTMIN
 10
0.0
 20
0.0
 30
0.0
  9
$LIMMIN
 10
0.0
 20
0.0
  9
$LIMMAX
 10
210.0
 20
297.0
  9
$VIEWCTR
 10
105.0
 20
148.5
  9
$VIEWSIZE
 40
297.0
  9
$CLAYER
  8
0
  9
$LTSCALE
 40
19.36
  9
$CELTYPE
  6
BYLAYER
  9
$DIMSCALE
 40
1.0
  9
$DIMASZ
 40
3.5
  9
$DIMEXO
 40
1.0
  9
$DIMDLI
 40
13.376
  9
$DIMEXE
 40
2.0
  9
$DIMCEN
 40
3.168
  9
$DIMLFAC
 40
1.0
  9
$DIMBLK
  1
_FILLED
  9
$DIMALT
 70
0
  9
$DIMALTF
 40
0.0393700787
  9
$DIMTXT
 40
3.5
  9
$AUNITS
 70
0
  9
$PDMODE
 70
3
  9
$PDSIZE
 40
0.3125
  9
$TILEMODE
 70
1
  0
ENDSEC
  0
SECTION
  2
TABLES
  0
TABLE
  2
LTYPE
 70
6
  0
LTYPE
  2
BYBLOCK
 70
0
  3

 72
65
 73
0
 40
0.0
  0
LTYPE
  2
BYLAYER
 70
0
  3

 72
65
 73
0
 40
0.0
  0
LTYPE
  2
CONTINUOUS
 70
64
  3
Solid line
 72
65
 73
0
 40
0.0
  0
LTYPE
  2
CENTER
 70
64
  3
____ _ ____ _ ____ _ ____ _ ____ _ ____ _ ____
 72
65
 73
4
 40
0.6
 49
0.375
 49
-0.075
 49
0.075
 49
-0.075
  0
LTYPE
  2
HIDDEN
 70
64
  3
- - - - - - - - - - - - - - - - - - - -
 72
65
 73
2
 40
0.2
 49
0.1
 49
-0.1
  0
LTYPE
  2
PHANTOM
 70
64
  3
_____ _ _ _____ _ _ _____ _ _ _____
 72
65
 73
6
 40
0.8
 49
0.45
 49
-0.05
 49
0.1
 49
-0.05
 49
0.1
 49
-0.05
  0
LTYPE
  2
DOT
 70
64
  3
. . . . . . . . . . . . . . . . . . . .
 72
65
 73
2
 40
0.2
 49
0.1
 49
-0.1
  0
LTYPE
  2
DASHED
 70
64
  3
- - - - - - - - - - - - - - - - - - - -
 72
65
 73
2
 40
0.2
 49
0.1
 49
-0.1
  0
ENDTAB
  0
TABLE
  2
LAYER
 70
36
  0
LAYER
  2
0
 70
0
 62
7
  6
CONTINUOUS
  0
LAYER
  2
DEFAULT_1
 70
0
 62
7
  6
CENTER
  0
LAYER
  2
DEFAULT_2
 70
0
 62
8
  6
HIDDEN
  0
LAYER
  2
DEFAULT_3
 70
0
 62
7
  6
PHANTOM
  0
LAYER
  2
1_AXIS
 70
0
 62
7
  6
CONTINUOUS
  0
LAYER
  2
1_CSYS
 70
0
 62
7
  6
CONTINUOUS
  0
LAYER
  2
1_DATUM_PLANE
 70
0
 62
7
  6
CONTINUOUS
  0
LAYER
  2
2_FEATURE
 70
0
 62
7
  6
CONTINUOUS
  0
LAYER
  2
6_DIM
 70
0
 62
7
  6
CONTINUOUS
  0
LAYER
  2
AXES
 70
0
 62
7
  6
CONTINUOUS
  0
LAYER
  2
CSYS
 70
0
 62
7
  6
CONTINUOUS
  0
LAYER
  2
PITCH
 70
0
 62
7
  6
CONTINUOUS
  0
LAYER
  2
PLANES
 70
0
 62
7
  6
CONTINUOUS
  0
LAYER
  2
QUILTS
 70
0
 62
7
  6
CONTINUOUS
  0
LAYER
  2
SQ
 70
0
 62
7
  6
CONTINUOUS
  0
ENDTAB
  0
TABLE
  2
STYLE
 70
1
  0
STYLE
  2
STANDARD
 70
0
 40
0.0
 41
0.8
 50
0.0
 71
0
 42
0.2
  3
txt
  4

  0
STYLE
  2
TEXTSTYLE_1
 70
0
 40
0.0
 41
0.8
 50
0.0
 71
0
 42
0.2
  3
gdt
  4

  0
STYLE
  2
TEXTSTYLE_2
 70
0
 40
0.0
 41
0.6
 50
0.0
 71
0
 42
0.2
  3
txt
  4

  0
STYLE
  2
TEXTSTYLE_3
 70
0
 40
0.0
 41
1.0
 50
0.0
 71
0
 42
0.2
  3
ftb_____.ttf
  4

  0
STYLE
  2
TEXTSTYLE_4
 70
0
 40
0.0
 41
1.0
 50
0.0
 71
0
 42
0.2
  3
fti_____.ttf
  4

  0
STYLE
  2
TEXTSTYLE_5
 70
0
 40
0.0
 41
1.0
 50
0.0
 71
0
 42
0.2
  3
frutiger light.ttf
  4

  0
STYLE
  2
TEXTSTYLE_6
 70
0
 40
0.0
 41
0.7
 50
0.0
 71
0
 42
0.2
  3
txt
  4

  0
STYLE
  2
TEXTSTYLE_7
 70
0
 40
0.0
 41
0.6
 50
0.0
 71
0
 42
0.2
  3
txt
  4

  0
ENDTAB
  0
ENDSEC
  0
SECTION
  2
BLOCKS
  0
BLOCK
  8
0
 62
2
  6
CONTINUOUS
  2
UNI_LOGO2_BL1
 70
64
 10
173.5956734183
 20
35.5937998301
  0
TEXT
  8
0
 62
7
  6
CONTINUOUS
 10
164.6539584268
 20
30.6865562072
  7
TEXTSTYLE_4
 40
1.0655737705
  1
The brand for plastic modular belts and chains
 41
1.0
 72
0
  0
LINE
  8
0
 62
7
  6
CONTINUOUS
 10
149.5737418074
 20
36.1675703219
 11
149.5737418074
 21
34.0364227809
  0
LINE
  8
0
 62
7
  6
CONTINUOUS
 10
149.8628043005
 20
31.0454914852
 11
149.8628043005
 21
31.1422825445
  0
LINE
  8
0
 62
7
  6
CONTINUOUS
 10
149.5737418074
 20
31.1100188581
 11
149.6315543091
 21
30.9164367395
  0
LINE
  8
0
 62
7
  6
CONTINUOUS
 10
150.9671844304
 20
33.9544555678
 11
150.9671844304
 21
36.1675703219
  0
LINE
  8
0
 62
7
  6
CONTINUOUS
 10
151.8862417523
 20
32.1101932727
 11
151.8862417523
 21
30.5937998301
  0
LINE
  8
0
 62
7
  6
CONTINUOUS
 10
152.1753043074
 20
30.5937998301
 11
152.1753043074
 21
31.3358647082
  0
LINE
  8
0
 62
7
  6
CONTINUOUS
 10
152.1753043074
 20
31.4649194539
 11
152.1753043074
 21
32.1101932727
  0
LINE
  8
0
 62
7
  6
CONTINUOUS
 10
149.6315543091
 20
31.3036010218
 11
149.5737418074
 21
31.1100188581
  0
LINE
  8
0
 62
7
  6
CONTINUOUS
 10
149.9784292936
 20
30.8841730531
 11
149.8628043005
 21
31.0454914852
  0
LINE
  8
0
 62
7
  6
CONTINUOUS
 10
151.0768668626
 20
31.400392081
 11
151.1346793074
 21
31.3036010218
  0
LINE
  8
0
 62
7
  6
CONTINUOUS
 10
151.4237418626
 20
31.3036010218
 11
151.3659292523
 21
31.4326557675
  0
LINE
  8
0
 62
7
  6
CONTINUOUS
 10
152.852430332
 20
36.1675703219
 11
152.852430332
 21
34.3642916334
  0
LINE
  8
0
 62
7
  6
CONTINUOUS
 10
152.852430332
 20
33.0528162235
 11
152.852430332
 21
32.3970785186
  0
LINE
  8
0
 62
7
  6
CONTINUOUS
 10
153.2159293074
 20
31.2390736489
 11
153.2159293074
 21
30.5937998301
  0
LINE
  8
0
 62
7
  6
CONTINUOUS
 10
153.5049916972
 20
30.5937998301
 11
153.5049916972
 21
31.2390736489
  0
LINE
  8
0
 62
7
  6
CONTINUOUS
 10
149.8628043005
 20
31.1422825445
 11
149.9206168074
 21
31.2713373354
  0
LINE
  8
0
 62
7
  6
CONTINUOUS
 10
149.6315543091
 20
30.9164367395
 11
149.7471793074
 21
30.7873819712
  0
LINE
  8
0
 62
7
  6
CONTINUOUS
 10
153.1581166972
 20
31.3681283946
 11
153.2159293074
 21
31.2390736489
  0
LINE
  8
0
 62
7
  6
CONTINUOUS
 10
153.9674919177
 20
30.8841730531
 11
154.0253041972
 21
30.7551182848
  0
LINE
  8
0
 62
7
  6
CONTINUOUS
 10
153.5049916972
 20
31.2390736489
 11
153.4471794177
 21
31.400392081
  0
LINE
  8
0
 62
7
  6
CONTINUOUS
 10
153.9674919177
 20
31.4326557675
 11
153.9674919177
 21
31.3681283946
  0
LINE
  8
0
 62
7
  6
CONTINUOUS
 10
153.9674919177
 20
30.9809641124
 11
153.9674919177
 21
30.8841730531
  0
LINE
  8
0
 62
7
  6
CONTINUOUS
 10
154.245872955
 20
32.3970785186
 11
154.245872955
 21
36.1675703219
  0
LINE
  8
0
 62
7
  6
CONTINUOUS
 10
154.2565543074
 20
30.8519093441
 11
154.2565543074
 21
30.9164367395
  0
LINE
  8
0
 62
7
  6
CONTINUOUS
 10
154.5737418074
 20
36.1675703219
 11
154.5737418074
 21
32.3970785186
  0
LINE
  8
0
 62
7
  6
CONTINUOUS
 10
151.3659292523
 20
30.7873819712
 11
151.4237418626
 21
30.9164367395
  0
LINE
  8
0
 62
7
  6
CONTINUOUS
 10
155.759679528
 20
30.6905909007
 11
155.7018665869
 21
30.8519093441
  0
LINE
  8
0
 62
7
  6
CONTINUOUS
 10
155.412804528
 20
31.3681283946
 11
155.412804528
 21
31.2713373354
  0
LINE
  8
0
 62
7
  6
CONTINUOUS
 10
155.412804528
 20
31.1422825445
 11
155.412804528
 21
30.9487004259
  0
LINE
  8
0
 62
7
  6
CONTINUOUS
 10
155.7018665869
 20
30.8519093441
 11
155.7018665869
 21
31.3681283946
  0
LINE
  8
0
 62
7
  6
CONTINUOUS
 10
155.9671844304
 20
32.3970785186
 11
155.9671844304
 21
34.2003572071
  0
LINE
  8
0
 62
7
  6
CONTINUOUS
 10
155.9671844304
 20
35.511832617
 11
155.9671844304
 21
36.1675703219
  0
LINE
  8
0
 62
7
  6
CONTINUOUS
 10
156.279992028
 20
32.1101932727
 11
156.279992028
 21
31.9488748406
  0
LINE
  8
0
 62
7
  6
CONTINUOUS
 10
156.279992028
 20
31.626237886
 11
156.279992028
 21
30.5937998301
  0
LINE
  8
0
 62
7
  6
CONTINUOUS
 10
156.5690540869
 20
30.5937998301
 11
156.5690540869
 21
31.626237886
  0
LINE
  8
0
 62
7
  6
CONTINUOUS
 10
156.5690540869
 20
31.9488748406
 11
156.5690540869
 21
32.1101932727
  0
LINE
  8
0
 62
7
  6
CONTINUOUS
 10
151.1346793074
 20
30.9164367395
 11
151.0768668626
 21
30.8196456577
  0
LINE
  8
0
 62
7
  6
CONTINUOUS
 10
153.4471794177
 20
31.400392081
 11
153.3893668074
 21
31.4649194539
  0
LINE
  8
0
 62
7
  6
CONTINUOUS
 10
154.3143669177
 20
30.7873819712
 11
154.2565543074
 21
30.8519093441
  0
LINE
  8
0
 62
7
  6
CONTINUOUS
 10
155.4706168074
 20
30.6583272086
 11
155.5284290869
 21
30.5937998301
  0
LINE
  8
0
 62
7
  6
CONTINUOUS
 10
155.412804528
 20
30.7551182848
 11
155.4706168074
 21
30.6583272086
  0
LINE
  8
0
 62
7
  6
CONTINUOUS
 10
155.8174918074
 20
30.5937998301
 11
155.759679528
 21
30.6905909007
  0
LINE
  8
0
 62
7
  6
CONTINUOUS
 10
155.7018665869
 20
31.3681283946
 11
155.6440543074
 21
31.4649194539
  0
LINE
  8
0
 62
7
  6
CONTINUOUS
 10
157.0315543074
 20
31.626237886
 11
157.0315543074
 21
30.5937998301
  0
LINE
  8
0
 62
7
  6
CONTINUOUS
 10
157.320617028
 20
30.5937998301
 11
157.320617028
 21
31.3358647082
  0
LINE
  8
0
 62
7
  6
CONTINUOUS
 10
157.320617028
 20
31.4649194539
 11
157.320617028
 21
31.626237886
  0
LINE
  8
0
 62
7
  6
CONTINUOUS
 10
157.852430332
 20
34.6101932727
 11
157.852430332
 21
32.3970785186
  0
LINE
  8
0
 62
7
  6
CONTINUOUS
 10
149.7471793074
 20
31.4326557675
 11
149.6315543091
 21
31.3036010218
  0
LINE
  8
0
 62
7
  6
CONTINUOUS
 10
149.9206168074
 20
31.2713373354
 11
149.9784292936
 21
31.3358647082
  0
LINE
  8
0
 62
7
  6
CONTINUOUS
 10
149.7471793074
 20
30.7873819712
 11
149.8628043005
 21
30.7228545871
  0
LINE
  8
0
 62
7
  6
CONTINUOUS
 10
150.1518667936
 20
30.7873819712
 11
149.9784292936
 21
30.8841730531
  0
LINE
  8
0
 62
7
  6
CONTINUOUS
 10
155.3549915869
 20
31.4326557675
 11
155.412804528
 21
31.3681283946
  0
LINE
  8
0
 62
7
  6
CONTINUOUS
 10
158.3034290869
 20
31.3681283946
 11
158.361242028
 21
31.2068099625
  0
LINE
  8
0
 62
7
  6
CONTINUOUS
 10
158.6503040869
 20
31.2068099625
 11
158.5924918074
 21
31.3681283946
  0
LINE
  8
0
 62
7
  6
CONTINUOUS
 10
158.361242028
 20
31.2068099625
 11
158.361242028
 21
30.5937998301
  0
LINE
  8
0
 62
7
  6
CONTINUOUS
 10
158.6503040869
 20
30.5937998301
 11
158.6503040869
 21
31.2068099625
  0
LINE
  8
0
 62
7
  6
CONTINUOUS
 10
159.1128043074
 20
31.4326557675
 11
159.1128043074
 21
31.3681283946
  0
LINE
  8
0
 62
7
  6
CONTINUOUS
 10
159.245872955
 20
32.3970785186
 11
159.245872955
 21
34.5282260596
  0
LINE
  8
0
 62
7
  6
CONTINUOUS
 10
159.5737418074
 20
36.1675703219
 11
159.5737418074
 21
32.3970785186
  0
LINE
  8
0
 62
7
  6
CONTINUOUS
 10
154.2565543074
 20
30.9164367395
 11
154.3143669177
 21
31.0132277988
  0
LINE
  8
0
 62
7
  6
CONTINUOUS
 10
149.8628043005
 20
30.7228545871
 11
150.0362418212
 21
30.6583272086
  0
LINE
  8
0
 62
7
  6
CONTINUOUS
 10
151.3659292523
 20
31.4326557675
 11
151.1924917523
 21
31.5294468267
  0
LINE
  8
0
 62
7
  6
CONTINUOUS
 10
154.0253041972
 20
30.7551182848
 11
154.1987416972
 21
30.6583272086
  0
LINE
  8
0
 62
7
  6
CONTINUOUS
 10
153.0424918074
 20
31.4326557675
 11
153.1581166972
 21
31.3681283946
  0
LINE
  8
0
 62
7
  6
CONTINUOUS
 10
153.3893668074
 20
31.4649194539
 11
153.2737419177
 21
31.5294468267
  0
LINE
  8
0
 62
7
  6
CONTINUOUS
 10
159.1128043074
 20
30.8519093441
 11
159.228429528
 21
30.7228545871
  0
LINE
  8
0
 62
7
  6
CONTINUOUS
 10
159.4596793074
 20
30.7873819712
 11
159.401867028
 21
30.8519093441
  0
LINE
  8
0
 62
7
  6
CONTINUOUS
 10
159.1128043074
 20
31.3681283946
 11
159.228429528
 21
31.2390736489
  0
LINE
  8
0
 62
7
  6
CONTINUOUS
 10
158.5924918074
 20
31.3681283946
 11
158.534679528
 21
31.4649194539
  0
LINE
  8
0
 62
7
  6
CONTINUOUS
 10
160.9628038663
 20
30.7873819712
 11
160.9628038663
 21
30.8519093441
  0
LINE
  8
0
 62
7
  6
CONTINUOUS
 10
160.9671844304
 20
32.3970785186
 11
160.9671844304
 21
36.1675703219
  0
LINE
  8
0
 62
7
  6
CONTINUOUS
 10
154.0253041972
 20
31.4971831403
 11
153.9674919177
 21
31.4326557675
  0
LINE
  8
0
 62
7
  6
CONTINUOUS
 10
150.9034292799
 20
31.4649194539
 11
151.0768668626
 21
31.400392081
  0
LINE
  8
0
 62
7
  6
CONTINUOUS
 10
155.6440543074
 20
31.4649194539
 11
155.5284290869
 21
31.5294468267
  0
LINE
  8
0
 62
7
  6
CONTINUOUS
 10
159.4596793074
 20
31.3036010218
 11
159.401867028
 21
31.3681283946
  0
LINE
  8
0
 62
7
  6
CONTINUOUS
 10
160.615929528
 20
30.9164367395
 11
160.6737418074
 21
30.8519093441
  0
LINE
  8
0
 62
7
  6
CONTINUOUS
 10
160.9628038663
 20
30.8519093441
 11
160.8471793074
 21
30.9809641124
  0
LINE
  8
0
 62
7
  6
CONTINUOUS
 10
160.615929528
 20
31.4326557675
 11
160.6737418074
 21
31.3681283946
  0
LINE
  8
0
 62
7
  6
CONTINUOUS
 10
160.9628038663
 20
31.3681283946
 11
160.8471793074
 21
31.4971831403
  0
LINE
  8
0
 62
7
  6
CONTINUOUS
 10
154.2565543074
 20
31.3681283946
 11
154.3143669177
 21
31.4326557675
  0
LINE
  8
0
 62
7
  6
CONTINUOUS
 10
154.0831168074
 20
31.1100188581
 11
153.9674919177
 21
30.9809641124
  0
LINE
  8
0
 62
7
  6
CONTINUOUS
 10
155.412804528
 20
30.9487004259
 11
155.3549915869
 21
30.8841730531
  0
LINE
  8
0
 62
7
  6
CONTINUOUS
 10
155.3549915869
 20
30.6905909007
 11
155.412804528
 21
30.7551182848
  0
LINE
  8
0
 62
7
  6
CONTINUOUS
 10
154.1987416972
 20
30.6583272086
 11
154.3143669177
 21
30.6260635193
  0
LINE
  8
0
 62
7
  6
CONTINUOUS
 10
151.1924917523
 20
31.5294468267
 11
150.9612418074
 21
31.5939741996
  0
LINE
  8
0
 62
7
  6
CONTINUOUS
 10
154.5456166972
 20
30.7228545871
 11
154.3143669177
 21
30.7873819712
  0
LINE
  8
0
 62
7
  6
CONTINUOUS
 10
153.2737419177
 20
31.5294468267
 11
153.1003044177
 21
31.5939741996
  0
LINE
  8
0
 62
7
  6
CONTINUOUS
 10
155.5284290869
 20
31.5294468267
 11
155.3549915869
 21
31.5939741996
  0
LINE
  8
0
 62
7
  6
CONTINUOUS
 10
158.187804528
 20
31.4326557675
 11
158.3034290869
 21
31.3681283946
  0
LINE
  8
0
 62
7
  6
CONTINUOUS
 10
158.534679528
 20
31.4649194539
 11
158.4190543074
 21
31.5294468267
  0
LINE
  8
0
 62
7
  6
CONTINUOUS
 10
150.0362418212
 20
30.6583272086
 11
150.2096793212
 21
30.6260635193
  0
LINE
  8
0
 62
7
  6
CONTINUOUS
 10
150.498741835
 20
30.7228545871
 11
150.1518667936
 21
30.7873819712
  0
LINE
  8
0
 62
7
  6
CONTINUOUS
 10
152.9268669177
 20
31.4649194539
 11
153.0424918074
 21
31.4326557675
  0
LINE
  8
0
 62
7
  6
CONTINUOUS
 10
155.239367028
 20
31.4649194539
 11
155.3549915869
 21
31.4326557675
  0
LINE
  8
0
 62
7
  6
CONTINUOUS
 10
159.575304528
 20
30.7551182848
 11
159.4596793074
 21
30.7873819712
  0
LINE
  8
0
 62
7
  6
CONTINUOUS
 10
158.0721793074
 20
31.4649194539
 11
158.187804528
 21
31.4326557675
  0
LINE
  8
0
 62
7
  6
CONTINUOUS
 10
159.228429528
 20
30.7228545871
 11
159.401867028
 21
30.6583272086
  0
LINE
  8
0
 62
7
  6
CONTINUOUS
 10
158.4190543074
 20
31.5294468267
 11
158.2456168074
 21
31.5939741996
  0
LINE
  8
0
 62
7
  6
CONTINUOUS
 10
159.6331168074
 20
31.2390736489
 11
159.4596793074
 21
31.3036010218
  0
LINE
  8
0
 62
7
  6
CONTINUOUS
 10
160.442492028
 20
30.9809641124
 11
160.615929528
 21
30.9164367395
  0
LINE
  8
0
 62
7
  6
CONTINUOUS
 10
160.8471793074
 20
31.4971831403
 11
160.6737418074
 21
31.5617105132
  0
LINE
  8
0
 62
7
  6
CONTINUOUS
 10
159.228429528
 20
31.2390736489
 11
159.4596793074
 21
31.1422825445
  0
LINE
  8
0
 62
7
  6
CONTINUOUS
 10
160.8471793074
 20
30.9809641124
 11
160.615929528
 21
31.0777551716
  0
LINE
  8
0
 62
7
  6
CONTINUOUS
 10
159.401867028
 20
31.3681283946
 11
159.4596793074
 21
31.4326557675
  0
LINE
  8
0
 62
7
  6
CONTINUOUS
 10
149.8628043005
 20
31.4971831403
 11
149.7471793074
 21
31.4326557675
  0
LINE
  8
0
 62
7
  6
CONTINUOUS
 10
149.9784292936
 20
31.3358647082
 11
150.1518667936
 21
31.4326557675
  0
LINE
  8
0
 62
7
  6
CONTINUOUS
 10
152.2909293626
 20
31.5294468267
 11
152.1753043074
 21
31.4649194539
  0
LINE
  8
0
 62
7
  6
CONTINUOUS
 10
152.1753043074
 20
31.3358647082
 11
152.2909293626
 21
31.400392081
  0
LINE
  8
0
 62
7
  6
CONTINUOUS
 10
151.1924917523
 20
30.6905909007
 11
151.3659292523
 21
30.7873819712
  0
LINE
  8
0
 62
7
  6
CONTINUOUS
 10
150.2096793212
 20
30.6260635193
 11
150.5565542799
 21
30.5937998301
  0
LINE
  8
0
 62
7
  6
CONTINUOUS
 10
154.3143669177
 20
30.6260635193
 11
154.5456166972
 21
30.5937998301
  0
LINE
  8
0
 62
7
  6
CONTINUOUS
 10
152.6956168074
 20
31.4971831403
 11
152.9268669177
 21
31.4649194539
  0
LINE
  8
0
 62
7
  6
CONTINUOUS
 10
155.0081169177
 20
31.4971831403
 11
155.239367028
 21
31.4649194539
  0
LINE
  8
0
 62
7
  6
CONTINUOUS
 10
159.4596793074
 20
31.1422825445
 11
160.442492028
 21
30.9809641124
  0
LINE
  8
0
 62
7
  6
CONTINUOUS
 10
160.615929528
 20
31.0777551716
 11
159.6331168074
 21
31.2390736489
  0
LINE
  8
0
 62
7
  6
CONTINUOUS
 10
153.1003044177
 20
31.5939741996
 11
152.9268669177
 21
31.626237886
  0
LINE
  8
0
 62
7
  6
CONTINUOUS
 10
159.401867028
 20
30.6583272086
 11
159.575304528
 21
30.6260635193
  0
LINE
  8
0
 62
7
  6
CONTINUOUS
 10
158.2456168074
 20
31.5939741996
 11
158.0721793074
 21
31.626237886
  0
LINE
  8
0
 62
7
  6
CONTINUOUS
 10
160.5003043074
 20
31.4649194539
 11
160.615929528
 21
31.4326557675
  0
LINE
  8
0
 62
7
  6
CONTINUOUS
 10
160.6737418074
 20
30.8519093441
 11
160.615929528
 21
30.7873819712
  0
LINE
  8
0
 62
7
  6
CONTINUOUS
 10
159.228429528
 20
31.5294468267
 11
159.1128043074
 21
31.4326557675
  0
LINE
  8
0
 62
7
  6
CONTINUOUS
 10
154.1409294177
 20
31.5617105132
 11
154.0253041972
 21
31.4971831403
  0
LINE
  8
0
 62
7
  6
CONTINUOUS
 10
154.1987416972
 20
31.1745462761
 11
154.0831168074
 21
31.1100188581
  0
LINE
  8
0
 62
7
  6
CONTINUOUS
 10
154.3143669177
 20
31.0132277988
 11
154.4299918074
 21
31.0777551716
  0
LINE
  8
0
 62
7
  6
CONTINUOUS
 10
151.8862417523
 20
30.5937998301
 11
152.1753043074
 21
30.5937998301
  0
LINE
  8
0
 62
7
  6
CONTINUOUS
 10
153.2159293074
 20
30.5937998301
 11
153.5049916972
 21
30.5937998301
  0
LINE
  8
0
 62
7
  6
CONTINUOUS
 10
154.5456166972
 20
30.5937998301
 11
154.8924916972
 21
30.5937998301
  0
LINE
  8
0
 62
7
  6
CONTINUOUS
 10
155.5284290869
 20
30.5937998301
 11
155.8174918074
 21
30.5937998301
  0
LINE
  8
0
 62
7
  6
CONTINUOUS
 10
156.279992028
 20
30.5937998301
 11
156.5690540869
 21
30.5937998301
  0
LINE
  8
0
 62
7
  6
CONTINUOUS
 10
157.0315543074
 20
30.5937998301
 11
157.320617028
 21
30.5937998301
  0
LINE
  8
0
 62
7
  6
CONTINUOUS
 10
158.361242028
 20
30.5937998301
 11
158.6503040869
 21
30.5937998301
  0
LINE
  8
0
 62
7
  6
CONTINUOUS
 10
159.922179528
 20
30.5937998301
 11
160.269054528
 21
30.5937998301
  0
LINE
  8
0
 62
7
  6
CONTINUOUS
 10
160.269054528
 20
30.7228545871
 11
159.922179528
 21
30.7228545871
  0
LINE
  8
0
 62
7
  6
CONTINUOUS
 10
154.8924916972
 20
30.7228545871
 11
154.5456166972
 21
30.7228545871
  0
LINE
  8
0
 62
7
  6
CONTINUOUS
 10
159.401867028
 20
30.8519093441
 11
159.1128043074
 21
30.8519093441
  0
LINE
  8
0
 62
7
  6
CONTINUOUS
 10
151.4237418626
 20
30.9164367395
 11
151.1346793074
 21
30.9164367395
  0
LINE
  8
0
 62
7
  6
CONTINUOUS
 10
150.498741835
 20
31.4971831403
 11
150.9034292799
 21
31.4649194539
  0
LINE
  8
0
 62
7
  6
CONTINUOUS
 10
150.9612418074
 20
31.5939741996
 11
150.5565542799
 21
31.626237886
  0
LINE
  8
0
 62
7
  6
CONTINUOUS
 10
159.575304528
 20
30.6260635193
 11
159.922179528
 21
30.5937998301
  0
LINE
  8
0
 62
7
  6
CONTINUOUS
 10
159.922179528
 20
30.7228545871
 11
159.575304528
 21
30.7551182848
  0
LINE
  8
0
 62
7
  6
CONTINUOUS
 10
155.3549915869
 20
31.5939741996
 11
155.0081169177
 21
31.626237886
  0
LINE
  8
0
 62
7
  6
CONTINUOUS
 10
160.1534293074
 20
31.4971831403
 11
160.5003043074
 21
31.4649194539
  0
LINE
  8
0
 62
7
  6
CONTINUOUS
 10
160.5003043074
 20
31.5939741996
 11
160.1534293074
 21
31.626237886
  0
LINE
  8
0
 62
7
  6
CONTINUOUS
 10
157.840929528
 20
31.4971831403
 11
158.0721793074
 21
31.4649194539
  0
LINE
  8
0
 62
7
  6
CONTINUOUS
 10
160.6737418074
 20
31.5617105132
 11
160.5003043074
 21
31.5939741996
  0
LINE
  8
0
 62
7
  6
CONTINUOUS
 10
160.8471793074
 20
30.6905909007
 11
160.9628038663
 21
30.7873819712
  0
LINE
  8
0
 62
7
  6
CONTINUOUS
 10
155.3549915869
 20
30.8841730531
 11
155.1815540869
 21
30.7873819712
  0
LINE
  8
0
 62
7
  6
CONTINUOUS
 10
157.4362415869
 20
31.5294468267
 11
157.320617028
 21
31.4649194539
  0
LINE
  8
0
 62
7
  6
CONTINUOUS
 10
157.320617028
 20
31.3358647082
 11
157.4362415869
 21
31.400392081
  0
LINE
  8
0
 62
7
  6
CONTINUOUS
 10
150.0362418212
 20
31.5617105132
 11
149.8628043005
 21
31.4971831403
  0
LINE
  8
0
 62
7
  6
CONTINUOUS
 10
152.4643666972
 20
31.5939741996
 11
152.2909293626
 21
31.5294468267
  0
LINE
  8
0
 62
7
  6
CONTINUOUS
 10
152.2909293626
 20
31.400392081
 11
152.4643666972
 21
31.4649194539
  0
LINE
  8
0
 62
7
  6
CONTINUOUS
 10
151.0768668626
 20
30.8196456577
 11
150.9034292799
 21
30.7551182848
  0
LINE
  8
0
 62
7
  6
CONTINUOUS
 10
160.5003043074
 20
30.7551182848
 11
160.269054528
 21
30.7228545871
  0
LINE
  8
0
 62
7
  6
CONTINUOUS
 10
154.8924916972
 20
30.5937998301
 11
155.1815540869
 21
30.6260635193
  0
LINE
  8
0
 62
7
  6
CONTINUOUS
 10
160.269054528
 20
30.5937998301
 11
160.615929528
 21
30.6260635193
  0
LINE
  8
0
 62
7
  6
CONTINUOUS
 10
150.5565542799
 20
30.5937998301
 11
150.9612418074
 21
30.6260635193
  0
LINE
  8
0
 62
7
  6
CONTINUOUS
 10
150.9034292799
 20
30.7551182848
 11
150.498741835
 21
30.7228545871
  0
LINE
  8
0
 62
7
  6
CONTINUOUS
 10
154.7768668074
 20
31.1422825445
 11
155.412804528
 21
31.1422825445
  0
LINE
  8
0
 62
7
  6
CONTINUOUS
 10
155.412804528
 20
31.2713373354
 11
154.7768668074
 21
31.2713373354
  0
LINE
  8
0
 62
7
  6
CONTINUOUS
 10
151.1346793074
 20
31.3036010218
 11
151.4237418626
 21
31.3036010218
  0
LINE
  8
0
 62
7
  6
CONTINUOUS
 10
153.9674919177
 20
31.3681283946
 11
154.2565543074
 21
31.3681283946
  0
LINE
  8
0
 62
7
  6
CONTINUOUS
 10
160.6737418074
 20
31.3681283946
 11
160.9628038663
 21
31.3681283946
  0
LINE
  8
0
 62
7
  6
CONTINUOUS
 10
154.6612419177
 20
31.4971831403
 11
155.0081169177
 21
31.4971831403
  0
LINE
  8
0
 62
7
  6
CONTINUOUS
 10
159.8065543074
 20
31.4971831403
 11
160.1534293074
 21
31.4971831403
  0
LINE
  8
0
 62
7
  6
CONTINUOUS
 10
160.1534293074
 20
31.626237886
 11
159.8065543074
 21
31.626237886
  0
LINE
  8
0
 62
7
  6
CONTINUOUS
 10
158.0721793074
 20
31.626237886
 11
157.840929528
 21
31.626237886
  0
LINE
  8
0
 62
7
  6
CONTINUOUS
 10
157.320617028
 20
31.626237886
 11
157.0315543074
 21
31.626237886
  0
LINE
  8
0
 62
7
  6
CONTINUOUS
 10
156.5690540869
 20
31.626237886
 11
156.279992028
 21
31.626237886
  0
LINE
  8
0
 62
7
  6
CONTINUOUS
 10
155.0081169177
 20
31.626237886
 11
154.6612419177
 21
31.626237886
  0
LINE
  8
0
 62
7
  6
CONTINUOUS
 10
152.9268669177
 20
31.626237886
 11
152.6956168074
 21
31.626237886
  0
LINE
  8
0
 62
7
  6
CONTINUOUS
 10
156.279992028
 20
31.9488748406
 11
156.5690540869
 21
31.9488748406
  0
LINE
  8
0
 62
7
  6
CONTINUOUS
 10
156.5690540869
 20
32.1101932727
 11
156.279992028
 21
32.1101932727
  0
LINE
  8
0
 62
7
  6
CONTINUOUS
 10
152.1753043074
 20
32.1101932727
 11
151.8862417523
 21
32.1101932727
  0
LINE
  8
0
 62
7
  6
CONTINUOUS
 10
151.2130860697
 20
32.3970785186
 11
151.6256574183
 21
32.3970785186
  0
LINE
  8
0
 62
7
  6
CONTINUOUS
 10
152.852430332
 20
32.3970785186
 11
154.245872955
 21
32.3970785186
  0
LINE
  8
0
 62
7
  6
CONTINUOUS
 10
154.5737418074
 20
32.3970785186
 11
155.9671844304
 21
32.3970785186
  0
LINE
  8
0
 62
7
  6
CONTINUOUS
 10
157.852430332
 20
32.3970785186
 11
159.245872955
 21
32.3970785186
  0
LINE
  8
0
 62
7
  6
CONTINUOUS
 10
159.5737418074
 20
32.3970785186
 11
160.9671844304
 21
32.3970785186
  0
LINE
  8
0
 62
7
  6
CONTINUOUS
 10
157.6096790869
 20
31.5939741996
 11
157.4362415869
 21
31.5294468267
  0
LINE
  8
0
 62
7
  6
CONTINUOUS
 10
155.1815540869
 20
30.6260635193
 11
155.3549915869
 21
30.6905909007
  0
LINE
  8
0
 62
7
  6
CONTINUOUS
 10
160.615929528
 20
30.6260635193
 11
160.8471793074
 21
30.6905909007
  0
LINE
  8
0
 62
7
  6
CONTINUOUS
 10
160.615929528
 20
30.7873819712
 11
160.5003043074
 21
30.7551182848
  0
LINE
  8
0
 62
7
  6
CONTINUOUS
 10
159.575304528
 20
31.4649194539
 11
159.8065543074
 21
31.4971831403
  0
LINE
  8
0
 62
7
  6
CONTINUOUS
 10
157.6096790869
 20
31.4649194539
 11
157.840929528
 21
31.4971831403
  0
LINE
  8
0
 62
7
  6
CONTINUOUS
 10
154.5456166972
 20
31.1100188581
 11
154.7768668074
 21
31.1422825445
  0
LINE
  8
0
 62
7
  6
CONTINUOUS
 10
157.840929528
 20
31.626237886
 11
157.6096790869
 21
31.5939741996
  0
LINE
  8
0
 62
7
  6
CONTINUOUS
 10
154.4299918074
 20
31.4649194539
 11
154.6612419177
 21
31.4971831403
  0
LINE
  8
0
 62
7
  6
CONTINUOUS
 10
159.8065543074
 20
31.626237886
 11
159.4596793074
 21
31.5939741996
  0
LINE
  8
0
 62
7
  6
CONTINUOUS
 10
154.7768668074
 20
31.2713373354
 11
154.4299918074
 21
31.2390736489
  0
LINE
  8
0
 62
7
  6
CONTINUOUS
 10
150.5565542799
 20
31.626237886
 11
150.2096793212
 21
31.5939741996
  0
LINE
  8
0
 62
7
  6
CONTINUOUS
 10
154.6612419177
 20
31.626237886
 11
154.2565543074
 21
31.5939741996
  0
LINE
  8
0
 62
7
  6
CONTINUOUS
 10
152.0327582009
 20
33.5446195022
 11
151.3770204959
 21
33.5446195022
  0
LINE
  8
0
 62
7
  6
CONTINUOUS
 10
157.4362415869
 20
31.400392081
 11
157.6096790869
 21
31.4649194539
  0
LINE
  8
0
 62
7
  6
CONTINUOUS
 10
159.4596793074
 20
31.4326557675
 11
159.575304528
 21
31.4649194539
  0
LINE
  8
0
 62
7
  6
CONTINUOUS
 10
159.4596793074
 20
31.5939741996
 11
159.228429528
 21
31.5294468267
  0
LINE
  8
0
 62
7
  6
CONTINUOUS
 10
155.1815540869
 20
30.7873819712
 11
154.8924916972
 21
30.7228545871
  0
LINE
  8
0
 62
7
  6
CONTINUOUS
 10
152.4643666972
 20
31.4649194539
 11
152.6956168074
 21
31.4971831403
  0
LINE
  8
0
 62
7
  6
CONTINUOUS
 10
152.6956168074
 20
31.626237886
 11
152.4643666972
 21
31.5939741996
  0
LINE
  8
0
 62
7
  6
CONTINUOUS
 10
150.2674918074
 20
31.4649194539
 11
150.498741835
 21
31.4971831403
  0
LINE
  8
0
 62
7
  6
CONTINUOUS
 10
156.7868565615
 20
35.0200293383
 11
157.4425942664
 21
35.0200293383
  0
LINE
  8
0
 62
7
  6
CONTINUOUS
 10
154.4299918074
 20
31.0777551716
 11
154.5456166972
 21
31.1100188581
  0
LINE
  8
0
 62
7
  6
CONTINUOUS
 10
154.4299918074
 20
31.2390736489
 11
154.1987416972
 21
31.1745462761
  0
LINE
  8
0
 62
7
  6
CONTINUOUS
 10
154.3143669177
 20
31.4326557675
 11
154.4299918074
 21
31.4649194539
  0
LINE
  8
0
 62
7
  6
CONTINUOUS
 10
150.9612418074
 20
30.6260635193
 11
151.1924917523
 21
30.6905909007
  0
LINE
  8
0
 62
7
  6
CONTINUOUS
 10
154.2565543074
 20
31.5939741996
 11
154.1409294177
 21
31.5617105132
  0
LINE
  8
0
 62
7
  6
CONTINUOUS
 10
150.2096793212
 20
31.5939741996
 11
150.0362418212
 21
31.5617105132
  0
LINE
  8
0
 62
7
  6
CONTINUOUS
 10
160.9671844304
 20
36.1675703219
 11
159.5737418074
 21
36.1675703219
  0
LINE
  8
0
 62
7
  6
CONTINUOUS
 10
157.6065286927
 20
36.1675703219
 11
157.1939573441
 21
36.1675703219
  0
LINE
  8
0
 62
7
  6
CONTINUOUS
 10
155.9671844304
 20
36.1675703219
 11
154.5737418074
 21
36.1675703219
  0
LINE
  8
0
 62
7
  6
CONTINUOUS
 10
154.245872955
 20
36.1675703219
 11
152.852430332
 21
36.1675703219
  0
LINE
  8
0
 62
7
  6
CONTINUOUS
 10
150.9671844304
 20
36.1675703219
 11
149.5737418074
 21
36.1675703219
  0
LINE
  8
0
 62
7
  6
CONTINUOUS
 10
150.1518667936
 20
31.4326557675
 11
150.2674918074
 21
31.4649194539
  0
CIRCLE
  8
0
 62
7
  6
CONTINUOUS
 10
160.2704631189
 20
38.5036358957
 40
2.0901639344
  0
ARC
  8
0
 62
7
  6
CONTINUOUS
 10
151.2130860697
 20
34.0364227809
 40
1.6393442623
 50
180.0
 51
270.0
  0
ARC
  8
0
 62
7
  6
CONTINUOUS
 10
157.6065286927
 20
34.5282260596
 40
1.6393442623
 50
0.0
 51
90.0
  0
ARC
  8
0
 62
7
  6
CONTINUOUS
 10
151.6256574183
 20
33.8724883547
 40
1.4754098361
 50
270.0
 51
326.2510114041
  0
ARC
  8
0
 62
7
  6
CONTINUOUS
 10
157.1939573441
 20
34.6921604858
 40
1.4754098361
 50
90.0
 51
146.2510114041
  0
ARC
  8
0
 62
7
  6
CONTINUOUS
 10
152.0327582009
 20
34.3642916334
 40
0.8196721311
 50
270.0
 51
360.0
  0
ARC
  8
0
 62
7
  6
CONTINUOUS
 10
156.7868565615
 20
34.2003572071
 40
0.8196721311
 50
90.0
 51
180.0
  0
ARC
  8
0
 62
7
  6
CONTINUOUS
 10
151.3770204959
 20
33.9544555678
 40
0.4098360656
 50
180.0
 51
270.0
  0
ARC
  8
0
 62
7
  6
CONTINUOUS
 10
157.4425942664
 20
34.6101932727
 40
0.4098360656
 50
0.0
 51
90.0
  0
SOLID
  8
0
 62
7
  6
CONTINUOUS
 10
156.279992028
 20
31.9488752009
 11
156.279992028
 21
32.1101936845
 12
156.5690540869
 22
31.9488752009
 13
156.5690540869
 23
32.1101936845
  0
SOLID
  8
0
 62
7
  6
CONTINUOUS
 10
150.5565542799
 20
31.6262382337
 11
150.9612418074
 21
31.5939740028
 12
150.2096793212
 22
31.5939740028
 13
150.2096793212
 23
31.5939740028
  0
SOLID
  8
0
 62
7
  6
CONTINUOUS
 10
150.0362418212
 20
31.5617111435
 11
150.2096793212
 21
31.5939740028
 12
150.9612418074
 22
31.5939740028
 13
150.9612418074
 23
31.5939740028
  0
SOLID
  8
0
 62
7
  6
CONTINUOUS
 10
150.9612418074
 20
31.5939740028
 11
151.1924917523
 21
31.5294468402
 12
150.0362418212
 22
31.5617111435
 13
150.0362418212
 23
31.5617111435
  0
SOLID
  8
0
 62
7
  6
CONTINUOUS
 10
149.8628043005
 20
31.49718259
 11
150.0362418212
 21
31.5617111435
 12
151.1924917523
 22
31.5294468402
 13
151.1924917523
 23
31.5294468402
  0
SOLID
  8
0
 62
7
  6
CONTINUOUS
 10
149.8628043005
 20
31.49718259
 11
151.1924917523
 21
31.5294468402
 12
150.498741835
 22
31.49718259
 13
150.498741835
 23
31.49718259
  0
SOLID
  8
0
 62
7
  6
CONTINUOUS
 10
150.498741835
 20
31.49718259
 11
151.1924917523
 21
31.5294468402
 12
150.9034292799
 22
31.4649197501
 13
150.9034292799
 23
31.4649197501
  0
SOLID
  8
0
 62
7
  6
CONTINUOUS
 10
151.1924917523
 20
31.5294468402
 11
151.3659292523
 21
31.4326554468
 12
150.9034292799
 22
31.4649197501
 13
150.9034292799
 23
31.4649197501
  0
SOLID
  8
0
 62
7
  6
CONTINUOUS
 10
151.0768668626
 20
31.4003926599
 11
150.9034292799
 21
31.4649197501
 12
151.3659292523
 22
31.4326554468
 13
151.3659292523
 23
31.4326554468
  0
SOLID
  8
0
 62
7
  6
CONTINUOUS
 10
151.0768668626
 20
31.4003926599
 11
151.3659292523
 21
31.4326554468
 12
151.1346793074
 22
31.3036013776
 13
151.1346793074
 23
31.3036013776
  0
SOLID
  8
0
 62
7
  6
CONTINUOUS
 10
151.3659292523
 20
31.4326554468
 11
151.4237418626
 21
31.3036013776
 12
151.1346793074
 22
31.3036013776
 13
151.1346793074
 23
31.3036013776
  0
SOLID
  8
0
 62
7
  6
CONTINUOUS
 10
152.4643666972
 20
31.5939739754
 11
152.6956168074
 21
31.6262382787
 12
152.9268669177
 22
31.6262382787
 13
152.9268669177
 23
31.6262382787
  0
SOLID
  8
0
 62
7
  6
CONTINUOUS
 10
152.9268669177
 20
31.6262382787
 11
153.1003044177
 21
31.5939739754
 12
152.4643666972
 22
31.5939739754
 13
152.4643666972
 23
31.5939739754
  0
SOLID
  8
0
 62
7
  6
CONTINUOUS
 10
152.2909293626
 20
31.5294468852
 11
152.4643666972
 21
31.5939739754
 12
153.1003044177
 22
31.5939739754
 13
153.1003044177
 23
31.5939739754
  0
SOLID
  8
0
 62
7
  6
CONTINUOUS
 10
153.1003044177
 20
31.5939739754
 11
153.2737419177
 21
31.5294468852
 12
152.2909293626
 22
31.5294468852
 13
152.2909293626
 23
31.5294468852
  0
SOLID
  8
0
 62
7
  6
CONTINUOUS
 10
153.2737419177
 20
31.5294468852
 11
152.6956168074
 21
31.4971825369
 12
152.2909293626
 22
31.5294468852
 13
152.2909293626
 23
31.5294468852
  0
SOLID
  8
0
 62
7
  6
CONTINUOUS
 10
152.1753043074
 20
31.4649197951
 11
152.2909293626
 21
31.5294468852
 12
152.6956168074
 22
31.4971825369
 13
152.6956168074
 23
31.4971825369
  0
SOLID
  8
0
 62
7
  6
CONTINUOUS
 10
152.6956168074
 20
31.4971825369
 11
152.4643666972
 21
31.4649197951
 12
152.1753043074
 22
31.4649197951
 13
152.1753043074
 23
31.4649197951
  0
SOLID
  8
0
 62
7
  6
CONTINUOUS
 10
152.6956168074
 20
31.4971825369
 11
153.2737419177
 21
31.5294468852
 12
152.9268669177
 22
31.4649197951
 13
152.9268669177
 23
31.4649197951
  0
SOLID
  8
0
 62
7
  6
CONTINUOUS
 10
153.2737419177
 20
31.5294468852
 11
153.3893668074
 21
31.4649197951
 12
152.9268669177
 22
31.4649197951
 13
152.9268669177
 23
31.4649197951
  0
SOLID
  8
0
 62
7
  6
CONTINUOUS
 10
153.0424918074
 20
31.4326554468
 11
152.9268669177
 21
31.4649197951
 12
153.3893668074
 22
31.4649197951
 13
153.3893668074
 23
31.4649197951
  0
SOLID
  8
0
 62
7
  6
CONTINUOUS
 10
153.3893668074
 20
31.4649197951
 11
153.4471794177
 21
31.4003927049
 12
153.0424918074
 22
31.4326554468
 13
153.0424918074
 23
31.4326554468
  0
SOLID
  8
0
 62
7
  6
CONTINUOUS
 10
153.1581166972
 20
31.3681283566
 11
153.0424918074
 21
31.4326554468
 12
153.4471794177
 22
31.4003927049
 13
153.4471794177
 23
31.4003927049
  0
SOLID
  8
0
 62
7
  6
CONTINUOUS
 10
153.1581166972
 20
31.3681283566
 11
153.4471794177
 21
31.4003927049
 12
153.2159293074
 22
31.2390742213
 13
153.2159293074
 23
31.2390742213
  0
SOLID
  8
0
 62
7
  6
CONTINUOUS
 10
153.4471794177
 20
31.4003927049
 11
153.5049916972
 21
31.2390742213
 12
153.2159293074
 22
31.2390742213
 13
153.2159293074
 23
31.2390742213
  0
SOLID
  8
0
 62
7
  6
CONTINUOUS
 10
152.4643666972
 20
31.4649197951
 11
152.2909293626
 21
31.4003927049
 12
152.1753043074
 22
31.4649197951
 13
152.1753043074
 23
31.4649197951
  0
SOLID
  8
0
 62
7
  6
CONTINUOUS
 10
152.2909293626
 20
31.4003927049
 11
152.1753043074
 21
31.3358640533
 12
152.1753043074
 22
31.4649197951
 13
152.1753043074
 23
31.4649197951
  0
SOLID
  8
0
 62
7
  6
CONTINUOUS
 10
152.1753043074
 20
31.3358640533
 11
151.8862417523
 21
30.5938002869
 12
152.1753043074
 22
31.4649197951
 13
152.1753043074
 23
31.4649197951
  0
SOLID
  8
0
 62
7
  6
CONTINUOUS
 10
152.1753043074
 20
31.4649197951
 11
151.8862417523
 21
30.5938002869
 12
152.1753043074
 22
32.1101937295
 13
152.1753043074
 23
32.1101937295
  0
SOLID
  8
0
 62
7
  6
CONTINUOUS
 10
151.8862417523
 20
30.5938002869
 11
151.8862417523
 21
32.1101937295
 12
152.1753043074
 22
32.1101937295
 13
152.1753043074
 23
32.1101937295
  0
SOLID
  8
0
 62
7
  6
CONTINUOUS
 10
152.1753043074
 20
31.3358640533
 11
152.1753043074
 21
30.5938002869
 12
151.8862417523
 22
30.5938002869
 13
151.8862417523
 23
30.5938002869
  0
SOLID
  8
0
 62
7
  6
CONTINUOUS
 10
153.2159293074
 20
30.5938002869
 11
153.2159293074
 21
31.2390742213
 12
153.5049916972
 22
31.2390742213
 13
153.5049916972
 23
31.2390742213
  0
SOLID
  8
0
 62
7
  6
CONTINUOUS
 10
153.5049916972
 20
31.2390742213
 11
153.5049916972
 21
30.5938002869
 12
153.2159293074
 22
30.5938002869
 13
153.2159293074
 23
30.5938002869
  0
SOLID
  8
0
 62
7
  6
CONTINUOUS
 10
154.2565543074
 20
31.5939738288
 11
154.6612419177
 21
31.6262385959
 12
155.0081169177
 22
31.6262385959
 13
155.0081169177
 23
31.6262385959
  0
SOLID
  8
0
 62
7
  6
CONTINUOUS
 10
155.0081169177
 20
31.6262385959
 11
155.3549915869
 21
31.5939738288
 12
154.2565543074
 22
31.5939738288
 13
154.2565543074
 23
31.5939738288
  0
SOLID
  8
0
 62
7
  6
CONTINUOUS
 10
154.1409294177
 20
31.5617111435
 11
154.2565543074
 21
31.5939738288
 12
155.3549915869
 22
31.5939738288
 13
155.3549915869
 23
31.5939738288
  0
SOLID
  8
0
 62
7
  6
CONTINUOUS
 10
155.3549915869
 20
31.5939738288
 11
155.5284290869
 21
31.5294468402
 12
154.1409294177
 22
31.5617111435
 13
154.1409294177
 23
31.5617111435
  0
SOLID
  8
0
 62
7
  6
CONTINUOUS
 10
154.0253041972
 20
31.4971826249
 11
154.1409294177
 21
31.5617111435
 12
155.5284290869
 22
31.5294468402
 13
155.5284290869
 23
31.5294468402
  0
SOLID
  8
0
 62
7
  6
CONTINUOUS
 10
154.0253041972
 20
31.4971826249
 11
155.5284290869
 21
31.5294468402
 12
154.6612419177
 22
31.4971826249
 13
154.6612419177
 23
31.4971826249
  0
SOLID
  8
0
 62
7
  6
CONTINUOUS
 10
154.6612419177
 20
31.4971826249
 11
155.5284290869
 21
31.5294468402
 12
155.0081169177
 22
31.4971826249
 13
155.0081169177
 23
31.4971826249
  0
SOLID
  8
0
 62
7
  6
CONTINUOUS
 10
155.0081169177
 20
31.4971826249
 11
155.5284290869
 21
31.5294468402
 12
155.239367028
 22
31.4649194065
 13
155.239367028
 23
31.4649194065
  0
SOLID
  8
0
 62
7
  6
CONTINUOUS
 10
155.5284290869
 20
31.5294468402
 11
155.6440543074
 21
31.4649194065
 12
155.239367028
 22
31.4649194065
 13
155.239367028
 23
31.4649194065
  0
SOLID
  8
0
 62
7
  6
CONTINUOUS
 10
153.9674919177
 20
31.4326554138
 11
154.0253041972
 21
31.4971826249
 12
154.6612419177
 22
31.4971826249
 13
154.6612419177
 23
31.4971826249
  0
SOLID
  8
0
 62
7
  6
CONTINUOUS
 10
155.3549915869
 20
31.4326554138
 11
155.239367028
 21
31.4649194065
 12
155.6440543074
 22
31.4649194065
 13
155.6440543074
 23
31.4649194065
  0
SOLID
  8
0
 62
7
  6
CONTINUOUS
 10
155.3549915869
 20
31.4326554138
 11
155.6440543074
 21
31.4649194065
 12
155.412804528
 22
31.3681282026
 13
155.412804528
 23
31.3681282026
  0
SOLID
  8
0
 62
7
  6
CONTINUOUS
 10
155.6440543074
 20
31.4649194065
 11
155.7018665869
 21
31.3681282026
 12
155.412804528
 22
31.3681282026
 13
155.412804528
 23
31.3681282026
  0
SOLID
  8
0
 62
7
  6
CONTINUOUS
 10
155.412804528
 20
31.2713369632
 11
155.412804528
 21
31.3681282026
 12
155.7018665869
 22
31.3681282026
 13
155.7018665869
 23
31.3681282026
  0
SOLID
  8
0
 62
7
  6
CONTINUOUS
 10
155.412804528
 20
31.2713369632
 11
155.7018665869
 21
31.3681282026
 12
155.412804528
 22
31.1422827828
 13
155.412804528
 23
31.1422827828
  0
SOLID
  8
0
 62
7
  6
CONTINUOUS
 10
155.412804528
 20
31.1422827828
 11
155.7018665869
 21
31.3681282026
 12
155.412804528
 22
30.9487004259
 13
155.412804528
 23
30.9487004259
  0
SOLID
  8
0
 62
7
  6
CONTINUOUS
 10
155.7018665869
 20
31.3681282026
 11
155.7018665869
 21
30.8519086025
 12
155.412804528
 22
30.9487004259
 13
155.412804528
 23
30.9487004259
  0
SOLID
  8
0
 62
7
  6
CONTINUOUS
 10
157.6096790869
 20
31.5939736268
 11
157.840929528
 21
31.6262383465
 12
158.0721793074
 22
31.6262383465
 13
158.0721793074
 23
31.6262383465
  0
SOLID
  8
0
 62
7
  6
CONTINUOUS
 10
158.0721793074
 20
31.6262383465
 11
158.2456168074
 21
31.5939736268
 12
157.6096790869
 22
31.5939736268
 13
157.6096790869
 23
31.5939736268
  0
SOLID
  8
0
 62
7
  6
CONTINUOUS
 10
157.4362415869
 20
31.5294472848
 11
157.6096790869
 21
31.5939736268
 12
158.2456168074
 22
31.5939736268
 13
158.2456168074
 23
31.5939736268
  0
SOLID
  8
0
 62
7
  6
CONTINUOUS
 10
158.2456168074
 20
31.5939736268
 11
158.4190543074
 21
31.5294472848
 12
157.4362415869
 22
31.5294472848
 13
157.4362415869
 23
31.5294472848
  0
SOLID
  8
0
 62
7
  6
CONTINUOUS
 10
158.4190543074
 20
31.5294472848
 11
157.840929528
 21
31.4971825369
 12
157.4362415869
 22
31.5294472848
 13
157.4362415869
 23
31.5294472848
  0
SOLID
  8
0
 62
7
  6
CONTINUOUS
 10
157.320617028
 20
31.4649199103
 11
157.4362415869
 21
31.5294472848
 12
157.840929528
 22
31.4971825369
 13
157.840929528
 23
31.4971825369
  0
SOLID
  8
0
 62
7
  6
CONTINUOUS
 10
157.840929528
 20
31.4971825369
 11
157.6096790869
 21
31.4649199103
 12
157.320617028
 22
31.4649199103
 13
157.320617028
 23
31.4649199103
  0
SOLID
  8
0
 62
7
  6
CONTINUOUS
 10
157.840929528
 20
31.4971825369
 11
158.4190543074
 21
31.5294472848
 12
158.0721793074
 22
31.4649199103
 13
158.0721793074
 23
31.4649199103
  0
SOLID
  8
0
 62
7
  6
CONTINUOUS
 10
158.4190543074
 20
31.5294472848
 11
158.534679528
 21
31.4649199103
 12
158.0721793074
 22
31.4649199103
 13
158.0721793074
 23
31.4649199103
  0
SOLID
  8
0
 62
7
  6
CONTINUOUS
 10
158.187804528
 20
31.4326554468
 11
158.0721793074
 21
31.4649199103
 12
158.534679528
 22
31.4649199103
 13
158.534679528
 23
31.4649199103
  0
SOLID
  8
0
 62
7
  6
CONTINUOUS
 10
158.187804528
 20
31.4326554468
 11
158.534679528
 21
31.4649199103
 12
158.3034290869
 22
31.3681288486
 13
158.3034290869
 23
31.3681288486
  0
SOLID
  8
0
 62
7
  6
CONTINUOUS
 10
158.534679528
 20
31.4649199103
 11
158.5924918074
 21
31.3681288486
 12
158.3034290869
 22
31.3681288486
 13
158.3034290869
 23
31.3681288486
  0
SOLID
  8
0
 62
7
  6
CONTINUOUS
 10
158.361242028
 20
31.2068093799
 11
158.3034290869
 21
31.3681288486
 12
158.5924918074
 22
31.3681288486
 13
158.5924918074
 23
31.3681288486
  0
SOLID
  8
0
 62
7
  6
CONTINUOUS
 10
158.5924918074
 20
31.3681288486
 11
158.6503040869
 21
31.2068093799
 12
158.361242028
 22
31.2068093799
 13
158.361242028
 23
31.2068093799
  0
SOLID
  8
0
 62
7
  6
CONTINUOUS
 10
157.6096790869
 20
31.4649199103
 11
157.4362415869
 21
31.4003926599
 12
157.320617028
 22
31.4649199103
 13
157.320617028
 23
31.4649199103
  0
SOLID
  8
0
 62
7
  6
CONTINUOUS
 10
157.4362415869
 20
31.4003926599
 11
157.320617028
 21
31.3358640533
 12
157.320617028
 22
31.4649199103
 13
157.320617028
 23
31.4649199103
  0
SOLID
  8
0
 62
7
  6
CONTINUOUS
 10
157.320617028
 20
31.3358640533
 11
157.0315543074
 21
30.5938003547
 12
157.320617028
 22
31.4649199103
 13
157.320617028
 23
31.4649199103
  0
SOLID
  8
0
 62
7
  6
CONTINUOUS
 10
157.320617028
 20
31.4649199103
 11
157.0315543074
 21
30.5938003547
 12
157.320617028
 22
31.6262383465
 13
157.320617028
 23
31.6262383465
  0
SOLID
  8
0
 62
7
  6
CONTINUOUS
 10
157.0315543074
 20
30.5938003547
 11
157.0315543074
 21
31.6262383465
 12
157.320617028
 22
31.6262383465
 13
157.320617028
 23
31.6262383465
  0
SOLID
  8
0
 62
7
  6
CONTINUOUS
 10
157.320617028
 20
31.3358640533
 11
157.320617028
 21
30.5938003547
 12
157.0315543074
 22
30.5938003547
 13
157.0315543074
 23
30.5938003547
  0
SOLID
  8
0
 62
7
  6
CONTINUOUS
 10
158.361242028
 20
30.5938003547
 11
158.361242028
 21
31.2068093799
 12
158.6503040869
 22
31.2068093799
 13
158.6503040869
 23
31.2068093799
  0
SOLID
  8
0
 62
7
  6
CONTINUOUS
 10
158.6503040869
 20
31.2068093799
 11
158.6503040869
 21
30.5938003547
 12
158.361242028
 22
30.5938003547
 13
158.361242028
 23
30.5938003547
  0
SOLID
  8
0
 62
7
  6
CONTINUOUS
 10
159.4596793074
 20
31.5939739474
 11
159.8065543074
 21
31.6262381969
 12
160.1534293074
 22
31.6262381969
 13
160.1534293074
 23
31.6262381969
  0
SOLID
  8
0
 62
7
  6
CONTINUOUS
 10
160.1534293074
 20
31.6262381969
 11
160.5003043074
 21
31.5939739474
 12
159.4596793074
 22
31.5939739474
 13
159.4596793074
 23
31.5939739474
  0
SOLID
  8
0
 62
7
  6
CONTINUOUS
 10
159.228429528
 20
31.5294468402
 11
159.4596793074
 21
31.5939739474
 12
160.5003043074
 22
31.5939739474
 13
160.5003043074
 23
31.5939739474
  0
SOLID
  8
0
 62
7
  6
CONTINUOUS
 10
159.228429528
 20
31.5294468402
 11
160.5003043074
 21
31.5939739304
 12
160.6737418074
 22
31.5617111435
 13
160.6737418074
 23
31.5617111435
  0
SOLID
  8
0
 62
7
  6
CONTINUOUS
 10
159.228429528
 20
31.5294468402
 11
160.6737418074
 21
31.5617111435
 12
159.8065543074
 22
31.4971825592
 13
159.8065543074
 23
31.4971825592
  0
SOLID
  8
0
 62
7
  6
CONTINUOUS
 10
159.8065543074
 20
31.4971825592
 11
160.6737418074
 21
31.5617111435
 12
160.1534293074
 22
31.4971825592
 13
160.1534293074
 23
31.4971825592
  0
SOLID
  8
0
 62
7
  6
CONTINUOUS
 10
160.6737418074
 20
31.5617111435
 11
160.8471793074
 21
31.4971825592
 12
160.1534293074
 22
31.4971825592
 13
160.1534293074
 23
31.4971825592
  0
SOLID
  8
0
 62
7
  6
CONTINUOUS
 10
160.5003043074
 20
31.4649197501
 11
160.1534293074
 21
31.4971825592
 12
160.8471793074
 22
31.4971825592
 13
160.8471793074
 23
31.4971825592
  0
SOLID
  8
0
 62
7
  6
CONTINUOUS
 10
159.1128043074
 20
31.4326555427
 11
159.228429528
 21
31.5294468402
 12
159.8065543074
 22
31.4971825592
 13
159.8065543074
 23
31.4971825592
  0
SOLID
  8
0
 62
7
  6
CONTINUOUS
 10
160.5003043074
 20
31.4649197501
 11
160.8471793074
 21
31.4971825592
 12
160.615929528
 22
31.4326555427
 13
160.615929528
 23
31.4326555427
  0
SOLID
  8
0
 62
7
  6
CONTINUOUS
 10
160.615929528
 20
31.4326555427
 11
160.8471793074
 21
31.4971825592
 12
160.6737418074
 22
31.3681283005
 13
160.6737418074
 23
31.3681283005
  0
SOLID
  8
0
 62
7
  6
CONTINUOUS
 10
160.8471793074
 20
31.4971825592
 11
160.9628038663
 21
31.3681283005
 12
160.6737418074
 22
31.3681283005
 13
160.6737418074
 23
31.3681283005
  0
SOLID
  8
0
 62
7
  6
CONTINUOUS
 10
150.2674918074
 20
31.4649197501
 11
149.7471793074
 21
31.4326554237
 12
150.498741835
 22
31.4971824493
 13
150.498741835
 23
31.4971824493
  0
SOLID
  8
0
 62
7
  6
CONTINUOUS
 10
149.7471793074
 20
31.4326554237
 11
149.8628043005
 21
31.4971824493
 12
150.498741835
 22
31.4971824493
 13
150.498741835
 23
31.4971824493
  0
SOLID
  8
0
 62
7
  6
CONTINUOUS
 10
150.2674918074
 20
31.4649197501
 11
150.1518667936
 21
31.4326554237
 12
149.7471793074
 22
31.4326554237
 13
149.7471793074
 23
31.4326554237
  0
SOLID
  8
0
 62
7
  6
CONTINUOUS
 10
149.6315543091
 20
31.3036012664
 11
149.7471793074
 21
31.4326554237
 12
150.1518667936
 22
31.4326554237
 13
150.1518667936
 23
31.4326554237
  0
SOLID
  8
0
 62
7
  6
CONTINUOUS
 10
153.9674919177
 20
31.4326554237
 11
154.6612419177
 21
31.4971825369
 12
154.4299918074
 22
31.4649197501
 13
154.4299918074
 23
31.4649197501
  0
SOLID
  8
0
 62
7
  6
CONTINUOUS
 10
154.4299918074
 20
31.4649197501
 11
154.3143669177
 21
31.4326554237
 12
153.9674919177
 22
31.4326554237
 13
153.9674919177
 23
31.4326554237
  0
SOLID
  8
0
 62
7
  6
CONTINUOUS
 10
153.9674919177
 20
31.3681283335
 11
153.9674919177
 21
31.4326554237
 12
154.3143669177
 22
31.4326554237
 13
154.3143669177
 23
31.4326554237
  0
SOLID
  8
0
 62
7
  6
CONTINUOUS
 10
154.3143669177
 20
31.4326554237
 11
154.2565543074
 21
31.3681283335
 12
153.9674919177
 22
31.3681283335
 13
153.9674919177
 23
31.3681283335
  0
SOLID
  8
0
 62
7
  6
CONTINUOUS
 10
159.1128043074
 20
31.4326555528
 11
159.8065543074
 21
31.4971825369
 12
159.575304528
 22
31.4649197501
 13
159.575304528
 23
31.4649197501
  0
SOLID
  8
0
 62
7
  6
CONTINUOUS
 10
159.575304528
 20
31.4649197501
 11
159.4596793074
 21
31.4326555528
 12
159.1128043074
 22
31.4326555528
 13
159.1128043074
 23
31.4326555528
  0
SOLID
  8
0
 62
7
  6
CONTINUOUS
 10
159.1128043074
 20
31.3681284626
 11
159.1128043074
 21
31.4326555528
 12
159.4596793074
 22
31.4326555528
 13
159.4596793074
 23
31.4326555528
  0
SOLID
  8
0
 62
7
  6
CONTINUOUS
 10
159.4596793074
 20
31.4326555528
 11
159.401867028
 21
31.3681284626
 12
159.1128043074
 22
31.3681284626
 13
159.1128043074
 23
31.3681284626
  0
SOLID
  8
0
 62
7
  6
CONTINUOUS
 10
159.228429528
 20
31.2390741763
 11
159.1128043074
 21
31.3681284626
 12
159.401867028
 22
31.3681284626
 13
159.401867028
 23
31.3681284626
  0
SOLID
  8
0
 62
7
  6
CONTINUOUS
 10
149.6315543091
 20
31.3036012664
 11
150.1518667936
 21
31.4326554468
 12
149.9784292936
 22
31.3358640533
 13
149.9784292936
 23
31.3358640533
  0
SOLID
  8
0
 62
7
  6
CONTINUOUS
 10
149.9784292936
 20
31.3358640533
 11
149.9206168074
 21
31.2713369632
 12
149.6315543091
 22
31.3036012664
 13
149.6315543091
 23
31.3036012664
  0
SOLID
  8
0
 62
7
  6
CONTINUOUS
 10
149.5737418074
 20
31.1100184796
 11
149.6315543091
 21
31.3036012664
 12
149.9206168074
 22
31.2713369632
 13
149.9206168074
 23
31.2713369632
  0
SOLID
  8
0
 62
7
  6
CONTINUOUS
 10
154.4299918074
 20
31.2390741763
 11
154.7768668074
 21
31.271336924
 12
155.412804528
 22
31.271336924
 13
155.412804528
 23
31.271336924
  0
SOLID
  8
0
 62
7
  6
CONTINUOUS
 10
154.4299918074
 20
31.2390741763
 11
155.412804528
 21
31.271336924
 12
154.1987416972
 22
31.1745462761
 13
154.1987416972
 23
31.1745462761
  0
SOLID
  8
0
 62
7
  6
CONTINUOUS
 10
154.1987416972
 20
31.1745462761
 11
155.412804528
 21
31.271336924
 12
154.7768668074
 22
31.1422827436
 13
154.7768668074
 23
31.1422827436
  0
SOLID
  8
0
 62
7
  6
CONTINUOUS
 10
155.412804528
 20
31.271336924
 11
155.412804528
 21
31.1422827436
 12
154.7768668074
 22
31.1422827436
 13
154.7768668074
 23
31.1422827436
  0
SOLID
  8
0
 62
7
  6
CONTINUOUS
 10
159.228429528
 20
31.2390745501
 11
159.401867028
 21
31.3681283566
 12
159.4596793074
 22
31.3036012664
 13
159.4596793074
 23
31.3036012664
  0
SOLID
  8
0
 62
7
  6
CONTINUOUS
 10
159.4596793074
 20
31.3036012664
 11
159.6331168074
 21
31.2390745501
 12
159.228429528
 22
31.2390745501
 13
159.228429528
 23
31.2390745501
  0
SOLID
  8
0
 62
7
  6
CONTINUOUS
 10
159.4596793074
 20
31.1422827828
 11
159.228429528
 21
31.2390745501
 12
159.6331168074
 22
31.2390745501
 13
159.6331168074
 23
31.2390745501
  0
SOLID
  8
0
 62
7
  6
CONTINUOUS
 10
159.6331168074
 20
31.2390745501
 11
160.615929528
 21
31.0777556927
 12
159.4596793074
 22
31.1422827828
 13
159.4596793074
 23
31.1422827828
  0
SOLID
  8
0
 62
7
  6
CONTINUOUS
 10
160.442492028
 20
30.9809646623
 11
159.4596793074
 21
31.1422827828
 12
160.615929528
 22
31.0777556927
 13
160.615929528
 23
31.0777556927
  0
SOLID
  8
0
 62
7
  6
CONTINUOUS
 10
160.615929528
 20
31.0777556927
 11
160.8471793074
 21
30.9809646623
 12
160.442492028
 22
30.9809646623
 13
160.442492028
 23
30.9809646623
  0
SOLID
  8
0
 62
7
  6
CONTINUOUS
 10
160.615929528
 20
30.9164372091
 11
160.442492028
 21
30.9809646623
 12
160.8471793074
 22
30.9809646623
 13
160.8471793074
 23
30.9809646623
  0
SOLID
  8
0
 62
7
  6
CONTINUOUS
 10
160.615929528
 20
30.9164372091
 11
160.8471793074
 21
30.9809646623
 12
160.6737418074
 22
30.8519089441
 13
160.6737418074
 23
30.8519089441
  0
SOLID
  8
0
 62
7
  6
CONTINUOUS
 10
160.8471793074
 20
30.9809646623
 11
160.9628038663
 21
30.8519089441
 12
160.6737418074
 22
30.8519089441
 13
160.6737418074
 23
30.8519089441
  0
SOLID
  8
0
 62
7
  6
CONTINUOUS
 10
160.615929528
 20
30.7873818593
 11
160.6737418074
 21
30.8519089441
 12
160.9628038663
 22
30.8519089441
 13
160.9628038663
 23
30.8519089441
  0
SOLID
  8
0
 62
7
  6
CONTINUOUS
 10
160.9628038663
 20
30.8519089441
 11
160.9628038663
 21
30.7873818593
 12
160.615929528
 22
30.7873818593
 13
160.615929528
 23
30.7873818593
  0
SOLID
  8
0
 62
7
  6
CONTINUOUS
 10
160.5003043074
 20
30.7551187255
 11
160.615929528
 21
30.7873818593
 12
160.9628038663
 22
30.7873818593
 13
160.9628038663
 23
30.7873818593
  0
SOLID
  8
0
 62
7
  6
CONTINUOUS
 10
160.5003043074
 20
30.7551187255
 11
160.9628038663
 21
30.7873818593
 12
160.269054528
 22
30.7228547745
 13
160.269054528
 23
30.7228547745
  0
SOLID
  8
0
 62
7
  6
CONTINUOUS
 10
160.9628038663
 20
30.7873818593
 11
160.8471793074
 21
30.6905916353
 12
160.269054528
 22
30.7228547745
 13
160.269054528
 23
30.7228547745
  0
SOLID
  8
0
 62
7
  6
CONTINUOUS
 10
160.8471793074
 20
30.6905916353
 11
159.401867028
 21
30.658327332
 12
160.269054528
 22
30.7228547745
 13
160.269054528
 23
30.7228547745
  0
SOLID
  8
0
 62
7
  6
CONTINUOUS
 10
160.269054528
 20
30.7228547745
 11
159.401867028
 21
30.658327332
 12
159.922179528
 22
30.7228547745
 13
159.922179528
 23
30.7228547745
  0
SOLID
  8
0
 62
7
  6
CONTINUOUS
 10
159.401867028
 20
30.658327332
 11
159.228429528
 21
30.7228547745
 12
159.922179528
 22
30.7228547745
 13
159.922179528
 23
30.7228547745
  0
SOLID
  8
0
 62
7
  6
CONTINUOUS
 10
159.401867028
 20
30.658327332
 11
160.8471793074
 21
30.6905916353
 12
159.575304528
 22
30.6260629858
 13
159.575304528
 23
30.6260629858
  0
SOLID
  8
0
 62
7
  6
CONTINUOUS
 10
160.8471793074
 20
30.6905916353
 11
160.615929528
 21
30.6260629858
 12
159.575304528
 22
30.6260629858
 13
159.575304528
 23
30.6260629858
  0
SOLID
  8
0
 62
7
  6
CONTINUOUS
 10
159.922179528
 20
30.5938006049
 11
159.575304528
 21
30.6260629858
 12
160.615929528
 22
30.6260629858
 13
160.615929528
 23
30.6260629858
  0
SOLID
  8
0
 62
7
  6
CONTINUOUS
 10
160.615929528
 20
30.6260629858
 11
160.269054528
 21
30.5938006049
 12
159.922179528
 22
30.5938006049
 13
159.922179528
 23
30.5938006049
  0
SOLID
  8
0
 62
7
  6
CONTINUOUS
 10
149.5737418074
 20
31.1100184796
 11
149.9206168074
 21
31.2713369632
 12
149.8628043005
 22
31.1422827828
 13
149.8628043005
 23
31.1422827828
  0
SOLID
  8
0
 62
7
  6
CONTINUOUS
 10
149.8628043005
 20
31.1422827828
 11
149.8628043005
 21
31.0454914852
 12
149.5737418074
 22
31.1100184796
 13
149.5737418074
 23
31.1100184796
  0
SOLID
  8
0
 62
7
  6
CONTINUOUS
 10
149.6315543091
 20
30.9164372091
 11
149.5737418074
 21
31.1100184796
 12
149.8628043005
 22
31.0454914852
 13
149.8628043005
 23
31.0454914852
  0
SOLID
  8
0
 62
7
  6
CONTINUOUS
 10
149.8628043005
 20
31.0454914852
 11
149.9784292936
 21
30.8841729058
 12
149.6315543091
 22
30.9164372091
 13
149.6315543091
 23
30.9164372091
  0
SOLID
  8
0
 62
7
  6
CONTINUOUS
 10
149.7471793074
 20
30.7873813202
 11
149.6315543091
 21
30.9164372091
 12
149.9784292936
 22
30.8841729058
 13
149.9784292936
 23
30.8841729058
  0
SOLID
  8
0
 62
7
  6
CONTINUOUS
 10
149.9784292936
 20
30.8841729058
 11
150.1518667936
 21
30.7873813202
 12
149.7471793074
 22
30.7873813202
 13
149.7471793074
 23
30.7873813202
  0
SOLID
  8
0
 62
7
  6
CONTINUOUS
 10
149.8628043005
 20
30.7228547004
 11
149.7471793074
 21
30.7873813202
 12
150.1518667936
 22
30.7873813202
 13
150.1518667936
 23
30.7873813202
  0
SOLID
  8
0
 62
7
  6
CONTINUOUS
 10
150.1518667936
 20
30.7873813202
 11
150.498741835
 21
30.7228547004
 12
149.8628043005
 22
30.7228547004
 13
149.8628043005
 23
30.7228547004
  0
SOLID
  8
0
 62
7
  6
CONTINUOUS
 10
150.0362418212
 20
30.658327332
 11
149.8628043005
 21
30.7228547004
 12
150.498741835
 22
30.7228547004
 13
150.498741835
 23
30.7228547004
  0
SOLID
  8
0
 62
7
  6
CONTINUOUS
 10
154.0831168074
 20
31.1100184386
 11
154.1987416972
 21
31.1745462761
 12
154.7768668074
 22
31.1422827828
 13
154.7768668074
 23
31.1422827828
  0
SOLID
  8
0
 62
7
  6
CONTINUOUS
 10
154.7768668074
 20
31.1422827828
 11
154.5456166972
 21
31.1100184386
 12
154.0831168074
 22
31.1100184386
 13
154.0831168074
 23
31.1100184386
  0
SOLID
  8
0
 62
7
  6
CONTINUOUS
 10
153.9674919177
 20
30.9809642992
 11
154.0831168074
 21
31.1100184386
 12
154.5456166972
 22
31.1100184386
 13
154.5456166972
 23
31.1100184386
  0
SOLID
  8
0
 62
7
  6
CONTINUOUS
 10
154.3143669177
 20
31.0132277988
 11
153.9674919177
 21
30.9809642992
 12
154.4299918074
 22
31.0777556927
 13
154.4299918074
 23
31.0777556927
  0
SOLID
  8
0
 62
7
  6
CONTINUOUS
 10
153.9674919177
 20
30.9809642992
 11
154.5456166972
 21
31.1100184796
 12
154.4299918074
 22
31.0777556927
 13
154.4299918074
 23
31.0777556927
  0
SOLID
  8
0
 62
7
  6
CONTINUOUS
 10
154.3143669177
 20
31.0132277988
 11
154.2565543074
 21
30.9164372091
 12
153.9674919177
 22
30.9809642992
 13
153.9674919177
 23
30.9809642992
  0
SOLID
  8
0
 62
7
  6
CONTINUOUS
 10
153.9674919177
 20
30.8841729058
 11
153.9674919177
 21
30.9809642992
 12
154.2565543074
 22
30.9164372091
 13
154.2565543074
 23
30.9164372091
  0
SOLID
  8
0
 62
7
  6
CONTINUOUS
 10
154.2565543074
 20
30.9164372091
 11
154.2565543074
 21
30.8519086025
 12
153.9674919177
 22
30.8841729058
 13
153.9674919177
 23
30.8841729058
  0
SOLID
  8
0
 62
7
  6
CONTINUOUS
 10
154.0253041972
 20
30.7551187255
 11
153.9674919177
 21
30.8841729058
 12
154.2565543074
 22
30.8519086025
 13
154.2565543074
 23
30.8519086025
  0
SOLID
  8
0
 62
7
  6
CONTINUOUS
 10
155.412804528
 20
30.9487004259
 11
155.7018665869
 21
30.8519086025
 12
155.3549915869
 22
30.8841729058
 13
155.3549915869
 23
30.8841729058
  0
SOLID
  8
0
 62
7
  6
CONTINUOUS
 10
155.1815540869
 20
30.7873815123
 11
155.3549915869
 21
30.8841729058
 12
155.7018665869
 22
30.8519086025
 13
155.7018665869
 23
30.8519086025
  0
SOLID
  8
0
 62
7
  6
CONTINUOUS
 10
155.1815540869
 20
30.7873815123
 11
155.7018665869
 21
30.8519086025
 12
155.412804528
 22
30.7551187255
 13
155.412804528
 23
30.7551187255
  0
SOLID
  8
0
 62
7
  6
CONTINUOUS
 10
155.7018665869
 20
30.8519086025
 11
155.759679528
 21
30.6905916353
 12
155.412804528
 22
30.7551187255
 13
155.412804528
 23
30.7551187255
  0
SOLID
  8
0
 62
7
  6
CONTINUOUS
 10
155.4706168074
 20
30.658327332
 11
155.412804528
 21
30.7551187255
 12
155.759679528
 22
30.6905916353
 13
155.759679528
 23
30.6905916353
  0
SOLID
  8
0
 62
7
  6
CONTINUOUS
 10
155.4706168074
 20
30.658327332
 11
155.759679528
 21
30.6905916353
 12
155.5284290869
 22
30.5938002079
 13
155.5284290869
 23
30.5938002079
  0
SOLID
  8
0
 62
7
  6
CONTINUOUS
 10
155.759679528
 20
30.6905916353
 11
155.8174918074
 21
30.5938002079
 12
155.5284290869
 22
30.5938002079
 13
155.5284290869
 23
30.5938002079
  0
SOLID
  8
0
 62
7
  6
CONTINUOUS
 10
151.0768668626
 20
30.8196456577
 11
151.1346793074
 21
30.9164373395
 12
151.4237418626
 22
30.9164373395
 13
151.4237418626
 23
30.9164373395
  0
SOLID
  8
0
 62
7
  6
CONTINUOUS
 10
151.4237418626
 20
30.9164373395
 11
151.3659292523
 21
30.7873815123
 12
151.0768668626
 22
30.8196456577
 13
151.0768668626
 23
30.8196456577
  0
SOLID
  8
0
 62
7
  6
CONTINUOUS
 10
150.9034292799
 20
30.7551187255
 11
151.0768668626
 21
30.8196456577
 12
151.3659292523
 22
30.7873815123
 13
151.3659292523
 23
30.7873815123
  0
SOLID
  8
0
 62
7
  6
CONTINUOUS
 10
150.9034292799
 20
30.7551187255
 11
151.3659292523
 21
30.7873815123
 12
150.498741835
 22
30.7228544222
 13
150.498741835
 23
30.7228544222
  0
SOLID
  8
0
 62
7
  6
CONTINUOUS
 10
151.3659292523
 20
30.7873815123
 11
151.1924917523
 21
30.6905916353
 12
150.498741835
 22
30.7228544222
 13
150.498741835
 23
30.7228544222
  0
SOLID
  8
0
 62
7
  6
CONTINUOUS
 10
150.0362418212
 20
30.658327332
 11
150.498741835
 21
30.7228544222
 12
151.1924917523
 22
30.6905916353
 13
151.1924917523
 23
30.6905916353
  0
SOLID
  8
0
 62
7
  6
CONTINUOUS
 10
150.0362418212
 20
30.658327332
 11
151.1924917523
 21
30.6905916353
 12
150.2096793212
 22
30.6260631011
 13
150.2096793212
 23
30.6260631011
  0
SOLID
  8
0
 62
7
  6
CONTINUOUS
 10
151.1924917523
 20
30.6905916353
 11
150.9612418074
 21
30.6260631011
 12
150.2096793212
 22
30.6260631011
 13
150.2096793212
 23
30.6260631011
  0
SOLID
  8
0
 62
7
  6
CONTINUOUS
 10
150.5565542799
 20
30.5938002419
 11
150.2096793212
 21
30.6260631011
 12
150.9612418074
 22
30.6260631011
 13
150.9612418074
 23
30.6260631011
  0
SOLID
  8
0
 62
7
  6
CONTINUOUS
 10
154.0253041972
 20
30.7551187255
 11
154.2565543074
 21
30.8519086025
 12
154.3143669177
 22
30.7873815123
 13
154.3143669177
 23
30.7873815123
  0
SOLID
  8
0
 62
7
  6
CONTINUOUS
 10
154.3143669177
 20
30.7873815123
 11
154.5456166972
 21
30.7228544222
 12
154.0253041972
 22
30.7551187255
 13
154.0253041972
 23
30.7551187255
  0
SOLID
  8
0
 62
7
  6
CONTINUOUS
 10
154.1987416972
 20
30.658327332
 11
154.0253041972
 21
30.7551187255
 12
154.5456166972
 22
30.7228544222
 13
154.5456166972
 23
30.7228544222
  0
SOLID
  8
0
 62
7
  6
CONTINUOUS
 10
154.8924916972
 20
30.7228544637
 11
155.1815540869
 21
30.7873815123
 12
155.412804528
 22
30.7551187255
 13
155.412804528
 23
30.7551187255
  0
SOLID
  8
0
 62
7
  6
CONTINUOUS
 10
155.412804528
 20
30.7551187255
 11
155.3549915869
 21
30.6905916353
 12
154.8924916972
 22
30.7228544637
 13
154.8924916972
 23
30.7228544637
  0
SOLID
  8
0
 62
7
  6
CONTINUOUS
 10
155.3549915869
 20
30.6905916353
 11
154.1987416972
 21
30.658327332
 12
154.8924916972
 22
30.7228544637
 13
154.8924916972
 23
30.7228544637
  0
SOLID
  8
0
 62
7
  6
CONTINUOUS
 10
154.1987416972
 20
30.658327332
 11
154.5456166972
 21
30.7228544637
 12
154.8924916972
 22
30.7228544637
 13
154.8924916972
 23
30.7228544637
  0
SOLID
  8
0
 62
7
  6
CONTINUOUS
 10
154.1987416972
 20
30.658327332
 11
155.3549915869
 21
30.6905916353
 12
154.3143669177
 22
30.6260630541
 13
154.3143669177
 23
30.6260630541
  0
SOLID
  8
0
 62
7
  6
CONTINUOUS
 10
155.3549915869
 20
30.6905916353
 11
155.1815540869
 21
30.6260630541
 12
154.3143669177
 22
30.6260630541
 13
154.3143669177
 23
30.6260630541
  0
SOLID
  8
0
 62
7
  6
CONTINUOUS
 10
154.5456166972
 20
30.5938002188
 11
154.3143669177
 21
30.6260630541
 12
155.1815540869
 22
30.6260630541
 13
155.1815540869
 23
30.6260630541
  0
SOLID
  8
0
 62
7
  6
CONTINUOUS
 10
155.1815540869
 20
30.6260630541
 11
154.8924916972
 21
30.5938002188
 12
154.5456166972
 22
30.5938002188
 13
154.5456166972
 23
30.5938002188
  0
SOLID
  8
0
 62
7
  6
CONTINUOUS
 10
159.575304528
 20
30.7551187255
 11
159.228429528
 21
30.7228544637
 12
159.4596793074
 22
30.7873815123
 13
159.4596793074
 23
30.7873815123
  0
SOLID
  8
0
 62
7
  6
CONTINUOUS
 10
159.4596793074
 20
30.7873815123
 11
159.228429528
 21
30.7228544637
 12
159.401867028
 22
30.851908644
 13
159.401867028
 23
30.851908644
  0
SOLID
  8
0
 62
7
  6
CONTINUOUS
 10
159.228429528
 20
30.7228544637
 11
159.1128043074
 21
30.851908644
 12
159.401867028
 22
30.851908644
 13
159.401867028
 23
30.851908644
  0
SOLID
  8
0
 62
7
  6
CONTINUOUS
 10
159.575304528
 20
30.7551187255
 11
159.922179528
 21
30.7228544637
 12
159.228429528
 22
30.7228544637
 13
159.228429528
 23
30.7228544637
  0
SOLID
  8
0
 62
7
  6
CONTINUOUS
 10
156.279992028
 20
30.5938002419
 11
156.279992028
 21
31.6262382337
 12
156.5690540869
 22
30.5938002419
 13
156.5690540869
 23
31.6262382337
  0
ENDBLK
  8
0
  6
BYBLOCK
 62
0
  0
BLOCK
  8
0
 62
2
  6
CONTINUOUS
  2
AMMEAAL_LOGO_BL0
 70
64
 10
32.1213064866
 20
19.8534310916
  0
TEXT
  8
0
 62
7
  6
CONTINUOUS
 10
18.3860103289
 20
19.2268451992
  7
TEXTSTYLE_3
 40
2.7338706658
  1
Ammeraal Beltech
 41
1.0
 51
15.0
 72
0
  0
TEXT
  8
0
 62
7
  6
CONTINUOUS
 10
29.1868111546
 20
16.9533085264
  7
TEXTSTYLE_4
 40
1.0935482663
  1
Innovation & Service in Belting
 41
1.0
 72
0
  0
LINE
  8
0
 62
7
  6
CONTINUOUS
 10
12.3614696776
 20
19.9934385078
 11
13.1396216709
 21
23.6543558055
  0
LINE
  8
0
 62
7
  6
CONTINUOUS
 10
23.2347899607
 20
27.3177497171
 11
13.6274394139
 21
24.1961322958
  0
LINE
  8
0
 62
7
  6
CONTINUOUS
 10
12.5867530099
 20
19.3000877048
 11
20.093828271
 21
12.5406867788
  0
LINE
  8
0
 62
7
  6
CONTINUOUS
 10
12.8492874206
 20
20.5352149982
 11
23.6575567857
 21
24.0470345971
  0
LINE
  8
0
 62
7
  6
CONTINUOUS
 10
23.6533516486
 20
13.6972460334
 11
15.2078919798
 21
21.3015720751
  0
LINE
  8
0
 62
7
  6
CONTINUOUS
 10
24.1731743684
 20
26.4728246013
 11
23.1966148312
 21
21.8784731989
  0
LINE
  8
0
 62
7
  6
CONTINUOUS
 10
22.4968128835
 20
18.5861638851
 11
21.810364672
 21
15.3566789607
  0
LINE
  8
0
 62
7
  6
CONTINUOUS
 10
24.8542704669
 20
14.087448211
 11
25.8105020025
 21
18.5861638851
  0
LINE
  8
0
 62
7
  6
CONTINUOUS
 10
26.5103039502
 20
21.8784731989
 11
26.9545457526
 21
23.9684665583
  0
LINE
  8
0
 62
7
  6
CONTINUOUS
 10
20.8069293463
 20
12.3891124661
 11
24.3664527239
 21
13.5456717207
  0
LINE
  8
0
 62
7
  6
CONTINUOUS
 10
23.9478910361
 20
27.1661754044
 11
26.7292624203
 21
24.6618173613
  0
ARC
  8
0
 62
7
  6
CONTINUOUS
 10
13.8527227462
 20
23.5027814928
 40
0.7290321776
 50
108.0
 51
168.0
  0
ARC
  8
0
 62
7
  6
CONTINUOUS
 10
23.4600732931
 20
26.624398914
 40
0.7290321776
 50
348.0
 51
108.0
  0
ARC
  8
0
 62
7
  6
CONTINUOUS
 10
26.2414446773
 20
24.120040871
 40
0.7290321776
 50
348.0
 51
48.0
  0
ARC
  8
0
 62
7
  6
CONTINUOUS
 10
20.581646014
 20
13.0824632691
 40
0.7290321776
 50
228.0
 51
288.0
  0
ARC
  8
0
 62
7
  6
CONTINUOUS
 10
13.0745707529
 20
19.8418641951
 40
0.7290321776
 50
108.0
 51
228.0
  0
ARC
  8
0
 62
7
  6
CONTINUOUS
 10
24.1411693916
 20
14.2390225237
 40
0.7290321776
 50
228.0
 51
348.0
  0
ENDBLK
  8
0
  6
BYBLOCK
 62
0
  0
ENDSEC
  0
SECTION
  2
ENTITIES
  0
TEXT
  8
0
 62
5
  6
CONTINUOUS
 10
96.0
 20
25.636
  7
TEXTSTYLE_2
 40
2.8
  1
Scale :
 41
0.6
 51
0.000019
 72
0
  0
TEXT
  8
0
 62
5
  6
CONTINUOUS
 10
116.0
 20
25.636
  7
TEXTSTYLE_2
 40
2.8
  1
Belt type:
 41
0.6
 51
0.000019
 72
0
  0
INSERT
  8
0
 62
2
  6
CONTINUOUS
  2
AMMEAAL_LOGO_BL0
 10
32.1213064866
 20
19.8534310916
  0
INSERT
  8
0
 62
2
  6
CONTINUOUS
  2
UNI_LOGO2_BL1
 10
173.5956734183
 20
35.5937998301
  0
LINE
  8
0
 62
2
  6
CONTINUOUS
 10
10.0
 20
30.0
 11
200.0
 21
30.0
  0
LINE
  8
0
 62
2
  6
CONTINUOUS
 10
10.0
 20
30.0
 11
10.0
 21
10.0
  0
LINE
  8
0
 62
2
  6
CONTINUOUS
 10
10.0
 20
10.0
 11
200.0
 21
10.0
  0
LINE
  8
0
 62
2
  6
CONTINUOUS
 10
95.0
 20
30.0
 11
95.0
 21
10.0
  0
LINE
  8
0
 62
2
  6
CONTINUOUS
 10
115.0
 20
30.0
 11
115.0
 21
10.0
  0
LINE
  8
0
 62
2
  6
CONTINUOUS
 10
200.0
 20
30.0
 11
200.0
 21
10.0
  0
TEXT
  8
0
 62
5
  6
CONTINUOUS
 10
13.0
 20
23.303
  7
TEXTSTYLE_5
 40
1.52
  1
                                                                     Ammeraal Beltech Modular A/S
 41
1.0
 72
0
  0
TEXT
  8
0
 62
5
  6
CONTINUOUS
 10
13.0
 20
20.595
  7
TEXTSTYLE_5
 40
1.5
  1
                                                                      Hjulmagervej 21,  7100 Vejle,  DK
 41
1.0
 72
0
  0
TEXT
  8
0
 62
5
  6
CONTINUOUS
 10
13.0
 20
17.881
  7
TEXTSTYLE_5
 40
1.495
  1
                                                                      tel: 
 41
1.0
 72
0
  0
TEXT
  8
0
 62
5
  6
CONTINUOUS
 10
57.9869465649
 20
17.881
  7
TEXTSTYLE_5
 40
1.51
  1
+45 75723100     fax: +45 75723348
 41
1.0
 72
0
  0
TEXT
  8
0
 62
5
  6
CONTINUOUS
 10
13.0
 20
15.177
  7
TEXTSTYLE_5
 40
1.5
  1
                                                                      admin@unichains.dk  www.unichains.com
 41
1.0
 72
0
  0
TEXT
  8
0
 62
5
  6
CONTINUOUS
 10
99.75
 20
13.75
  7
TEXTSTYLE_6
 40
5.0
  1
1:1
 41
0.7
 72
1
 11
105.0
 21
13.75
  0
TEXT
  8
0
 62
5
  6
CONTINUOUS
 10
118.0
 20
13.75
  7
TEXTSTYLE_7
 40
7.5
  1
Sprocket Z15 1,5" SQ
 41
0.47375
 72
0
  0
LINE
  8
0
 62
7
  6
CONTINUOUS
 10
210.0
 20
0.0
 11
0.0
 21
0.0
  0
LINE
  8
0
 62
7
  6
CONTINUOUS
 10
10.0
 20
10.0
 11
200.0
 21
10.0
  0
LINE
  8
0
 62
7
  6
CONTINUOUS
 10
10.0
 20
30.0
 11
200.0
 21
30.0
  0
LINE
  8
0
 62
7
  6
CONTINUOUS
 10
0.0
 20
0.0
 11
0.0
 21
297.0
  0
LINE
  8
0
 62
7
  6
CONTINUOUS
 10
10.0
 20
10.0
 11
10.0
 21
287.0
  0
LINE
  8
0
 62
7
  6
CONTINUOUS
 10
200.0
 20
287.0
 11
200.0
 21
10.0
  0
LINE
  8
0
 62
7
  6
CONTINUOUS
 10
210.0
 20
0.0
 11
210.0
 21
297.0
  0
LINE
  8
0
 62
7
  6
CONTINUOUS
 10
10.0
 20
287.0
 11
200.0
 21
287.0
  0
LINE
  8
0
 62
7
  6
CONTINUOUS
 10
0.0
 20
297.0
 11
210.0
 21
297.0
  0
LINE
  8
0
 62
7
  6
CONTINUOUS
 10
34.7962214684
 20
208.0424594746
 11
35.4687518603
 21
201.6437602196
  0
LINE
  8
0
 62
7
  6
CONTINUOUS
 10
38.763402812
 20
232.990270123
 11
36.7752044416
 21
226.8712247298
  0
LINE
  8
0
 62
7
  6
CONTINUOUS
 10
52.5347920632
 20
254.1676311967
 11
48.229642491
 21
249.3862782036
  0
LINE
  8
0
 62
7
  6
CONTINUOUS
 10
73.7291909114
 20
267.912784576
 11
67.8514896095
 21
265.2958633527
  0
LINE
  8
0
 62
7
  6
CONTINUOUS
 10
111.2245103327
 20
152.5140572721
 11
104.9311623901
 21
151.176364872
  0
LINE
  8
0
 62
7
  6
CONTINUOUS
 10
79.7053350894
 20
152.5140572721
 11
85.9986830321
 21
151.176364872
  0
LINE
  8
0
 62
7
  6
CONTINUOUS
 10
57.20448366
 20
163.9963684029
 11
62.40965457
 21
160.2145903712
  0
LINE
  8
0
 62
7
  6
CONTINUOUS
 10
41.3192097276
 20
183.6379023566
 11
44.5361822673
 21
178.0659424713
  0
LINE
  8
QUILTS
 62
7
  6
CONTINUOUS
 10
47.6488686619
 20
214.4353624569
 11
47.6293663514
 21
213.9148942788
  0
LINE
  8
QUILTS
 62
7
  6
CONTINUOUS
 10
47.5513571275
 20
211.8330220501
 11
47.5318548211
 21
211.3125539836
  0
LINE
  8
QUILTS
 62
7
  6
CONTINUOUS
 10
49.6658247261
 20
227.9240242851
 11
49.7162504239
 21
228.3510902805
  0
LINE
  8
QUILTS
 62
7
  6
CONTINUOUS
 10
47.9953960059
 20
217.6368475525
 11
47.942867588
 21
217.2235050287
  0
LINE
  8
QUILTS
 62
7
  6
CONTINUOUS
 10
47.8246787043
 20
216.2934847936
 11
47.7590182008
 21
215.7768067866
  0
LINE
  8
QUILTS
 62
7
  6
CONTINUOUS
 10
49.1205748966
 20
228.580425718
 11
49.0327226395
 21
228.0561480326
  0
LINE
  8
QUILTS
 62
7
  6
CONTINUOUS
 10
46.8458609127
 20
220.4850918196
 11
46.7506930715
 21
219.97302714
  0
LINE
  8
QUILTS
 62
7
  6
CONTINUOUS
 10
47.2736528814
 20
219.8758344256
 11
47.3688207227
 21
220.3878991052
  0
LINE
  8
QUILTS
 62
7
  6
CONTINUOUS
 10
48.4147406356
 20
220.193513622
 11
48.3195727944
 21
219.6814489423
  0
LINE
  8
QUILTS
 62
7
  6
CONTINUOUS
 10
49.4199852295
 20
229.3581136755
 11
49.1205748966
 21
228.580425718
  0
LINE
  8
QUILTS
 62
7
  6
CONTINUOUS
 10
49.7162504239
 20
228.3510902805
 11
50.0156607568
 21
229.128778238
  0
LINE
  8
QUILTS
 62
7
  6
CONTINUOUS
 10
53.0444645082
 20
228.4091668854
 11
52.8199068656
 21
227.8259011954
  0
LINE
  8
QUILTS
 62
7
  6
CONTINUOUS
 10
48.365004382
 20
217.1698590169
 11
48.5230669984
 21
217.5697900378
  0
LINE
  8
QUILTS
 62
7
  6
CONTINUOUS
 10
48.140326499
 20
217.9334427946
 11
47.9953960059
 21
217.6368475525
  0
LINE
  8
QUILTS
 62
7
  6
CONTINUOUS
 10
52.5174757591
 20
235.8846500905
 11
52.2289364448
 21
235.3302404368
  0
LINE
  8
QUILTS
 62
7
  6
CONTINUOUS
 10
51.0266889352
 20
233.020199508
 11
50.5938805142
 21
232.1885860849
  0
LINE
  8
QUILTS
 62
7
  6
CONTINUOUS
 10
49.7063955674
 20
229.8059451026
 11
49.4199852295
 21
229.3581136755
  0
LINE
  8
QUILTS
 62
7
  6
CONTINUOUS
 10
54.6162026785
 20
239.1478575492
 11
53.2279660511
 21
237.0687233385
  0
LINE
  8
QUILTS
 62
7
  6
CONTINUOUS
 10
54.1058679219
 20
237.2340635392
 11
55.2048890266
 21
238.8800454503
  0
LINE
  8
QUILTS
 62
7
  6
CONTINUOUS
 10
56.4435222736
 20
238.0530107968
 11
55.3445011689
 21
236.4070288857
  0
LINE
  8
QUILTS
 62
7
  6
CONTINUOUS
 10
55.8753438828
 20
236.0525855338
 11
56.9743649875
 21
237.6985674449
  0
LINE
  8
QUILTS
 62
7
  6
CONTINUOUS
 10
50.0156607568
 20
229.128778238
 11
50.2646449637
 21
229.4793990876
  0
LINE
  8
QUILTS
 62
7
  6
CONTINUOUS
 10
65.5813943093
 20
247.9512434152
 11
65.8436654122
 21
248.292038061
  0
LINE
  8
QUILTS
 62
7
  6
CONTINUOUS
 10
66.4670709468
 20
247.8345258495
 11
66.0408462936
 21
247.3651945164
  0
LINE
  8
QUILTS
 62
7
  6
CONTINUOUS
 10
65.5811214211
 20
248.626923146
 11
65.0729190546
 21
248.0933227338
  0
LINE
  8
QUILTS
 62
7
  6
CONTINUOUS
 10
54.9938933109
 20
239.5219379397
 11
54.6162026785
 21
239.1478575492
  0
LINE
  8
QUILTS
 62
7
  6
CONTINUOUS
 10
61.619935176
 20
247.3104037157
 11
59.8154104844
 21
245.580175223
  0
LINE
  8
QUILTS
 62
7
  6
CONTINUOUS
 10
60.7083020709
 20
245.5520026926
 11
62.1368846921
 21
246.921767466
  0
LINE
  8
QUILTS
 62
7
  6
CONTINUOUS
 10
63.1676591967
 20
245.8467313926
 11
61.7390765755
 21
244.4769666191
  0
LINE
  8
QUILTS
 62
7
  6
CONTINUOUS
 10
62.180836989
 20
244.0162369655
 11
63.6094196102
 21
245.386001739
  0
LINE
  8
QUILTS
 62
7
  6
CONTINUOUS
 10
66.0729858247
 20
249.0125361499
 11
65.5811214211
 21
248.626923146
  0
LINE
  8
QUILTS
 62
7
  6
CONTINUOUS
 10
65.8436654122
 20
248.292038061
 11
66.3355298157
 21
248.6776510648
  0
LINE
  8
QUILTS
 62
7
  6
CONTINUOUS
 10
65.1224843487
 20
247.1859299103
 11
65.5323710389
 21
247.507273835
  0
LINE
  8
QUILTS
 62
7
  6
CONTINUOUS
 10
67.3688201644
 20
248.541481307
 11
66.4670709468
 21
247.8345258495
  0
LINE
  8
QUILTS
 62
7
  6
CONTINUOUS
 10
66.7296150298
 20
247.4996406472
 11
67.6313642474
 21
248.2065961047
  0
LINE
  8
QUILTS
 62
7
  6
CONTINUOUS
 10
55.2048890266
 20
238.8800454503
 11
55.4668923907
 21
239.0808633347
  0
LINE
  8
QUILTS
 62
7
  6
CONTINUOUS
 10
67.6126733168
 20
252.1058148913
 11
67.1836542
 21
251.8104987654
  0
LINE
  8
QUILTS
 62
7
  6
CONTINUOUS
 10
68.8706453154
 20
252.9343011308
 11
68.4328395423
 21
252.6521750564
  0
LINE
  8
QUILTS
 62
7
  6
CONTINUOUS
 10
62.069505703
 20
247.5940808095
 11
61.619935176
 21
247.3104037157
  0
LINE
  8
QUILTS
 62
7
  6
CONTINUOUS
 10
66.6304843497
 20
249.3144264115
 11
66.0729858247
 21
249.0125361499
  0
LINE
  8
QUILTS
 62
7
  6
CONTINUOUS
 10
62.1368846921
 20
246.921767466
 11
62.4360770141
 21
247.061257752
  0
LINE
  8
QUILTS
 62
7
  6
CONTINUOUS
 10
66.3355298157
 20
248.6776510648
 11
66.7290729141
 21
248.8510031681
  0
LINE
  8
QUILTS
 62
7
  6
CONTINUOUS
 10
89.0230135446
 20
257.8001420166
 11
89.4236622337
 21
257.9563718149
  0
LINE
  8
QUILTS
 62
7
  6
CONTINUOUS
 10
89.3590211787
 20
258.4843442769
 11
88.8549794477
 21
258.3154557969
  0
LINE
  8
QUILTS
 62
7
  6
CONTINUOUS
 10
47.942867588
 20
217.2235050287
 11
47.9958733687
 21
216.7967510019
  0
LINE
  8
QUILTS
 62
7
  6
CONTINUOUS
 10
48.4180101627
 20
216.7431049901
 11
48.365004382
 21
217.1698590169
  0
LINE
  8
QUILTS
 62
7
  6
CONTINUOUS
 10
49.0327226395
 20
228.0561480326
 11
49.0815761963
 21
227.5908594642
  0
LINE
  8
QUILTS
 62
7
  6
CONTINUOUS
 10
50.5708965702
 20
212.866515292
 11
50.5552947229
 21
212.4501407792
  0
LINE
  8
QUILTS
 62
7
  6
CONTINUOUS
 10
50.9805282036
 20
212.4342069801
 11
50.9961300509
 21
212.8505814929
  0
LINE
  8
QUILTS
 62
7
  6
CONTINUOUS
 10
51.0390351241
 20
213.9956112168
 11
51.0585374346
 21
214.516079395
  0
LINE
  8
QUILTS
 62
7
  6
CONTINUOUS
 10
53.5034347195
 20
228.1208434165
 11
53.4904351527
 21
227.7909879986
  0
LINE
  8
QUILTS
 62
7
  6
CONTINUOUS
 10
54.1739625696
 20
228.0859291106
 11
54.1869621277
 21
228.4157845319
  0
LINE
  8
QUILTS
 62
7
  6
CONTINUOUS
 10
57.0560027874
 20
238.3955726735
 11
57.0832149461
 21
238.6279070888
  0
LINE
  8
QUILTS
 62
7
  6
CONTINUOUS
 10
51.1361128483
 20
215.3476386549
 11
51.2017733519
 21
215.8643166618
  0
LINE
  8
QUILTS
 62
7
  6
CONTINUOUS
 10
51.4381511194
 20
217.7243571321
 11
51.5038115853
 21
218.2410348434
  0
LINE
  8
QUILTS
 62
7
  6
CONTINUOUS
 10
54.0861107495
 20
227.5616525343
 11
54.1739625696
 21
228.0859291106
  0
LINE
  8
QUILTS
 62
7
  6
CONTINUOUS
 10
51.6665158713
 20
219.0594155157
 11
51.7616837126
 21
219.5714801953
  0
LINE
  8
QUILTS
 62
7
  6
CONTINUOUS
 10
56.5285780664
 20
238.3719764652
 11
56.4435222736
 21
238.0530107968
  0
LINE
  8
QUILTS
 62
7
  6
CONTINUOUS
 10
58.386527751
 20
237.1314246091
 11
58.3014719582
 21
236.8124589408
  0
LINE
  8
QUILTS
 62
7
  6
CONTINUOUS
 10
50.8586179889
 20
212.0218159916
 11
50.9805282036
 21
212.4342069801
  0
LINE
  8
QUILTS
 62
7
  6
CONTINUOUS
 10
63.8396705764
 20
246.048923689
 11
63.9164203248
 21
246.2698971223
  0
LINE
  8
QUILTS
 62
7
  6
CONTINUOUS
 10
53.4904351527
 20
227.7909879986
 11
53.1910248198
 21
227.0133000411
  0
LINE
  8
QUILTS
 62
7
  6
CONTINUOUS
 10
53.7867004166
 20
226.7839645769
 11
54.0861107495
 21
227.5616525343
  0
LINE
  8
QUILTS
 62
7
  6
CONTINUOUS
 10
54.4603733445
 20
228.5337616469
 11
54.6849309871
 21
229.1170273369
  0
LINE
  8
QUILTS
 62
7
  6
CONTINUOUS
 10
58.7744711
 20
236.3713842943
 11
58.9752141533
 21
236.863612474
  0
LINE
  8
QUILTS
 62
7
  6
CONTINUOUS
 10
65.0729190546
 20
248.0933227338
 11
64.9745996257
 21
247.8810633042
  0
LINE
  8
QUILTS
 62
7
  6
CONTINUOUS
 10
65.4830748804
 20
247.7389839856
 11
65.5813943093
 21
247.9512434152
  0
LINE
  8
QUILTS
 62
7
  6
CONTINUOUS
 10
66.0408462936
 20
247.3651945164
 11
65.8442093122
 21
246.9406771283
  0
LINE
  8
QUILTS
 62
7
  6
CONTINUOUS
 10
66.3690263744
 20
246.9465880428
 11
66.467343927
 21
247.1588460014
  0
LINE
  8
QUILTS
 62
7
  6
CONTINUOUS
 10
63.3195980475
 20
246.1397982298
 11
63.1676591967
 21
245.8467313926
  0
LINE
  8
QUILTS
 62
7
  6
CONTINUOUS
 10
64.8657596497
 20
244.5272442809
 11
64.7138207989
 21
244.2341774437
  0
LINE
  8
QUILTS
 62
7
  6
CONTINUOUS
 10
55.029157744
 20
229.880271571
 11
55.3176970582
 21
230.4346812247
  0
LINE
  8
QUILTS
 62
7
  6
CONTINUOUS
 10
56.5199440174
 20
232.744721096
 11
56.9527529888
 21
233.5763355766
  0
LINE
  8
QUILTS
 62
7
  6
CONTINUOUS
 10
50.5552947229
 20
212.4501407792
 11
50.3270761194
 21
212.0417332412
  0
LINE
  8
QUILTS
 62
7
  6
CONTINUOUS
 10
68.0254531681
 20
247.0285886877
 11
67.7468384964
 21
246.5398021912
  0
LINE
  8
QUILTS
 62
7
  6
CONTINUOUS
 10
53.5002896417
 20
226.3361320406
 11
53.7867004166
 21
226.7839645769
  0
LINE
  8
QUILTS
 62
7
  6
CONTINUOUS
 10
58.3014719582
 20
236.8124589408
 11
57.2024508535
 21
235.1664770297
  0
LINE
  8
QUILTS
 62
7
  6
CONTINUOUS
 10
57.3862344725
 20
234.2922500836
 11
58.7744711
 21
236.3713842943
  0
LINE
  8
QUILTS
 62
7
  6
CONTINUOUS
 10
48.5230669984
 20
217.5697900378
 11
48.6548653682
 21
217.7630495011
  0
LINE
  8
QUILTS
 62
7
  6
CONTINUOUS
 10
65.0803921616
 20
243.7013543324
 11
65.3827092109
 21
244.1386079841
  0
LINE
  8
QUILTS
 62
7
  6
CONTINUOUS
 10
53.1910248198
 20
227.0133000411
 11
52.9420406129
 21
226.6626791915
  0
LINE
  8
QUILTS
 62
7
  6
CONTINUOUS
 10
66.467343927
 20
247.1588460014
 11
66.7296150298
 21
247.4996406472
  0
LINE
  8
QUILTS
 62
7
  6
CONTINUOUS
 10
68.0093825104
 20
246.2049170768
 11
68.3536331972
 21
246.6099822801
  0
LINE
  8
QUILTS
 62
7
  6
CONTINUOUS
 10
48.3907911905
 20
218.2166265338
 11
48.140326499
 21
217.9334427946
  0
LINE
  8
QUILTS
 62
7
  6
CONTINUOUS
 10
64.7138207989
 20
244.2341774437
 11
63.2852381777
 21
242.8644126702
  0
LINE
  8
QUILTS
 62
7
  6
CONTINUOUS
 10
63.2758674699
 20
241.9711258396
 11
65.0803921616
 21
243.7013543324
  0
LINE
  8
QUILTS
 62
7
  6
CONTINUOUS
 10
50.0546594571
 20
230.1183444917
 11
49.7063955674
 21
229.8059451026
  0
LINE
  8
QUILTS
 62
7
  6
CONTINUOUS
 10
88.8549794477
 20
258.3154557969
 11
88.3767894058
 21
257.9353777526
  0
LINE
  8
QUILTS
 62
7
  6
CONTINUOUS
 10
67.7468384964
 20
246.5398021912
 11
67.2549759691
 21
246.1541906583
  0
LINE
  8
QUILTS
 62
7
  6
CONTINUOUS
 10
67.5175199832
 20
245.819305544
 11
68.0093825104
 21
246.2049170768
  0
LINE
  8
QUILTS
 62
7
  6
CONTINUOUS
 10
68.911131728
 20
246.9118725344
 11
69.3210146656
 21
247.2332135171
  0
LINE
  8
QUILTS
 62
7
  6
CONTINUOUS
 10
56.9743649875
 20
237.6985674449
 11
57.2363683516
 21
237.8993853292
  0
LINE
  8
QUILTS
 62
7
  6
CONTINUOUS
 10
50.2646449637
 20
229.4793990876
 11
50.5754822941
 21
229.6945867868
  0
LINE
  8
QUILTS
 62
7
  6
CONTINUOUS
 10
70.0186803568
 20
247.691927813
 11
70.4476994736
 21
247.9872439389
  0
LINE
  8
QUILTS
 62
7
  6
CONTINUOUS
 10
71.141241591
 20
248.449252461
 11
71.5790473641
 21
248.7313785354
  0
LINE
  8
QUILTS
 62
7
  6
CONTINUOUS
 10
57.2601625174
 20
238.5097593048
 11
57.0560027874
 21
238.3955726735
  0
LINE
  8
QUILTS
 62
7
  6
CONTINUOUS
 10
63.6094196102
 20
245.386001739
 11
63.9086119323
 21
245.525492025
  0
LINE
  8
QUILTS
 62
7
  6
CONTINUOUS
 10
67.1239750027
 20
245.645951977
 11
67.5175199832
 21
245.819305544
  0
LINE
  8
QUILTS
 62
7
  6
CONTINUOUS
 10
90.7032476199
 20
256.0766653717
 11
90.3025941977
 21
255.9204349939
  0
LINE
  8
QUILTS
 62
7
  6
CONTINUOUS
 10
55.4906865565
 20
239.6912373103
 11
54.9938933109
 21
239.5219379397
  0
LINE
  8
QUILTS
 62
7
  6
CONTINUOUS
 10
90.3672352618
 20
255.392462458
 11
90.8712817247
 21
255.5613515267
  0
LINE
  8
QUILTS
 62
7
  6
CONTINUOUS
 10
64.063673796
 20
246.1163205711
 11
63.8396705764
 21
246.048923689
  0
LINE
  8
QUILTS
 62
7
  6
CONTINUOUS
 10
47.9958733687
 20
216.7967510019
 11
48.1675455087
 21
216.4599215466
  0
LINE
  8
QUILTS
 62
7
  6
CONTINUOUS
 10
49.7521044139
 20
227.5559462943
 11
49.6658247261
 21
227.9240242851
  0
LINE
  8
QUILTS
 62
7
  6
CONTINUOUS
 10
50.4801900138
 20
213.2868731066
 11
50.5708965702
 21
212.866515292
  0
LINE
  8
QUILTS
 62
7
  6
CONTINUOUS
 10
50.9961300509
 20
212.8505814929
 11
50.9054235225
 21
213.2709393065
  0
LINE
  8
QUILTS
 62
7
  6
CONTINUOUS
 10
58.9752141533
 20
236.863612474
 11
58.9411646617
 21
237.387355212
  0
LINE
  8
QUILTS
 62
7
  6
CONTINUOUS
 10
64.9745996257
 20
247.8810633042
 11
64.9419180709
 21
247.5850840744
  0
LINE
  8
QUILTS
 62
7
  6
CONTINUOUS
 10
65.3827092109
 20
244.1386079841
 11
65.4625819528
 21
244.6573431465
  0
LINE
  8
QUILTS
 62
7
  6
CONTINUOUS
 10
68.3536331972
 20
246.6099822801
 11
68.4682924481
 21
246.970230611
  0
LINE
  8
QUILTS
 62
7
  6
CONTINUOUS
 10
50.6342998538
 20
211.717502007
 11
50.8586179889
 21
212.0218159916
  0
LINE
  8
QUILTS
 62
7
  6
CONTINUOUS
 10
88.6482212774
 20
257.4327232334
 11
89.0230135446
 21
257.8001420166
  0
LINE
  8
QUILTS
 62
7
  6
CONTINUOUS
 10
53.1520261542
 20
226.023733774
 11
53.5002896417
 21
226.3361320406
  0
LINE
  8
QUILTS
 62
7
  6
CONTINUOUS
 10
90.9875750563
 20
256.3258309809
 11
90.7032476199
 21
256.0766653717
  0
LINE
  8
QUILTS
 62
7
  6
CONTINUOUS
 10
90.8712817247
 20
255.5613515267
 11
91.3494717632
 21
255.9414295987
  0
LINE
  8
QUILTS
 62
7
  6
CONTINUOUS
 10
48.6281237589
 20
218.3964744941
 11
48.3907911905
 21
218.2166265338
  0
LINE
  8
QUILTS
 62
7
  6
CONTINUOUS
 10
52.9420406129
 20
226.6626791915
 11
52.6312032129
 21
226.4474915191
  0
LINE
  8
QUILTS
 62
7
  6
CONTINUOUS
 10
50.6014814277
 20
230.3542976226
 11
50.0546594571
 21
230.1183444917
  0
LINE
  8
QUILTS
 62
7
  6
CONTINUOUS
 10
48.1675455087
 20
216.4599215466
 11
48.3523496968
 21
216.2264272788
  0
LINE
  8
QUILTS
 62
7
  6
CONTINUOUS
 10
50.2792746761
 20
213.6071208528
 11
50.4801900138
 21
213.2868731066
  0
LINE
  8
QUILTS
 62
7
  6
CONTINUOUS
 10
48.5896823027
 20
216.4062755349
 11
48.4180101627
 21
216.7431049901
  0
LINE
  8
QUILTS
 62
7
  6
CONTINUOUS
 10
50.9054235225
 20
213.2709393065
 11
50.8069160787
 21
213.4831100871
  0
LINE
  8
QUILTS
 62
7
  6
CONTINUOUS
 10
49.0815761963
 20
227.5908594642
 11
49.3289882621
 21
227.0491257501
  0
LINE
  8
QUILTS
 62
7
  6
CONTINUOUS
 10
63.3227210603
 20
246.4375599387
 11
63.3195980475
 21
246.1397982298
  0
LINE
  8
QUILTS
 62
7
  6
CONTINUOUS
 10
64.868882611
 20
244.8250060435
 11
64.8657596497
 21
244.5272442809
  0
LINE
  8
QUILTS
 62
7
  6
CONTINUOUS
 10
65.8442093122
 20
246.9406771283
 11
65.8115278494
 21
246.6446977812
  0
LINE
  8
QUILTS
 62
7
  6
CONTINUOUS
 10
66.3363429433
 20
246.650607342
 11
66.3690263744
 21
246.9465880428
  0
LINE
  8
QUILTS
 62
7
  6
CONTINUOUS
 10
68.0744763925
 20
247.4725583265
 11
68.0254531681
 21
247.0285886877
  0
LINE
  8
QUILTS
 62
7
  6
CONTINUOUS
 10
81.7473829788
 20
254.212455326
 11
84.16791005
 21
258.6584966873
  0
LINE
  8
QUILTS
 62
7
  6
CONTINUOUS
 10
85.7893543876
 20
259.7294728267
 11
85.3219701316
 21
258.8769903371
  0
LINE
  8
QUILTS
 62
7
  6
CONTINUOUS
 10
85.4883242353
 20
258.042342933
 11
85.9557084331
 21
258.8948257149
  0
LINE
  8
QUILTS
 62
7
  6
CONTINUOUS
 10
83.6087862965
 20
258.7210984996
 11
81.0880455733
 21
254.2466390585
  0
LINE
  8
QUILTS
 62
7
  6
CONTINUOUS
 10
50.3036733505
 20
211.4171715279
 11
50.6342998538
 21
211.717502007
  0
LINE
  8
QUILTS
 62
7
  6
CONTINUOUS
 10
48.6548653682
 20
217.7630495011
 11
48.8921979365
 21
217.9428974615
  0
LINE
  8
QUILTS
 62
7
  6
CONTINUOUS
 10
54.6849309871
 20
229.1170273369
 11
54.0014031332
 21
228.8220851157
  0
LINE
  8
QUILTS
 62
7
  6
CONTINUOUS
 10
53.4545810932
 20
228.5861320116
 11
53.0444645082
 21
228.4091668854
  0
LINE
  8
QUILTS
 62
7
  6
CONTINUOUS
 10
54.1869621277
 20
228.4157845319
 11
54.4603733445
 21
228.5337616469
  0
LINE
  8
QUILTS
 62
7
  6
CONTINUOUS
 10
52.8199068656
 20
227.8259011954
 11
53.5034347195
 21
228.1208434165
  0
LINE
  8
QUILTS
 62
7
  6
CONTINUOUS
 10
52.6052041489
 20
225.7877806565
 11
53.1520261542
 21
226.023733774
  0
LINE
  8
QUILTS
 62
7
  6
CONTINUOUS
 10
50.8069160787
 20
213.4831100871
 11
50.4996923187
 21
213.8073411359
  0
LINE
  8
QUILTS
 62
7
  6
CONTINUOUS
 10
48.7744864908
 20
216.1727812671
 11
48.5896823027
 21
216.4062755349
  0
LINE
  8
QUILTS
 62
7
  6
CONTINUOUS
 10
54.0014031332
 20
228.8220851157
 11
53.8776973145
 21
229.092952529
  0
LINE
  8
QUILTS
 62
7
  6
CONTINUOUS
 10
56.4673164394
 20
238.6633847725
 11
56.5285780664
 21
238.3719764652
  0
LINE
  8
QUILTS
 62
7
  6
CONTINUOUS
 10
58.325266062
 20
237.4228329578
 11
58.386527751
 21
237.1314246091
  0
LINE
  8
QUILTS
 62
7
  6
CONTINUOUS
 10
91.1555764978
 20
256.6679318953
 11
90.9875750563
 21
256.3258309809
  0
LINE
  8
QUILTS
 62
7
  6
CONTINUOUS
 10
91.3494717632
 20
255.9414295987
 11
91.6079427731
 21
256.4017842296
  0
LINE
  8
QUILTS
 62
7
  6
CONTINUOUS
 10
50.3270761194
 20
212.0417332412
 11
50.0003500386
 21
211.8454963359
  0
LINE
  8
QUILTS
 62
7
  6
CONTINUOUS
 10
49.9681504398
 20
213.8272583858
 11
50.2792746761
 21
213.6071208528
  0
LINE
  8
QUILTS
 62
7
  6
CONTINUOUS
 10
49.3289882621
 20
227.0491257501
 11
49.65125259
 21
226.7018131909
  0
LINE
  8
QUILTS
 62
7
  6
CONTINUOUS
 10
49.9750897653
 20
227.2468562009
 11
49.7521044139
 21
227.5559462943
  0
LINE
  8
QUILTS
 62
7
  6
CONTINUOUS
 10
53.2315960199
 20
228.8952219979
 11
53.4545810932
 21
228.5861320116
  0
LINE
  8
QUILTS
 62
7
  6
CONTINUOUS
 10
57.0832149461
 20
238.6279070888
 11
56.9028493819
 21
239.1240944331
  0
LINE
  8
QUILTS
 62
7
  6
CONTINUOUS
 10
58.9411646617
 20
237.387355212
 11
58.7607990665
 21
237.8835425771
  0
LINE
  8
QUILTS
 62
7
  6
CONTINUOUS
 10
64.9419180709
 20
247.5850840744
 11
64.9912123531
 21
247.3533724528
  0
LINE
  8
QUILTS
 62
7
  6
CONTINUOUS
 10
63.9164203248
 20
246.2698971223
 11
63.8474789688
 21
246.7933287862
  0
LINE
  8
QUILTS
 62
7
  6
CONTINUOUS
 10
65.4625819528
 20
244.6573431465
 11
65.3936405711
 21
245.1807748374
  0
LINE
  8
0
 62
7
  6
CONTINUOUS
 10
79.183431991
 20
155.5854307946
 11
79.2002193089
 21
155.3711053621
  0
LINE
  8
0
 62
7
  6
CONTINUOUS
 10
91.1598586834
 20
269.1594731122
 11
91.0988774456
 21
268.9533214843
  0
LINE
  8
0
 62
7
  6
CONTINUOUS
 10
57.9769416112
 20
167.0144848475
 11
57.9051035823
 21
166.8118608048
  0
LINE
  8
0
 62
7
  6
CONTINUOUS
 10
115.1126765277
 20
265.8982837239
 11
114.9731179738
 21
265.7347581446
  0
LINE
  8
0
 62
7
  6
CONTINUOUS
 10
43.2524637313
 20
186.0809019711
 11
43.1044218033
 21
185.925014856
  0
LINE
  8
0
 62
7
  6
CONTINUOUS
 10
91.6012194059
 20
234.2613694576
 11
72.387857653
 21
215.0480077047
  0
LINE
  8
0
 62
7
  6
CONTINUOUS
 10
135.6682192429
 20
253.1765502495
 11
135.4742143147
 21
253.083925777
  0
LINE
  8
QUILTS
 62
7
  6
CONTINUOUS
 10
51.0585374346
 20
214.516079395
 11
50.8420202254
 21
214.4199524802
  0
LINE
  8
QUILTS
 62
7
  6
CONTINUOUS
 10
50.0871561672
 20
211.3210448079
 11
50.3036733505
 21
211.4171715279
  0
LINE
  8
0
 62
7
  6
CONTINUOUS
 10
37.5559943442
 20
209.4879254318
 11
37.3573463115
 21
209.4057295428
  0
LINE
  8
QUILTS
 62
7
  6
CONTINUOUS
 10
50.4996923187
 20
213.8073411359
 11
51.0390351241
 21
213.9956112168
  0
LINE
  8
0
 62
7
  6
CONTINUOUS
 10
47.409485831
 20
178.4684252303
 11
47.6185089967
 21
178.5186897432
  0
LINE
  8
0
 62
7
  6
CONTINUOUS
 10
152.4610990736
 20
200.8036702065
 11
152.6724956564
 21
200.8427686698
  0
LINE
  8
0
 62
7
  6
CONTINUOUS
 10
38.2573497657
 20
200.8427686698
 11
38.4687463485
 21
200.8036702065
  0
LINE
  8
0
 62
7
  6
CONTINUOUS
 10
143.3113364254
 20
178.5186897432
 11
143.5203595911
 21
178.4684252303
  0
LINE
  8
0
 62
7
  6
CONTINUOUS
 10
38.9969227771
 20
225.0052575869
 11
39.1741403874
 21
224.8835566269
  0
LINE
  8
0
 62
7
  6
CONTINUOUS
 10
125.888494175
 20
161.8818908117
 11
126.0590019193
 21
161.7509545136
  0
LINE
  8
0
 62
7
  6
CONTINUOUS
 10
72.387857653
 20
207.3206010944
 11
91.6012194059
 21
188.1072393415
  0
LINE
  8
QUILTS
 62
7
  6
CONTINUOUS
 10
53.8776973145
 20
229.092952529
 11
53.555432917
 21
229.4402651149
  0
LINE
  8
0
 62
7
  6
CONTINUOUS
 10
49.5003259728
 20
246.7779781385
 11
49.6127220757
 21
246.5947178834
  0
LINE
  8
0
 62
7
  6
CONTINUOUS
 10
103.2051400289
 20
153.769927088
 11
103.3076500139
 21
153.58095908
  0
LINE
  8
QUILTS
 62
7
  6
CONTINUOUS
 10
65.5323710389
 20
247.507273835
 11
65.4830748804
 21
247.7389839856
  0
LINE
  8
QUILTS
 62
7
  6
CONTINUOUS
 10
65.8115278494
 20
246.6446977812
 11
65.9101164138
 21
246.1812745379
  0
LINE
  8
QUILTS
 62
7
  6
CONTINUOUS
 10
68.025180234
 20
247.7042684772
 11
68.0744763925
 21
247.4725583265
  0
LINE
  8
QUILTS
 62
7
  6
CONTINUOUS
 10
68.4682924481
 20
246.970230611
 11
68.4189962665
 21
247.201940791
  0
LINE
  8
0
 62
7
  6
CONTINUOUS
 10
67.9514255198
 20
262.3962291423
 11
67.9795658081
 21
262.183096955
  0
LINE
  8
0
 62
7
  6
CONTINUOUS
 10
79.197781362
 20
154.5791995756
 11
79.1146629181
 21
153.3402181021
  0
LINE
  8
0
 62
7
  6
CONTINUOUS
 10
91.4984171091
 20
271.1637687868
 11
91.3221204826
 21
269.9345807349
  0
LINE
  8
QUILTS
 62
7
  6
CONTINUOUS
 10
91.2201896396
 20
256.9973746335
 11
91.1555764978
 21
256.6679318953
  0
LINE
  8
QUILTS
 62
7
  6
CONTINUOUS
 10
91.6079427731
 20
256.4017842296
 11
91.7500877926
 21
256.9550741288
  0
LINE
  8
0
 62
7
  6
CONTINUOUS
 10
57.5807793058
 20
166.089410473
 11
57.0009076636
 21
164.9913518927
  0
LINE
  8
0
 62
7
  6
CONTINUOUS
 10
116.2371855341
 20
267.5915948156
 11
115.5761747297
 21
266.5403819523
  0
LINE
  8
0
 62
7
  6
CONTINUOUS
 10
42.514289811
 20
185.3969382046
 11
41.5379300453
 21
184.6296668214
  0
LINE
  8
0
 62
7
  6
CONTINUOUS
 10
137.3842410068
 20
254.2660878874
 11
136.3528107979
 21
253.5746144667
  0
LINE
  8
QUILTS
 62
7
  6
CONTINUOUS
 10
50.0003500386
 20
211.8454963359
 11
49.6775244941
 21
211.753353056
  0
LINE
  8
0
 62
7
  6
CONTINUOUS
 10
154.7012005816
 20
200.9699664903
 11
153.460318135
 21
200.9231207732
  0
LINE
  8
0
 62
7
  6
CONTINUOUS
 10
37.4695272871
 20
200.9231207732
 11
36.2286448406
 21
200.9699664903
  0
LINE
  8
0
 62
7
  6
CONTINUOUS
 10
145.4254097749
 20
177.7594775904
 11
144.2727533826
 21
178.2213942591
  0
LINE
  8
0
 62
7
  6
CONTINUOUS
 10
37.1953446224
 20
225.9466072091
 11
38.3098932752
 21
225.3990991563
  0
LINE
  8
QUILTS
 62
7
  6
CONTINUOUS
 10
49.65125259
 20
226.7018131909
 11
50.1102230099
 21
226.4134896418
  0
LINE
  8
QUILTS
 62
7
  6
CONTINUOUS
 10
50.3347806525
 20
226.9967553318
 11
49.9750897653
 21
227.2468562009
  0
LINE
  8
0
 62
7
  6
CONTINUOUS
 10
127.5109968781
 20
160.3284449008
 11
126.6458713019
 21
161.2192543669
  0
LINE
  8
0
 62
7
  6
CONTINUOUS
 10
48.2373838182
 20
248.3707116608
 11
49.0328830898
 21
247.4172103885
  0
LINE
  8
QUILTS
 62
7
  6
CONTINUOUS
 10
56.2597387165
 20
238.9272377015
 11
56.4673164394
 21
238.6633847725
  0
LINE
  8
QUILTS
 62
7
  6
CONTINUOUS
 10
56.9028493819
 20
239.1240944331
 11
56.6952716591
 21
239.3879473622
  0
LINE
  8
QUILTS
 62
7
  6
CONTINUOUS
 10
58.1176883392
 20
237.6866858868
 11
58.325266062
 21
237.4228329578
  0
LINE
  8
QUILTS
 62
7
  6
CONTINUOUS
 10
58.7607990665
 20
237.8835425771
 11
58.5532212817
 21
238.1473955475
  0
LINE
  8
QUILTS
 62
7
  6
CONTINUOUS
 10
63.177029956
 20
246.7400181693
 11
63.3227210603
 21
246.4375599387
  0
LINE
  8
QUILTS
 62
7
  6
CONTINUOUS
 10
63.8474789688
 20
246.7933287862
 11
63.7017878645
 21
247.0957870169
  0
LINE
  8
QUILTS
 62
7
  6
CONTINUOUS
 10
64.7231915066
 20
245.1274642742
 11
64.868882611
 21
244.8250060435
  0
LINE
  8
QUILTS
 62
7
  6
CONTINUOUS
 10
65.3936405711
 20
245.1807748374
 11
65.2479494152
 21
245.4832331218
  0
LINE
  8
0
 62
7
  6
CONTINUOUS
 10
103.6275199398
 20
152.8565255435
 11
104.0555266283
 21
151.6908523295
  0
LINE
  8
QUILTS
 62
7
  6
CONTINUOUS
 10
66.4512750996
 20
246.3351759201
 11
66.3363429433
 21
246.650607342
  0
LINE
  8
0
 62
7
  6
CONTINUOUS
 10
67.4454935373
 20
264.3649484691
 11
67.7843943769
 21
263.1703230096
  0
LINE
  8
QUILTS
 62
7
  6
CONTINUOUS
 10
53.555432917
 20
229.4402651149
 11
53.0964627753
 21
229.728588557
  0
LINE
  8
QUILTS
 62
7
  6
CONTINUOUS
 10
52.8719051327
 20
229.145322867
 11
53.2315960199
 21
228.8952219979
  0
LINE
  8
1_AXIS
 62
2
  6
CONTINUOUS
 10
95.4649227111
 20
212.0643043995
 11
95.4649227111
 21
210.3043043995
  0
LINE
  8
1_AXIS
 62
2
  6
CENTER
 10
95.4649227111
 20
206.7843043995
 11
95.4649227111
 21
148.4343043995
  0
LINE
  8
1_AXIS
 62
2
  6
CENTER
 10
95.4649227111
 20
215.5843043995
 11
95.4649227111
 21
273.9343043995
  0
LINE
  8
QUILTS
 62
7
  6
CONTINUOUS
 10
135.8934751317
 20
239.8111415541
 11
131.7035604078
 21
237.0826594474
  0
LINE
  8
QUILTS
 62
7
  6
CONTINUOUS
 10
132.0446206711
 20
236.5589201069
 11
133.9167102552
 21
237.7780291506
  0
LINE
  8
QUILTS
 62
7
  6
CONTINUOUS
 10
134.4515929221
 20
238.1263459737
 11
135.7887998392
 21
238.9971381943
  0
LINE
  8
QUILTS
 62
7
  6
CONTINUOUS
 10
139.1272256701
 20
229.6574621832
 11
138.4304634776
 21
229.3946468777
  0
LINE
  8
QUILTS
 62
7
  6
CONTINUOUS
 10
139.1119639341
 20
229.0950562168
 11
139.3110388463
 21
229.1701463041
  0
LINE
  8
QUILTS
 62
7
  6
CONTINUOUS
 10
138.0538157594
 20
228.5845939391
 11
138.3524281276
 21
228.69722907
  0
LINE
  8
0
 62
7
  6
CONTINUOUS
 10
71.2720332595
 20
207.1851154836
 11
72.387857653
 21
207.3206010944
  0
LINE
  8
1_AXIS
 62
2
  6
CONTINUOUS
 10
96.3449227111
 20
211.1843043995
 11
94.5849227111
 21
211.1843043995
  0
LINE
  8
1_AXIS
 62
2
  6
CENTER
 10
91.0649227111
 20
211.1843043995
 11
32.7149227111
 21
211.1843043995
  0
LINE
  8
1_AXIS
 62
2
  6
CENTER
 10
99.8649227111
 20
211.1843043995
 11
158.2149227111
 21
211.1843043995
  0
LINE
  8
QUILTS
 62
7
  6
CONTINUOUS
 10
47.5318548211
 20
211.3125539836
 11
49.6580221878
 21
211.2328849895
  0
LINE
  8
QUILTS
 62
7
  6
CONTINUOUS
 10
49.6775244941
 20
211.753353056
 11
47.5513571275
 21
211.8330220501
  0
LINE
  8
QUILTS
 62
7
  6
CONTINUOUS
 10
47.7590182008
 20
215.7768067866
 11
51.1361128483
 21
215.3476386549
  0
LINE
  8
QUILTS
 62
7
  6
CONTINUOUS
 10
51.2017733519
 20
215.8643166618
 11
48.7744864908
 21
216.1727812671
  0
LINE
  8
QUILTS
 62
7
  6
CONTINUOUS
 10
48.3523496968
 20
216.2264272788
 11
47.8246787043
 21
216.2934847936
  0
LINE
  8
QUILTS
 62
7
  6
CONTINUOUS
 10
46.7506930715
 20
219.97302714
 11
47.2736528814
 21
219.8758344256
  0
LINE
  8
QUILTS
 62
7
  6
CONTINUOUS
 10
48.3195727944
 20
219.6814489423
 11
51.6665158713
 21
219.0594155157
  0
LINE
  8
QUILTS
 62
7
  6
CONTINUOUS
 10
51.7616837126
 20
219.5714801953
 11
48.4147406356
 21
220.193513622
  0
LINE
  8
QUILTS
 62
7
  6
CONTINUOUS
 10
47.3688207227
 20
220.3878991052
 11
46.8458609127
 21
220.4850918196
  0
LINE
  8
QUILTS
 62
7
  6
CONTINUOUS
 10
50.1102230099
 20
226.4134896418
 11
51.5994119671
 21
225.8401509945
  0
LINE
  8
QUILTS
 62
7
  6
CONTINUOUS
 10
51.8239696098
 20
226.4234166845
 11
50.3347806525
 21
226.9967553318
  0
LINE
  8
QUILTS
 62
7
  6
CONTINUOUS
 10
50.5938805142
 20
232.1885860849
 11
55.029157744
 21
229.880271571
  0
LINE
  8
QUILTS
 62
7
  6
CONTINUOUS
 10
55.3176970582
 20
230.4346812247
 11
51.4486253648
 21
232.4483173252
  0
LINE
  8
QUILTS
 62
7
  6
CONTINUOUS
 10
53.2279660511
 20
237.0687233385
 11
57.3862344725
 21
234.2922500836
  0
LINE
  8
QUILTS
 62
7
  6
CONTINUOUS
 10
57.2024508535
 20
235.1664770297
 11
55.8753438828
 21
236.0525855338
  0
LINE
  8
QUILTS
 62
7
  6
CONTINUOUS
 10
55.3445011689
 20
236.4070288857
 11
54.1058679219
 21
237.2340635392
  0
LINE
  8
QUILTS
 62
7
  6
CONTINUOUS
 10
59.8154104844
 20
245.580175223
 11
63.2758674699
 21
241.9711258396
  0
LINE
  8
QUILTS
 62
7
  6
CONTINUOUS
 10
63.2852381777
 20
242.8644126702
 11
62.180836989
 21
244.0162369655
  0
LINE
  8
QUILTS
 62
7
  6
CONTINUOUS
 10
61.7390765755
 20
244.4769666191
 11
60.7083020709
 21
245.5520026926
  0
LINE
  8
QUILTS
 62
7
  6
CONTINUOUS
 10
64.9912123531
 20
247.3533724528
 11
65.1224843487
 21
247.1859299103
  0
LINE
  8
QUILTS
 62
7
  6
CONTINUOUS
 10
65.9101164138
 20
246.1812745379
 11
66.1070244071
 21
245.9301107241
  0
LINE
  8
QUILTS
 62
7
  6
CONTINUOUS
 10
66.5825471411
 20
246.1677333189
 11
66.4512750996
 21
246.3351759201
  0
LINE
  8
QUILTS
 62
7
  6
CONTINUOUS
 10
67.1836542
 20
251.8104987654
 11
70.0186803568
 21
247.691927813
  0
LINE
  8
QUILTS
 62
7
  6
CONTINUOUS
 10
70.4476994736
 20
247.9872439389
 11
67.6126733168
 21
252.1058148913
  0
LINE
  8
QUILTS
 62
7
  6
CONTINUOUS
 10
68.4328395423
 20
252.6521750564
 11
71.141241591
 21
248.449252461
  0
LINE
  8
QUILTS
 62
7
  6
CONTINUOUS
 10
71.5790473641
 20
248.7313785354
 11
68.8706453154
 21
252.9343011308
  0
LINE
  8
QUILTS
 62
7
  6
CONTINUOUS
 10
79.9561422181
 20
258.2381884272
 11
80.1012580146
 21
257.726451393
  0
LINE
  8
QUILTS
 62
7
  6
CONTINUOUS
 10
81.0880455733
 20
254.2466390585
 11
81.3202308681
 21
253.4278597321
  0
LINE
  8
QUILTS
 62
7
  6
CONTINUOUS
 10
85.3219701316
 20
258.8769903371
 11
85.4883242353
 21
258.042342933
  0
LINE
  8
QUILTS
 62
7
  6
CONTINUOUS
 10
85.9557084331
 20
258.8948257149
 11
86.7666845213
 21
254.8259204603
  0
LINE
  8
QUILTS
 62
7
  6
CONTINUOUS
 10
87.3796285671
 20
254.948086727
 11
86.4022984334
 21
259.8516390934
  0
LINE
  8
QUILTS
 62
7
  6
CONTINUOUS
 10
87.5883222635
 20
260.0895678217
 11
87.9244557858
 21
257.3441107236
  0
LINE
  8
QUILTS
 62
7
  6
CONTINUOUS
 10
88.3767894058
 20
257.9353777526
 11
88.1699379935
 21
259.6248899268
  0
LINE
  8
0
 62
7
  6
CONTINUOUS
 10
91.4657337951
 20
235.377193851
 11
91.6012194059
 21
234.2613694576
  0
LINE
  8
QUILTS
 62
7
  6
CONTINUOUS
 10
136.6750033376
 20
236.4665714552
 11
136.4075617544
 21
236.292412881
  0
LINE
  8
QUILTS
 62
7
  6
CONTINUOUS
 10
136.6594749065
 20
235.7106207366
 11
137.0160636009
 21
235.9428321147
  0
LINE
  8
QUILTS
 62
7
  6
CONTINUOUS
 10
138.4304634776
 20
229.3946468777
 11
137.7704651272
 21
229.0343647745
  0
LINE
  8
QUILTS
 62
7
  6
CONTINUOUS
 10
139.2715007399
 20
226.2606318284
 11
138.9728883717
 21
226.1479966974
  0
LINE
  8
QUILTS
 62
7
  6
CONTINUOUS
 10
139.0571640918
 20
225.6231357747
 11
139.5548515116
 21
225.8108610455
  0
LINE
  8
0
 62
7
  6
CONTINUOUS
 10
119.6578121626
 20
215.1834933155
 11
118.5419877691
 21
215.0480077047
  0
LINE
  8
QUILTS
 62
7
  6
CONTINUOUS
 10
47.6293663514
 20
213.9148942788
 11
49.9681504398
 21
213.8272583858
  0
LINE
  8
QUILTS
 62
7
  6
CONTINUOUS
 10
50.4128862684
 20
214.3317927635
 11
47.6488686619
 21
214.4353624569
  0
LINE
  8
QUILTS
 62
7
  6
CONTINUOUS
 10
49.4330010523
 20
217.9791757256
 11
51.4381511194
 21
217.7243571321
  0
LINE
  8
QUILTS
 62
7
  6
CONTINUOUS
 10
51.5038115853
 20
218.2410348434
 11
49.4986615182
 21
218.4958534369
  0
LINE
  8
QUILTS
 62
7
  6
CONTINUOUS
 10
51.3827161754
 20
229.7186615143
 11
52.8719051327
 21
229.145322867
  0
LINE
  8
QUILTS
 62
7
  6
CONTINUOUS
 10
53.0964627753
 20
229.728588557
 11
51.607273818
 21
230.3019272043
  0
LINE
  8
QUILTS
 62
7
  6
CONTINUOUS
 10
52.2289364448
 20
235.3302404368
 11
56.0036404828
 21
233.3657174396
  0
LINE
  8
QUILTS
 62
7
  6
CONTINUOUS
 10
56.9527529888
 20
233.5763355766
 11
52.5174757591
 21
235.8846500905
  0
LINE
  8
QUILTS
 62
7
  6
CONTINUOUS
 10
56.0827911452
 20
239.0453854855
 11
56.2597387165
 21
238.9272377015
  0
LINE
  8
QUILTS
 62
7
  6
CONTINUOUS
 10
57.8522669822
 20
237.8639075628
 11
58.1176883392
 21
237.6866858868
  0
LINE
  8
QUILTS
 62
7
  6
CONTINUOUS
 10
58.5532212817
 20
238.1473955475
 11
58.1108523534
 21
238.4427650075
  0
LINE
  8
QUILTS
 62
7
  6
CONTINUOUS
 10
56.6952716591
 20
239.3879473622
 11
56.3413762686
 21
239.6242430957
  0
LINE
  8
QUILTS
 62
7
  6
CONTINUOUS
 10
63.0297764848
 20
246.8935947205
 11
63.177029956
 21
246.7400181693
  0
LINE
  8
QUILTS
 62
7
  6
CONTINUOUS
 10
64.5023112999
 20
245.357829101
 11
64.7231915066
 21
245.1274642742
  0
LINE
  8
QUILTS
 62
7
  6
CONTINUOUS
 10
65.2479494152
 20
245.4832331218
 11
64.8798157372
 21
245.8671744998
  0
LINE
  8
QUILTS
 62
7
  6
CONTINUOUS
 10
63.7017878645
 20
247.0957870169
 11
63.4072807159
 21
247.4029403344
  0
LINE
  8
QUILTS
 62
7
  6
CONTINUOUS
 10
67.1719121711
 20
248.7926451208
 11
67.3688201644
 21
248.541481307
  0
LINE
  8
QUILTS
 62
7
  6
CONTINUOUS
 10
67.6313642474
 20
248.2065961047
 11
68.025180234
 21
247.7042684772
  0
LINE
  8
QUILTS
 62
7
  6
CONTINUOUS
 10
68.6319749635
 20
247.7744485295
 11
67.5817988613
 21
249.1139890455
  0
LINE
  8
QUILTS
 62
7
  6
CONTINUOUS
 10
85.3288365848
 20
254.5645998401
 11
85.1546976087
 21
255.1786843528
  0
LINE
  8
QUILTS
 62
7
  6
CONTINUOUS
 10
84.16791005
 20
258.6584966873
 11
83.9647479349
 21
259.3749285352
  0
LINE
  8
QUILTS
 62
7
  6
CONTINUOUS
 10
91.1943332176
 20
257.2085636183
 11
91.2201896396
 21
256.9973746335
  0
LINE
  8
QUILTS
 62
7
  6
CONTINUOUS
 10
91.1683835356
 20
259.9919974887
 11
91.1037424805
 21
260.5199699506
  0
LINE
  8
QUILTS
 62
7
  6
CONTINUOUS
 10
91.7500877926
 20
256.9550741288
 11
91.6983749486
 21
257.3774520983
  0
LINE
  8
0
 62
7
  6
CONTINUOUS
 10
99.464111627
 20
186.991414948
 11
99.3286260162
 21
188.1072393415
  0
LINE
  8
QUILTS
 62
7
  6
CONTINUOUS
 10
139.8607518442
 20
229.8228107436
 11
139.1272256701
 21
229.6574621832
  0
LINE
  8
QUILTS
 62
7
  6
CONTINUOUS
 10
49.6580221878
 20
211.2328849895
 11
50.0871561672
 21
211.3210448079
  0
LINE
  8
QUILTS
 62
7
  6
CONTINUOUS
 10
50.8420202254
 20
214.4199524802
 11
50.4128862684
 21
214.3317927635
  0
LINE
  8
QUILTS
 62
7
  6
CONTINUOUS
 10
139.3110388463
 20
229.1701463041
 11
139.9450275642
 21
229.2979498209
  0
LINE
  8
QUILTS
 62
7
  6
CONTINUOUS
 10
48.8921979365
 20
217.9428974615
 11
49.4330010523
 21
217.9791757256
  0
LINE
  8
QUILTS
 62
7
  6
CONTINUOUS
 10
49.4986615182
 20
218.4958534369
 11
48.9578584776
 21
218.4595757641
  0
LINE
  8
QUILTS
 62
7
  6
CONTINUOUS
 10
52.258512759
 20
226.3677369704
 11
51.8239696098
 21
226.4234166845
  0
LINE
  8
QUILTS
 62
7
  6
CONTINUOUS
 10
51.5994119671
 20
225.8401509945
 11
52.1332343709
 21
225.7462487074
  0
LINE
  8
QUILTS
 62
7
  6
CONTINUOUS
 10
51.607273818
 20
230.3019272043
 11
51.0734511362
 21
230.3958295984
  0
LINE
  8
QUILTS
 62
7
  6
CONTINUOUS
 10
66.1070244071
 20
245.9301107241
 11
66.4515461575
 21
245.6594946596
  0
LINE
  8
QUILTS
 62
7
  6
CONTINUOUS
 10
69.0421308123
 20
247.420109752
 11
68.6319749635
 21
247.7744485295
  0
LINE
  8
0
 62
7
  6
CONTINUOUS
 10
111.7320640601
 20
154.5791995756
 11
111.815182504
 21
153.3402181021
  0
LINE
  8
0
 62
7
  6
CONTINUOUS
 10
123.4843518848
 20
264.3649484691
 11
123.1454510453
 21
263.1703230096
  0
LINE
  8
0
 62
7
  6
CONTINUOUS
 10
87.3023254823
 20
152.8565255435
 11
86.8743187938
 21
151.6908523295
  0
LINE
  8
QUILTS
 62
7
  6
CONTINUOUS
 10
136.8855995591
 20
236.7280224207
 11
136.6750033376
 21
236.4665714552
  0
LINE
  8
QUILTS
 62
7
  6
CONTINUOUS
 10
137.0160636009
 20
235.9428321147
 11
137.2266598224
 21
236.2042830803
  0
LINE
  8
0
 62
7
  6
CONTINUOUS
 10
142.6924616039
 20
248.3707116608
 11
141.8969623323
 21
247.4172103885
  0
LINE
  8
0
 62
7
  6
CONTINUOUS
 10
64.2839741202
 20
161.2192543669
 11
63.4188485441
 21
160.3284449008
  0
LINE
  8
QUILTS
 62
7
  6
CONTINUOUS
 10
136.1129638932
 20
229.4141434678
 11
139.8220954625
 21
233.1584900564
  0
LINE
  8
QUILTS
 62
7
  6
CONTINUOUS
 10
136.7818310264
 20
230.9199288152
 11
135.8308177088
 21
229.9718338215
  0
LINE
  8
QUILTS
 62
7
  6
CONTINUOUS
 10
139.2542925458
 20
233.3381869551
 11
137.1145092526
 21
231.204979551
  0
LINE
  8
QUILTS
 62
7
  6
CONTINUOUS
 10
137.7704651272
 20
229.0343647745
 11
137.3463023744
 21
228.651714963
  0
LINE
  8
QUILTS
 62
7
  6
CONTINUOUS
 10
137.7919673727
 20
228.3744920631
 11
138.0538157594
 21
228.5845939391
  0
LINE
  8
QUILTS
 62
7
  6
CONTINUOUS
 10
139.533349266
 20
226.4707337569
 11
139.2715007399
 21
226.2606318284
  0
LINE
  8
QUILTS
 62
7
  6
CONTINUOUS
 10
141.2730014025
 20
226.6815965033
 11
141.5348497891
 21
226.8916983792
  0
LINE
  8
0
 62
7
  6
CONTINUOUS
 10
153.7345007998
 20
225.9466072091
 11
152.6199521469
 21
225.3990991563
  0
LINE
  8
0
 62
7
  6
CONTINUOUS
 10
46.6570920395
 20
178.2213942591
 11
45.5044356473
 21
177.7594775904
  0
LINE
  8
QUILTS
 62
7
  6
CONTINUOUS
 10
136.3351884611
 20
235.623754879
 11
136.6594749065
 21
235.7106207366
  0
LINE
  8
QUILTS
 62
7
  6
CONTINUOUS
 10
136.4075617544
 20
236.292412881
 11
136.0832753089
 21
236.2055470234
  0
LINE
  8
0
 62
7
  6
CONTINUOUS
 10
36.603445786
 20
209.1633358221
 11
35.3994193703
 21
208.8595198287
  0
LINE
  8
QUILTS
 62
7
  6
CONTINUOUS
 10
48.9578584776
 20
218.4595757641
 11
48.6281237589
 21
218.3964744941
  0
LINE
  8
0
 62
7
  6
CONTINUOUS
 10
151.2830655212
 20
233.4913492083
 11
150.0595595611
 21
233.2791772665
  0
LINE
  8
QUILTS
 62
7
  6
CONTINUOUS
 10
134.5141340797
 20
232.5743916419
 11
135.84134518
 21
232.7788938243
  0
LINE
  8
QUILTS
 62
7
  6
CONTINUOUS
 10
136.2680706993
 20
232.8780506121
 11
139.2542925458
 21
233.3381869551
  0
LINE
  8
QUILTS
 62
7
  6
CONTINUOUS
 10
139.445901985
 20
233.9020743581
 11
134.2319878952
 21
233.1320819956
  0
LINE
  8
QUILTS
 62
7
  6
CONTINUOUS
 10
138.9728883717
 20
226.1479966974
 11
138.637512022
 21
226.1328283116
  0
LINE
  8
QUILTS
 62
7
  6
CONTINUOUS
 10
138.3524281276
 20
228.69722907
 11
138.6878046168
 21
228.7123975085
  0
LINE
  8
QUILTS
 62
7
  6
CONTINUOUS
 10
139.9450275642
 20
229.2979498209
 11
140.2804041928
 21
229.3131183119
  0
LINE
  8
QUILTS
 62
7
  6
CONTINUOUS
 10
138.4859521444
 20
225.6303350972
 11
139.0571640918
 21
225.6231357747
  0
LINE
  8
QUILTS
 62
7
  6
CONTINUOUS
 10
50.9481730262
 20
229.7743412284
 11
51.3827161754
 21
229.7186615143
  0
LINE
  8
0
 62
7
  6
CONTINUOUS
 10
40.8702858611
 20
233.2791772665
 11
39.6467799009
 21
233.4913492083
  0
LINE
  8
0
 62
7
  6
CONTINUOUS
 10
155.5304260518
 20
208.8595198287
 11
154.3263996361
 21
209.1633358221
  0
LINE
  8
QUILTS
 62
7
  6
CONTINUOUS
 10
57.5290018672
 20
237.9544980685
 11
57.8522669822
 21
237.8639075628
  0
LINE
  8
QUILTS
 62
7
  6
CONTINUOUS
 10
58.1108523534
 20
238.4427650075
 11
57.7875872384
 21
238.5333555132
  0
LINE
  8
QUILTS
 62
7
  6
CONTINUOUS
 10
55.7595259063
 20
239.1359760739
 11
56.0827911452
 21
239.0453854855
  0
LINE
  8
QUILTS
 62
7
  6
CONTINUOUS
 10
56.3413762686
 20
239.6242430957
 11
56.0181112775
 21
239.7148335186
  0
LINE
  8
QUILTS
 62
7
  6
CONTINUOUS
 10
64.2062418875
 20
245.5161006315
 11
64.5023112999
 21
245.357829101
  0
LINE
  8
QUILTS
 62
7
  6
CONTINUOUS
 10
64.8798157372
 20
245.8671744998
 11
64.5837463248
 21
246.0254460303
  0
LINE
  8
QUILTS
 62
7
  6
CONTINUOUS
 10
62.7337069693
 20
247.0518663586
 11
63.0297764848
 21
246.8935947205
  0
LINE
  8
QUILTS
 62
7
  6
CONTINUOUS
 10
63.4072807159
 20
247.4029403344
 11
63.1112114066
 21
247.5612117573
  0
LINE
  8
QUILTS
 62
7
  6
CONTINUOUS
 10
68.4189962665
 20
247.201940791
 11
68.6978801313
 21
247.0150445414
  0
LINE
  8
QUILTS
 62
7
  6
CONTINUOUS
 10
69.3210146656
 20
247.2332135171
 11
69.0421308123
 21
247.420109752
  0
LINE
  8
QUILTS
 62
7
  6
CONTINUOUS
 10
67.5817988613
 20
249.1139890455
 11
67.3029112784
 21
249.3008823091
  0
LINE
  8
0
 62
7
  6
CONTINUOUS
 10
53.5456044153
 20
254.2660878874
 11
54.5770346242
 21
253.5746144667
  0
LINE
  8
0
 62
7
  6
CONTINUOUS
 10
149.3919153768
 20
184.6296668214
 11
148.4155556111
 21
185.3969382046
  0
LINE
  8
0
 62
7
  6
CONTINUOUS
 10
74.692659888
 20
267.5915948156
 11
75.3536706924
 21
266.5403819523
  0
LINE
  8
0
 62
7
  6
CONTINUOUS
 10
133.3490661163
 20
166.089410473
 11
133.9289377586
 21
164.9913518927
  0
LINE
  8
QUILTS
 62
7
  6
CONTINUOUS
 10
91.0521507917
 20
257.5126879823
 11
91.1943332176
 21
257.2085636183
  0
LINE
  8
0
 62
7
  6
CONTINUOUS
 10
99.431428313
 20
271.1637687868
 11
99.6077249396
 21
269.9345807349
  0
LINE
  8
0
 62
7
  6
CONTINUOUS
 10
111.7296261132
 20
155.3711053621
 11
111.7464134311
 21
155.5854307946
  0
LINE
  8
0
 62
7
  6
CONTINUOUS
 10
122.950279614
 20
262.183096955
 11
122.9784199023
 21
262.3962291423
  0
LINE
  8
0
 62
7
  6
CONTINUOUS
 10
87.6221954082
 20
153.58095908
 11
87.7247053932
 21
153.769927088
  0
LINE
  8
0
 62
7
  6
CONTINUOUS
 10
141.3171233464
 20
246.5947178834
 11
141.4295194493
 21
246.7779781385
  0
LINE
  8
0
 62
7
  6
CONTINUOUS
 10
99.3286260162
 20
188.1072393415
 11
118.5419877691
 21
207.3206010944
  0
LINE
  8
QUILTS
 62
7
  6
CONTINUOUS
 10
139.5548515116
 20
225.8108610455
 11
139.9790141946
 21
226.1935108307
  0
LINE
  8
0
 62
7
  6
CONTINUOUS
 10
64.8708435028
 20
161.7509545136
 11
65.0413512472
 21
161.8818908117
  0
LINE
  8
0
 62
7
  6
CONTINUOUS
 10
151.7557050347
 20
224.8835566269
 11
151.932922645
 21
225.0052575869
  0
LINE
  8
QUILTS
 62
7
  6
CONTINUOUS
 10
52.1332343709
 20
225.7462487074
 11
52.6052041489
 21
225.7877806565
  0
LINE
  8
QUILTS
 62
7
  6
CONTINUOUS
 10
51.0734511362
 20
230.3958295984
 11
50.6014814277
 21
230.3542976226
  0
LINE
  8
QUILTS
 62
7
  6
CONTINUOUS
 10
51.4486253648
 20
232.4483173252
 11
56.5199440174
 21
232.744721096
  0
LINE
  8
0
 62
7
  6
CONTINUOUS
 10
149.2722467522
 20
233.1939759801
 11
149.0573406643
 21
233.1882682272
  0
LINE
  8
QUILTS
 62
7
  6
CONTINUOUS
 10
140.4319640007
 20
229.8156115
 11
139.8607518442
 21
229.8228107436
  0
LINE
  8
0
 62
7
  6
CONTINUOUS
 10
41.8725047579
 20
233.1882682272
 11
41.6575986699
 21
233.1939759801
  0
LINE
  8
0
 62
7
  6
CONTINUOUS
 10
153.5724991106
 20
209.4057295428
 11
153.3738510779
 21
209.4879254318
  0
LINE
  8
0
 62
7
  6
CONTINUOUS
 10
55.4556311075
 20
253.083925777
 11
55.2616261793
 21
253.1765502495
  0
LINE
  8
QUILTS
 62
7
  6
CONTINUOUS
 10
66.7957949737
 20
246.0645583846
 11
66.5825471411
 21
246.1677333189
  0
LINE
  8
QUILTS
 62
7
  6
CONTINUOUS
 10
68.6978801313
 20
247.0150445414
 11
68.911131728
 21
246.9118725344
  0
LINE
  8
QUILTS
 62
7
  6
CONTINUOUS
 10
66.9586643385
 20
248.8958200552
 11
67.1719121711
 21
248.7926451208
  0
LINE
  8
0
 62
7
  6
CONTINUOUS
 10
118.5419877691
 20
215.0480077047
 11
99.3286260162
 21
234.2613694576
  0
LINE
  8
0
 62
7
  6
CONTINUOUS
 10
147.8254236188
 20
185.925014856
 11
147.6773816908
 21
186.0809019711
  0
LINE
  8
0
 62
7
  6
CONTINUOUS
 10
75.9567274483
 20
265.7347581446
 11
75.8171688944
 21
265.8982837239
  0
LINE
  8
QUILTS
 62
7
  6
CONTINUOUS
 10
88.040809703
 20
256.3937601441
 11
88.2993133726
 21
255.9967000433
  0
LINE
  8
QUILTS
 62
7
  6
CONTINUOUS
 10
88.9196810894
 20
256.072653292
 11
88.6611774197
 21
256.4697133928
  0
LINE
  8
QUILTS
 62
7
  6
CONTINUOUS
 10
91.6983749486
 20
257.3774520983
 11
91.4269477919
 21
257.880107345
  0
LINE
  8
0
 62
7
  6
CONTINUOUS
 10
133.0247418398
 20
166.8118608048
 11
132.9529038109
 21
167.0144848475
  0
LINE
  8
0
 62
7
  6
CONTINUOUS
 10
99.8309679765
 20
268.9533214843
 11
99.7699867387
 21
269.1594731122
  0
LINE
  8
QUILTS
 62
7
  6
CONTINUOUS
 10
137.3463023744
 20
228.651714963
 11
137.0584410941
 21
228.2091434632
  0
LINE
  8
QUILTS
 62
7
  6
CONTINUOUS
 10
137.5668795321
 20
228.0669323389
 11
137.7919673727
 21
228.3744920631
  0
LINE
  8
QUILTS
 62
7
  6
CONTINUOUS
 10
141.3142726315
 20
227.4764810034
 11
141.0891848606
 21
227.1689213054
  0
LINE
  8
QUILTS
 62
7
  6
CONTINUOUS
 10
52.6312032129
 20
226.4474915191
 11
52.258512759
 21
226.3677369704
  0
LINE
  8
QUILTS
 62
7
  6
CONTINUOUS
 10
50.5754822941
 20
229.6945867868
 11
50.9481730262
 21
229.7743412284
  0
LINE
  8
QUILTS
 62
7
  6
CONTINUOUS
 10
56.0036404828
 20
233.3657174396
 11
51.0266889352
 21
233.020199508
  0
LINE
  8
QUILTS
 62
7
  6
CONTINUOUS
 10
57.7875872384
 20
238.5333555132
 11
57.2601625174
 21
238.5097593048
  0
LINE
  8
QUILTS
 62
7
  6
CONTINUOUS
 10
135.8080698848
 20
235.6534133338
 11
136.3351884611
 21
235.623754879
  0
LINE
  8
QUILTS
 62
7
  6
CONTINUOUS
 10
64.5837463248
 20
246.0254460303
 11
64.063673796
 21
246.1163205711
  0
LINE
  8
QUILTS
 62
7
  6
CONTINUOUS
 10
138.637512022
 20
226.1328283116
 11
138.2653749867
 21
226.2151177214
  0
LINE
  8
QUILTS
 62
7
  6
CONTINUOUS
 10
140.2804041928
 20
229.3131183119
 11
140.6525411584
 21
229.2308288758
  0
LINE
  8
QUILTS
 62
7
  6
CONTINUOUS
 10
137.9775137064
 20
225.7725462216
 11
138.4859521444
 21
225.6303350972
  0
LINE
  8
QUILTS
 62
7
  6
CONTINUOUS
 10
88.2993133726
 20
255.9967000433
 11
88.6612100795
 21
255.6122986611
  0
LINE
  8
QUILTS
 62
7
  6
CONTINUOUS
 10
91.4269477919
 20
257.880107345
 11
91.0650510895
 21
258.2645086902
  0
LINE
  8
QUILTS
 62
7
  6
CONTINUOUS
 10
90.8065800751
 20
257.8041540963
 11
91.0521507917
 21
257.5126879823
  0
LINE
  8
QUILTS
 62
7
  6
CONTINUOUS
 10
136.9502087617
 20
237.0187051447
 11
136.8855995591
 21
236.7280224207
  0
LINE
  8
QUILTS
 62
7
  6
CONTINUOUS
 10
137.2266598224
 20
236.2042830803
 11
137.4127181354
 21
236.6983639659
  0
LINE
  8
QUILTS
 62
7
  6
CONTINUOUS
 10
139.6588995809
 20
226.7407484112
 11
139.533349266
 21
226.4707337569
  0
LINE
  8
QUILTS
 62
7
  6
CONTINUOUS
 10
139.9790141946
 20
226.1935108307
 11
140.167337984
 21
226.5985372737
  0
LINE
  8
QUILTS
 62
7
  6
CONTINUOUS
 10
141.5348497891
 20
226.8916983792
 11
141.8227110346
 21
227.3342698659
  0
LINE
  8
QUILTS
 62
7
  6
CONTINUOUS
 10
57.2363683516
 20
237.8993853292
 11
57.5290018672
 21
237.9544980685
  0
LINE
  8
QUILTS
 62
7
  6
CONTINUOUS
 10
55.4668923907
 20
239.0808633347
 11
55.7595259063
 21
239.1359760739
  0
LINE
  8
QUILTS
 62
7
  6
CONTINUOUS
 10
56.0181112775
 20
239.7148335186
 11
55.4906865565
 21
239.6912373103
  0
LINE
  8
QUILTS
 62
7
  6
CONTINUOUS
 10
63.9086119323
 20
245.525492025
 11
64.2062418875
 21
245.5161006315
  0
LINE
  8
QUILTS
 62
7
  6
CONTINUOUS
 10
62.4360770141
 20
247.061257752
 11
62.7337069693
 21
247.0518663586
  0
LINE
  8
QUILTS
 62
7
  6
CONTINUOUS
 10
66.4515461575
 20
245.6594946596
 11
66.8943854489
 21
245.6011365683
  0
LINE
  8
QUILTS
 62
7
  6
CONTINUOUS
 10
67.3029112784
 20
249.3008823091
 11
67.0076876089
 21
249.3397896354
  0
LINE
  8
QUILTS
 62
7
  6
CONTINUOUS
 10
63.1112114066
 20
247.5612117573
 11
62.5911388778
 21
247.6520862981
  0
LINE
  8
QUILTS
 62
7
  6
CONTINUOUS
 10
136.0832753089
 20
236.2055470234
 11
135.7912960669
 21
236.2640185319
  0
LINE
  8
QUILTS
 62
7
  6
CONTINUOUS
 10
140.9404024038
 20
229.6734003625
 11
140.4319640007
 21
229.8156115
  0
LINE
  8
QUILTS
 62
7
  6
CONTINUOUS
 10
138.6878046168
 20
228.7123975085
 11
138.9604041263
 21
228.5925630287
  0
LINE
  8
QUILTS
 62
7
  6
CONTINUOUS
 10
137.4127181354
 20
236.6983639659
 11
137.4527842253
 21
237.2216846017
  0
LINE
  8
QUILTS
 62
7
  6
CONTINUOUS
 10
137.0584410941
 20
228.2091434632
 11
136.9436418759
 21
227.6091924433
  0
LINE
  8
QUILTS
 62
7
  6
CONTINUOUS
 10
140.167337984
 20
226.5985372737
 11
140.2821338103
 21
227.1984972068
  0
LINE
  8
QUILTS
 62
7
  6
CONTINUOUS
 10
137.4780931988
 20
227.6994509395
 11
137.5668795321
 21
228.0669323389
  0
LINE
  8
QUILTS
 62
7
  6
CONTINUOUS
 10
139.7476859142
 20
227.1082298106
 11
139.6588995809
 21
226.7407484112
  0
LINE
  8
QUILTS
 62
7
  6
CONTINUOUS
 10
141.4030589648
 20
227.8439624027
 11
141.3142726315
 21
227.4764810034
  0
LINE
  8
QUILTS
 62
7
  6
CONTINUOUS
 10
66.8943854489
 20
245.6011365683
 11
67.1239750027
 21
245.645951977
  0
LINE
  8
QUILTS
 62
7
  6
CONTINUOUS
 10
67.2549759691
 20
246.1541906583
 11
66.7957949737
 21
246.0645583846
  0
LINE
  8
QUILTS
 62
7
  6
CONTINUOUS
 10
62.5911388778
 20
247.6520862981
 11
62.069505703
 21
247.5940808095
  0
LINE
  8
QUILTS
 62
7
  6
CONTINUOUS
 10
67.0076876089
 20
249.3397896354
 11
66.6304843497
 21
249.3144264115
  0
LINE
  8
QUILTS
 62
7
  6
CONTINUOUS
 10
135.3132533077
 20
235.8284171465
 11
135.8080698848
 21
235.6534133338
  0
LINE
  8
QUILTS
 62
7
  6
CONTINUOUS
 10
88.6612100795
 20
255.6122986611
 11
89.2169693909
 21
255.3588097233
  0
LINE
  8
QUILTS
 62
7
  6
CONTINUOUS
 10
91.0650510895
 20
258.2645086902
 11
90.5092917815
 21
258.5179976003
  0
LINE
  8
QUILTS
 62
7
  6
CONTINUOUS
 10
89.2557213698
 20
255.8994409316
 11
88.9196810894
 21
256.072653292
  0
LINE
  8
QUILTS
 62
7
  6
CONTINUOUS
 10
90.4705397947
 20
257.9773664567
 11
90.8065800751
 21
257.8041540963
  0
LINE
  8
QUILTS
 62
7
  6
CONTINUOUS
 10
138.2653749867
 20
226.2151177214
 11
137.9560114957
 21
226.4324189462
  0
LINE
  8
QUILTS
 62
7
  6
CONTINUOUS
 10
138.9604041263
 20
228.5925630287
 11
139.2697676173
 21
228.3752618039
  0
LINE
  8
QUILTS
 62
7
  6
CONTINUOUS
 10
139.7306909161
 20
228.6604537672
 11
139.1119639341
 21
229.0950562168
  0
LINE
  8
QUILTS
 62
7
  6
CONTINUOUS
 10
140.6525411584
 20
229.2308288758
 11
140.9619046494
 21
229.013527651
  0
LINE
  8
QUILTS
 62
7
  6
CONTINUOUS
 10
137.4950847701
 20
226.147235883
 11
137.9775137064
 21
225.7725462216
  0
LINE
  8
QUILTS
 62
7
  6
CONTINUOUS
 10
137.4888443216
 20
227.3695145838
 11
137.4780931988
 21
227.6994509395
  0
LINE
  8
QUILTS
 62
7
  6
CONTINUOUS
 10
139.7369347914
 20
227.4381661663
 11
139.7476859142
 21
227.1082298106
  0
LINE
  8
QUILTS
 62
7
  6
CONTINUOUS
 10
141.392307842
 20
228.1738987585
 11
141.4030589648
 21
227.8439624027
  0
LINE
  8
QUILTS
 62
7
  6
CONTINUOUS
 10
141.8227110346
 20
227.3342698659
 11
141.9375102267
 21
227.9342208759
  0
LINE
  8
QUILTS
 62
7
  6
CONTINUOUS
 10
81.3202308681
 20
253.4278597321
 11
85.3288365848
 21
254.5645998401
  0
LINE
  8
QUILTS
 62
7
  6
CONTINUOUS
 10
85.1546976087
 20
255.1786843528
 11
81.7473829788
 21
254.212455326
  0
LINE
  8
QUILTS
 62
7
  6
CONTINUOUS
 10
86.7666845213
 20
254.8259204603
 11
87.3796285671
 21
254.948086727
  0
LINE
  8
QUILTS
 62
7
  6
CONTINUOUS
 10
66.7290729141
 20
248.8510031681
 11
66.9586643385
 21
248.8958200552
  0
LINE
  8
QUILTS
 62
7
  6
CONTINUOUS
 10
89.746867545
 20
255.3165092093
 11
90.3672352618
 21
255.392462458
  0
LINE
  8
QUILTS
 62
7
  6
CONTINUOUS
 10
90.3025941977
 20
255.9204349939
 11
89.682226481
 21
255.8444817452
  0
LINE
  8
QUILTS
 62
7
  6
CONTINUOUS
 10
88.6611774197
 20
256.4697133928
 11
88.040809703
 21
256.3937601441
  0
LINE
  8
QUILTS
 62
7
  6
CONTINUOUS
 10
87.9244557858
 20
257.3441107236
 11
88.6482212774
 21
257.4327232334
  0
LINE
  8
QUILTS
 62
7
  6
CONTINUOUS
 10
89.2169693909
 20
255.3588097233
 11
89.746867545
 21
255.3165092093
  0
LINE
  8
QUILTS
 62
7
  6
CONTINUOUS
 10
90.5092917815
 20
258.5179976003
 11
89.9793888955
 21
258.5602975256
  0
LINE
  8
QUILTS
 62
7
  6
CONTINUOUS
 10
89.682226481
 20
255.8444817452
 11
89.2557213698
 21
255.8994409316
  0
LINE
  8
QUILTS
 62
7
  6
CONTINUOUS
 10
90.0440299505
 20
258.0323250636
 11
90.4705397947
 21
257.9773664567
  0
LINE
  8
QUILTS
 62
7
  6
CONTINUOUS
 10
141.4228279482
 20
229.2987196143
 11
140.9404024038
 21
229.6734003625
  0
LINE
  8
QUILTS
 62
7
  6
CONTINUOUS
 10
135.7912960669
 20
236.2640185319
 11
135.5316188241
 21
236.4678353983
  0
LINE
  8
QUILTS
 62
7
  6
CONTINUOUS
 10
134.9398910452
 20
236.2068111291
 11
135.3132533077
 21
235.8284171465
  0
LINE
  8
QUILTS
 62
7
  6
CONTINUOUS
 10
137.9560114957
 20
226.4324189462
 11
137.7461854608
 21
226.6872652146
  0
LINE
  8
QUILTS
 62
7
  6
CONTINUOUS
 10
139.2697676173
 20
228.3752618039
 11
139.4795936522
 21
228.1204155355
  0
LINE
  8
QUILTS
 62
7
  6
CONTINUOUS
 10
140.9619046494
 20
229.013527651
 11
141.1717306843
 21
228.7586813826
  0
LINE
  8
QUILTS
 62
7
  6
CONTINUOUS
 10
131.7035604078
 20
237.0826594474
 11
132.0446206711
 21
236.5589201069
  0
LINE
  8
QUILTS
 62
7
  6
CONTINUOUS
 10
133.9167102552
 20
237.7780291506
 11
134.9398910452
 21
236.2068111291
  0
LINE
  8
QUILTS
 62
7
  6
CONTINUOUS
 10
137.2117341292
 20
226.5970067151
 11
137.4950847701
 21
226.147235883
  0
LINE
  8
QUILTS
 62
7
  6
CONTINUOUS
 10
140.0140449141
 20
228.2106740087
 11
139.7306909161
 21
228.6604537672
  0
LINE
  8
QUILTS
 62
7
  6
CONTINUOUS
 10
134.2319878952
 20
233.1320819956
 11
134.5141340797
 21
232.5743916419
  0
LINE
  8
QUILTS
 62
7
  6
CONTINUOUS
 10
135.8308177088
 20
229.9718338215
 11
136.1129638932
 21
229.4141434678
  0
LINE
  8
QUILTS
 62
7
  6
CONTINUOUS
 10
135.84134518
 20
232.7788938243
 11
136.7818310264
 21
230.9199288152
  0
LINE
  8
QUILTS
 62
7
  6
CONTINUOUS
 10
137.1145092526
 20
231.204979551
 11
136.2680706993
 21
232.8780506121
  0
LINE
  8
QUILTS
 62
7
  6
CONTINUOUS
 10
137.027920953
 20
227.0843225942
 11
137.2117341292
 21
226.5970067151
  0
LINE
  8
QUILTS
 62
7
  6
CONTINUOUS
 10
137.7461854608
 20
226.6872652146
 11
137.4888443216
 21
227.3695145838
  0
LINE
  8
QUILTS
 62
7
  6
CONTINUOUS
 10
136.8688257412
 20
237.3386276189
 11
136.9502087617
 21
237.0187051447
  0
LINE
  8
QUILTS
 62
7
  6
CONTINUOUS
 10
136.9436418759
 20
227.6091924433
 11
137.027920953
 21
227.0843225942
  0
LINE
  8
QUILTS
 62
7
  6
CONTINUOUS
 10
140.2821338103
 20
227.1984972068
 11
140.1978580903
 21
227.7233581296
  0
LINE
  8
QUILTS
 62
7
  6
CONTINUOUS
 10
80.1012580146
 20
257.726451393
 11
83.6087862965
 21
258.7210984996
  0
LINE
  8
QUILTS
 62
7
  6
CONTINUOUS
 10
83.9647479349
 20
259.3749285352
 11
79.9561422181
 21
258.2381884272
  0
LINE
  8
QUILTS
 62
7
  6
CONTINUOUS
 10
86.4022984334
 20
259.8516390934
 11
85.7893543876
 21
259.7294728267
  0
LINE
  8
QUILTS
 62
7
  6
CONTINUOUS
 10
89.4236622337
 20
257.9563718149
 11
90.0440299505
 21
258.0323250636
  0
LINE
  8
QUILTS
 62
7
  6
CONTINUOUS
 10
89.9793888955
 20
258.5602975256
 11
89.3590211787
 21
258.4843442769
  0
LINE
  8
QUILTS
 62
7
  6
CONTINUOUS
 10
88.1699379935
 20
259.6248899268
 11
91.1683835356
 21
259.9919974887
  0
LINE
  8
QUILTS
 62
7
  6
CONTINUOUS
 10
91.1037424805
 20
260.5199699506
 11
87.5883222635
 21
260.0895678217
  0
LINE
  8
QUILTS
 62
7
  6
CONTINUOUS
 10
135.5316188241
 20
236.4678353983
 11
134.4515929221
 21
238.1263459737
  0
LINE
  8
QUILTS
 62
7
  6
CONTINUOUS
 10
135.7887998392
 20
238.9971381943
 11
136.8688257412
 21
237.3386276189
  0
LINE
  8
QUILTS
 62
7
  6
CONTINUOUS
 10
137.257716185
 20
237.7161841921
 11
135.8934751317
 21
239.8111415541
  0
LINE
  8
QUILTS
 62
7
  6
CONTINUOUS
 10
141.7061819462
 20
228.8489398558
 11
141.4228279482
 21
229.2987196143
  0
LINE
  8
QUILTS
 62
7
  6
CONTINUOUS
 10
139.8220954625
 20
233.1584900564
 11
139.445901985
 21
233.9020743581
  0
LINE
  8
QUILTS
 62
7
  6
CONTINUOUS
 10
137.4527842253
 20
237.2216846017
 11
137.257716185
 21
237.7161841921
  0
LINE
  8
QUILTS
 62
7
  6
CONTINUOUS
 10
139.4795936522
 20
228.1204155355
 11
139.7369347914
 21
227.4381661663
  0
LINE
  8
QUILTS
 62
7
  6
CONTINUOUS
 10
140.1978580903
 20
227.7233581296
 11
140.0140449141
 21
228.2106740087
  0
LINE
  8
QUILTS
 62
7
  6
CONTINUOUS
 10
141.0891848606
 20
227.1689213054
 11
141.2730014025
 21
226.6815965033
  0
LINE
  8
QUILTS
 62
7
  6
CONTINUOUS
 10
141.1717306843
 20
228.7586813826
 11
141.392307842
 21
228.1738987585
  0
LINE
  8
QUILTS
 62
7
  6
CONTINUOUS
 10
141.8532311408
 20
228.4590907217
 11
141.7061819462
 21
228.8489398558
  0
LINE
  8
QUILTS
 62
7
  6
CONTINUOUS
 10
141.9375102267
 20
227.9342208759
 11
141.8532311408
 21
228.4590907217
  0
LINE
  8
0
 62
7
  6
CONTINUOUS
 10
155.4610935618
 20
201.6437602196
 11
156.1336239537
 21
208.0424594746
  0
LINE
  8
0
 62
7
  6
CONTINUOUS
 10
146.3936631548
 20
178.0659424713
 11
149.6106356945
 21
183.6379023566
  0
LINE
  8
0
 62
7
  6
CONTINUOUS
 10
128.5201908521
 20
160.2145903712
 11
133.7253617622
 21
163.9963684029
  0
LINE
  8
0
 62
7
  6
CONTINUOUS
 10
98.6818952507
 20
271.8490683707
 11
92.2479501714
 21
271.8490683707
  0
LINE
  8
0
 62
7
  6
CONTINUOUS
 10
123.0783558127
 20
265.2958633527
 11
117.2006545107
 21
267.912784576
  0
LINE
  8
0
 62
7
  6
CONTINUOUS
 10
142.7002029312
 20
249.3862782036
 11
138.3950533589
 21
254.1676311967
  0
LINE
  8
0
 62
7
  6
CONTINUOUS
 10
154.1546409806
 20
226.8712247298
 11
152.1664426102
 21
232.990270123
  0
POLYLINE
  8
0
 62
7
  6
CONTINUOUS
 66
1
 70
0
  0
VERTEX
  8
0
 62
7
  6
CONTINUOUS
 10
34.7951518002
 20
91.3536073158
  0
VERTEX
  8
0
 62
7
  6
CONTINUOUS
 10
34.795716517
 20
91.3298502473
  0
VERTEX
  8
0
 62
7
  6
CONTINUOUS
 10
34.8030319619
 20
91.2651870517
  0
VERTEX
  8
0
 62
7
  6
CONTINUOUS
 10
34.8183726411
 20
91.2030021959
  0
VERTEX
  8
0
 62
7
  6
CONTINUOUS
 10
34.8410284416
 20
91.1443884133
  0
VERTEX
  8
0
 62
7
  6
CONTINUOUS
 10
34.8701210779
 20
91.0902636485
  0
VERTEX
  8
0
 62
7
  6
CONTINUOUS
 10
34.9046459499
 20
91.0413466062
  0
VERTEX
  8
0
 62
7
  6
CONTINUOUS
 10
34.9435167504
 20
90.9981426865
  0
VERTEX
  8
0
 62
7
  6
CONTINUOUS
 10
34.9856086512
 20
90.9609416479
  0
VERTEX
  8
0
 62
7
  6
CONTINUOUS
 10
35.0298017059
 20
90.929822054
  0
VERTEX
  8
0
 62
7
  6
CONTINUOUS
 10
35.0750177565
 20
90.9046668315
  0
VERTEX
  8
0
 62
7
  6
CONTINUOUS
 10
35.1202364618
 20
90.8851905262
  0
VERTEX
  8
0
 62
7
  6
CONTINUOUS
 10
35.1645147975
 20
90.8709588112
  0
VERTEX
  8
0
 62
7
  6
CONTINUOUS
 10
35.2057973332
 20
90.8616248218
  0
VERTEX
  8
0
 62
7
  6
CONTINUOUS
 10
35.2352506634
 20
90.8571247986
  0
VERTEX
  8
0
 62
7
  6
CONTINUOUS
 10
35.2514382303
 20
90.8552832835
  0
VERTEX
  8
0
 62
7
  6
CONTINUOUS
 10
35.2686165107
 20
90.8535482168
  0
VERTEX
  8
0
 62
7
  6
CONTINUOUS
 10
35.3215221074
 20
90.8485520775
  0
SEQEND
  0
LINE
  8
2_FEATURE
 62
7
  6
CONTINUOUS
 10
34.7951508675
 20
97.9354311062
 11
34.7951508675
 21
91.3535106299
  0
LINE
  8
2_FEATURE
 62
7
  6
CONTINUOUS
 10
36.7480731595
 20
97.9362916119
 11
36.7480731595
 21
91.3526501241
  0
POLYLINE
  8
0
 62
7
  6
CONTINUOUS
 66
1
 70
0
  0
VERTEX
  8
0
 62
7
  6
CONTINUOUS
 10
36.7480735015
 20
91.3527563537
  0
VERTEX
  8
0
 62
7
  6
CONTINUOUS
 10
36.7638601235
 20
91.2280874768
  0
VERTEX
  8
0
 62
7
  6
CONTINUOUS
 10
36.8034304903
 20
91.1240400979
  0
VERTEX
  8
0
 62
7
  6
CONTINUOUS
 10
36.8621733353
 20
91.0347570821
  0
VERTEX
  8
0
 62
7
  6
CONTINUOUS
 10
36.9344443723
 20
90.9632460774
  0
VERTEX
  8
0
 62
7
  6
CONTINUOUS
 10
37.0142269366
 20
90.9106415089
  0
VERTEX
  8
0
 62
7
  6
CONTINUOUS
 10
37.0952682289
 20
90.8763616901
  0
VERTEX
  8
0
 62
7
  6
CONTINUOUS
 10
37.1631524609
 20
90.8592415232
  0
SEQEND
  0
LINE
  8
1_AXIS
 62
7
  6
CONTINUOUS
 10
42.9649227111
 20
105.144470868
 11
42.9649227111
 21
99.644470868
  0
LINE
  8
1_AXIS
 62
7
  6
CONTINUOUS
 10
42.9649227111
 20
89.644470868
 11
42.9649227111
 21
84.144470868
  0
LINE
  8
2_FEATURE
 62
7
  6
CONTINUOUS
 10
48.0516708725
 20
97.9412089207
 11
48.0516708725
 21
91.3477328153
  0
POLYLINE
  8
0
 62
7
  6
CONTINUOUS
 66
1
 70
0
  0
VERTEX
  8
0
 62
7
  6
CONTINUOUS
 10
48.0516716444
 20
91.3478262456
  0
VERTEX
  8
0
 62
7
  6
CONTINUOUS
 10
48.0521709752
 20
91.3701874435
  0
VERTEX
  8
0
 62
7
  6
CONTINUOUS
 10
48.0685235461
 20
91.2189891157
  0
VERTEX
  8
0
 62
7
  6
CONTINUOUS
 10
48.1265202051
 20
91.0843911255
  0
VERTEX
  8
0
 62
7
  6
CONTINUOUS
 10
48.2139197563
 20
90.9786220026
  0
VERTEX
  8
0
 62
7
  6
CONTINUOUS
 10
48.2636073248
 20
90.9384469614
  0
VERTEX
  8
0
 62
7
  6
CONTINUOUS
 10
48.3650173617
 20
90.8826568398
  0
VERTEX
  8
0
 62
7
  6
CONTINUOUS
 10
48.4567612564
 20
90.8539006293
  0
VERTEX
  8
0
 62
7
  6
CONTINUOUS
 10
48.5373947447
 20
90.8394150425
  0
SEQEND
  0
POLYLINE
  8
0
 62
7
  6
CONTINUOUS
 66
1
 70
0
  0
VERTEX
  8
0
 62
7
  6
CONTINUOUS
 10
67.4151237215
 20
91.3393735535
  0
VERTEX
  8
0
 62
7
  6
CONTINUOUS
 10
67.4248376922
 20
91.2411135441
  0
VERTEX
  8
0
 62
7
  6
CONTINUOUS
 10
67.487832826
 20
91.0791558474
  0
VERTEX
  8
0
 62
7
  6
CONTINUOUS
 10
67.5924694698
 20
90.9562976051
  0
VERTEX
  8
0
 62
7
  6
CONTINUOUS
 10
67.7152692814
 20
90.8788274576
  0
VERTEX
  8
0
 62
7
  6
CONTINUOUS
 10
67.7767036731
 20
90.8555274574
  0
SEQEND
  0
LINE
  8
2_FEATURE
 62
7
  6
CONTINUOUS
 10
67.4151232964
 20
97.9496198129
 11
67.4151232964
 21
91.3393219231
  0
POLYLINE
  8
0
 62
7
  6
CONTINUOUS
 66
1
 70
0
  0
VERTEX
  8
0
 62
7
  6
CONTINUOUS
 10
37.1219844543
 20
98.4204466445
  0
VERTEX
  8
0
 62
7
  6
CONTINUOUS
 10
37.0497094625
 20
98.3953697505
  0
VERTEX
  8
0
 62
7
  6
CONTINUOUS
 10
36.9749990461
 20
98.3551622783
  0
VERTEX
  8
0
 62
7
  6
CONTINUOUS
 10
36.9027432581
 20
98.2978616066
  0
VERTEX
  8
0
 62
7
  6
CONTINUOUS
 10
36.8390088556
 20
98.2237588924
  0
VERTEX
  8
0
 62
7
  6
CONTINUOUS
 10
36.7893909576
 20
98.1352427311
  0
VERTEX
  8
0
 62
7
  6
CONTINUOUS
 10
36.7582005722
 20
98.0363234452
  0
VERTEX
  8
0
 62
7
  6
CONTINUOUS
 10
36.7480735014
 20
97.9361853942
  0
SEQEND
  0
LINE
  8
0
 62
7
  6
CONTINUOUS
 10
68.2019881189
 20
98.5714207312
 11
68.2022937139
 21
98.5716399671
  0
LINE
  8
0
 62
7
  6
CONTINUOUS
 10
68.2026411279
 20
98.5717850396
 11
68.2019881189
 21
98.5714207312
  0
LINE
  8
0
 62
7
  6
CONTINUOUS
 10
68.2026413102
 20
90.7171567723
 11
68.2020079291
 21
90.7175101111
  0
LINE
  8
0
 62
7
  6
CONTINUOUS
 10
68.2022937139
 20
98.5716399671
 11
68.1996341361
 21
98.5703808799
  0
LINE
  8
0
 62
7
  6
CONTINUOUS
 10
68.1996341361
 20
98.5703808799
 11
68.1667717022
 21
98.5571137006
  0
LINE
  8
0
 62
7
  6
CONTINUOUS
 10
68.3446363082
 20
98.6282314354
 11
68.2026412032
 21
98.5717849045
  0
POLYLINE
  8
0
 62
7
  6
CONTINUOUS
 66
1
 70
0
  0
VERTEX
  8
0
 62
7
  6
CONTINUOUS
 10
67.7766854579
 20
98.4334085579
  0
VERTEX
  8
0
 62
7
  6
CONTINUOUS
 10
67.7186904659
 20
98.411638764
  0
VERTEX
  8
0
 62
7
  6
CONTINUOUS
 10
67.594798324
 20
98.334613731
  0
VERTEX
  8
0
 62
7
  6
CONTINUOUS
 10
67.488973163
 20
98.2116588741
  0
VERTEX
  8
0
 62
7
  6
CONTINUOUS
 10
67.4250732037
 20
98.0490004887
  0
VERTEX
  8
0
 62
7
  6
CONTINUOUS
 10
67.4151237215
 20
97.9495681533
  0
SEQEND
  0
LINE
  8
0
 62
7
  6
CONTINUOUS
 10
68.1667717022
 20
98.5571137006
 11
68.1158515898
 21
98.5399149394
  0
POLYLINE
  8
0
 62
7
  6
CONTINUOUS
 66
1
 70
0
  0
VERTEX
  8
0
 62
7
  6
CONTINUOUS
 10
142.4285553505
 20
90.8450853396
  0
VERTEX
  8
0
 62
7
  6
CONTINUOUS
 10
142.5033369998
 20
90.8615550095
  0
VERTEX
  8
0
 62
7
  6
CONTINUOUS
 10
142.5947771238
 20
90.8961048914
  0
VERTEX
  8
0
 62
7
  6
CONTINUOUS
 10
142.6900791271
 20
90.9564285517
  0
VERTEX
  8
0
 62
7
  6
CONTINUOUS
 10
142.7759817441
 20
91.0445692075
  0
VERTEX
  8
0
 62
7
  6
CONTINUOUS
 10
142.8403518505
 20
91.1568738825
  0
VERTEX
  8
0
 62
7
  6
CONTINUOUS
 10
142.8751015952
 20
91.2924335277
  0
VERTEX
  8
0
 62
7
  6
CONTINUOUS
 10
142.8781743781
 20
91.3478317006
  0
SEQEND
  0
LINE
  8
1_AXIS
 62
7
  6
CONTINUOUS
 10
145.9649227111
 20
82.144470868
 11
44.9649227111
 21
82.144470868
  0
POLYLINE
  8
0
 62
7
  6
CONTINUOUS
 66
1
 70
0
  0
VERTEX
  8
0
 62
7
  6
CONTINUOUS
 10
37.1631524609
 20
90.8592415232
  0
VERTEX
  8
0
 62
7
  6
CONTINUOUS
 10
37.2073985271
 20
90.8522867529
  0
VERTEX
  8
0
 62
7
  6
CONTINUOUS
 10
37.2519601015
 20
90.8468137965
  0
VERTEX
  8
0
 62
7
  6
CONTINUOUS
 10
37.3128480114
 20
90.8402816276
  0
SEQEND
  0
POLYLINE
  8
0
 62
7
  6
CONTINUOUS
 66
1
 70
0
  0
VERTEX
  8
0
 62
7
  6
CONTINUOUS
 10
68.1158585908
 20
90.7490246019
  0
VERTEX
  8
0
 62
7
  6
CONTINUOUS
 10
68.1657768114
 20
90.7321932389
  0
VERTEX
  8
0
 62
7
  6
CONTINUOUS
 10
68.1868415717
 20
90.7240762657
  0
SEQEND
  0
LINE
  8
0
 62
7
  6
CONTINUOUS
 10
68.2026413102
 20
90.7171567723
 11
68.3428052583
 21
90.6611695173
  0
LINE
  8
0
 62
7
  6
CONTINUOUS
 10
68.1868415717
 20
90.7240762657
 11
68.2020078517
 21
90.7175099727
  0
LINE
  8
0
 62
7
  6
CONTINUOUS
 10
68.1156737566
 20
98.5398591384
 11
67.776655289
 21
98.4334000083
  0
LINE
  8
0
 62
7
  6
CONTINUOUS
 10
142.3748014223
 20
90.8369676686
 11
142.4285553505
 21
90.8450853396
  0
POLYLINE
  8
0
 62
7
  6
CONTINUOUS
 66
1
 70
0
  0
VERTEX
  8
0
 62
7
  6
CONTINUOUS
 10
141.0838322445
 20
90.6597845335
  0
VERTEX
  8
0
 62
7
  6
CONTINUOUS
 10
141.2206733682
 20
90.6803438775
  0
VERTEX
  8
0
 62
7
  6
CONTINUOUS
 10
141.4170521015
 20
90.7084180071
  0
SEQEND
  0
LINE
  8
0
 62
7
  6
CONTINUOUS
 10
141.0330925741
 20
90.6529678985
 11
141.0838094776
 21
90.659781156
  0
LINE
  8
0
 62
7
  6
CONTINUOUS
 10
141.4170521015
 20
90.7084180071
 11
142.374859535
 21
90.8369751663
  0
POLYLINE
  8
0
 62
7
  6
CONTINUOUS
 66
1
 70
0
  0
VERTEX
  8
0
 62
7
  6
CONTINUOUS
 10
153.619235693
 20
90.840510164
  0
VERTEX
  8
0
 62
7
  6
CONTINUOUS
 10
153.6926755845
 20
90.8485360726
  0
VERTEX
  8
0
 62
7
  6
CONTINUOUS
 10
153.7475006942
 20
90.8559357749
  0
VERTEX
  8
0
 62
7
  6
CONTINUOUS
 10
153.8078843594
 20
90.8685013017
  0
SEQEND
  0
POLYLINE
  8
0
 62
7
  6
CONTINUOUS
 66
1
 70
0
  0
VERTEX
  8
0
 62
7
  6
CONTINUOUS
 10
155.6605186577
 20
90.8534786726
  0
VERTEX
  8
0
 62
7
  6
CONTINUOUS
 10
155.6791612088
 20
90.8553628776
  0
VERTEX
  8
0
 62
7
  6
CONTINUOUS
 10
155.6981213747
 20
90.8575760599
  0
VERTEX
  8
0
 62
7
  6
CONTINUOUS
 10
155.7314087528
 20
90.8630233245
  0
VERTEX
  8
0
 62
7
  6
CONTINUOUS
 10
155.7723148539
 20
90.8729053361
  0
VERTEX
  8
0
 62
7
  6
CONTINUOUS
 10
155.8163599799
 20
90.8877684757
  0
VERTEX
  8
0
 62
7
  6
CONTINUOUS
 10
155.8386913239
 20
90.8971079456
  0
VERTEX
  8
0
 62
7
  6
CONTINUOUS
 10
155.882969553
 20
90.9195989566
  0
VERTEX
  8
0
 62
7
  6
CONTINUOUS
 10
155.9268652549
 20
90.9478511488
  0
VERTEX
  8
0
 62
7
  6
CONTINUOUS
 10
155.9701447878
 20
90.9828333457
  0
VERTEX
  8
0
 62
7
  6
CONTINUOUS
 10
156.0116854441
 20
91.0251614191
  0
VERTEX
  8
0
 62
7
  6
CONTINUOUS
 10
156.0498063528
 20
91.0748962384
  0
VERTEX
  8
0
 62
7
  6
CONTINUOUS
 10
156.0828507941
 20
91.1319033022
  0
VERTEX
  8
0
 62
7
  6
CONTINUOUS
 10
156.1091621876
 20
91.1958848872
  0
VERTEX
  8
0
 62
7
  6
CONTINUOUS
 10
156.1269901696
 20
91.2661980764
  0
VERTEX
  8
0
 62
7
  6
CONTINUOUS
 10
156.1345498637
 20
91.341785916
  0
VERTEX
  8
0
 62
7
  6
CONTINUOUS
 10
156.1346896163
 20
91.3536067452
  0
SEQEND
  0
LINE
  8
0
 62
7
  6
CONTINUOUS
 10
153.5562144802
 20
90.8343085108
 11
153.619235693
 21
90.840510164
  0
LINE
  8
0
 62
7
  6
CONTINUOUS
 10
151.7063326082
 20
90.6564176842
 11
153.5562144802
 21
90.8343085108
  0
LINE
  8
0
 62
7
  6
CONTINUOUS
 10
155.6003055516
 20
90.847813543
 11
155.6605186577
 21
90.8534786726
  0
LINE
  8
0
 62
7
  6
CONTINUOUS
 10
155.6003055516
 20
90.847813543
 11
153.4329137077
 21
90.6558867737
  0
LINE
  8
0
 62
7
  6
CONTINUOUS
 10
151.6483919486
 20
90.6513676445
 11
151.7063320978
 21
90.656417744
  0
LINE
  8
0
 62
7
  6
CONTINUOUS
 10
39.223513094
 20
90.6564177669
 11
39.2749932699
 21
90.6518626008
  0
LINE
  8
0
 62
7
  6
CONTINUOUS
 10
35.3215221074
 20
90.8485520775
 11
37.4969317144
 21
90.6558867737
  0
LINE
  8
0
 62
7
  6
CONTINUOUS
 10
37.3128480114
 20
90.8402816276
 11
39.0029841655
 21
90.6781288325
  0
LINE
  8
0
 62
7
  6
CONTINUOUS
 10
39.0029841655
 20
90.6781288325
 11
39.2235127948
 21
90.6564176881
  0
POLYLINE
  8
0
 62
7
  6
CONTINUOUS
 66
1
 70
0
  0
VERTEX
  8
0
 62
7
  6
CONTINUOUS
 10
48.5549858882
 20
90.8369751662
  0
VERTEX
  8
0
 62
7
  6
CONTINUOUS
 10
49.5085925119
 20
90.7090022929
  0
VERTEX
  8
0
 62
7
  6
CONTINUOUS
 10
49.705267714
 20
90.6809175779
  0
VERTEX
  8
0
 62
7
  6
CONTINUOUS
 10
49.8460134689
 20
90.6597844892
  0
SEQEND
  0
LINE
  8
0
 62
7
  6
CONTINUOUS
 10
49.8460341973
 20
90.6597814244
 11
49.8914820979
 21
90.6535845088
  0
LINE
  8
0
 62
7
  6
CONTINUOUS
 10
48.5373947447
 20
90.8394150425
 11
48.5550980821
 21
90.836960399
  0
LINE
  8
0
 62
7
  6
CONTINUOUS
 10
67.7766552875
 20
90.8555417282
 11
68.1156737567
 21
90.7490825976
  0
LINE
  8
0
 62
7
  6
CONTINUOUS
 10
122.4534621479
 20
90.6444709905
 11
122.585204731
 21
90.66070921
  0
LINE
  8
0
 62
7
  6
CONTINUOUS
 10
153.4329137077
 20
90.6558867737
 11
153.1747004601
 21
90.644470868
  0
POLYLINE
  8
0
 62
7
  6
CONTINUOUS
 66
1
 70
0
  0
VERTEX
  8
0
 62
7
  6
CONTINUOUS
 10
140.8863719297
 20
90.644470974
  0
VERTEX
  8
0
 62
7
  6
CONTINUOUS
 10
140.9265001926
 20
90.6451130373
  0
VERTEX
  8
0
 62
7
  6
CONTINUOUS
 10
141.0330925741
 20
90.6529678985
  0
SEQEND
  0
POLYLINE
  8
0
 62
7
  6
CONTINUOUS
 66
1
 70
0
  0
VERTEX
  8
0
 62
7
  6
CONTINUOUS
 10
151.4656060953
 20
90.6444709727
  0
VERTEX
  8
0
 62
7
  6
CONTINUOUS
 10
151.5184095722
 20
90.6450492509
  0
VERTEX
  8
0
 62
7
  6
CONTINUOUS
 10
151.6483919486
 20
90.6513676445
  0
SEQEND
  0
LINE
  8
0
 62
7
  6
CONTINUOUS
 10
153.1747004593
 20
90.644470868
 11
151.4863811544
 21
90.644470868
  0
LINE
  8
0
 62
7
  6
CONTINUOUS
 10
151.4656036248
 20
90.6444708686
 11
122.4743310216
 21
90.644470868
  0
LINE
  8
0
 62
7
  6
CONTINUOUS
 10
122.453521383
 20
90.644470868
 11
39.4642930715
 21
90.644470868
  0
LINE
  8
0
 62
7
  6
CONTINUOUS
 10
39.4432393221
 20
90.644470868
 11
37.7551449628
 21
90.644470868
  0
LINE
  8
0
 62
7
  6
CONTINUOUS
 10
37.755144962
 20
90.644470868
 11
37.4969317144
 21
90.6558867737
  0
POLYLINE
  8
0
 62
7
  6
CONTINUOUS
 66
1
 70
0
  0
VERTEX
  8
0
 62
7
  6
CONTINUOUS
 10
39.2749932699
 20
90.6518626008
  0
VERTEX
  8
0
 62
7
  6
CONTINUOUS
 10
39.4050158141
 20
90.6451981303
  0
VERTEX
  8
0
 62
7
  6
CONTINUOUS
 10
39.4642464811
 20
90.6444709727
  0
SEQEND
  0
POLYLINE
  8
0
 62
7
  6
CONTINUOUS
 66
1
 70
0
  0
VERTEX
  8
0
 62
7
  6
CONTINUOUS
 10
49.8914820979
 20
90.6535845088
  0
VERTEX
  8
0
 62
7
  6
CONTINUOUS
 10
49.9980549767
 20
90.6452932427
  0
VERTEX
  8
0
 62
7
  6
CONTINUOUS
 10
50.043479795
 20
90.6444709746
  0
SEQEND
  0
LINE
  8
0
 62
7
  6
CONTINUOUS
 10
68.3428052583
 20
90.6611695173
 11
68.4763873794
 21
90.6444709933
  0
LINE
  8
1_AXIS
 62
2
  6
CENTER
 10
95.4649227111
 20
80.144470868
 11
95.4649227111
 21
109.144470868
  0
POLYLINE
  8
0
 62
7
  6
CONTINUOUS
 66
1
 70
0
  0
VERTEX
  8
0
 62
7
  6
CONTINUOUS
 10
39.46427975
 20
98.6444707626
  0
VERTEX
  8
0
 62
7
  6
CONTINUOUS
 10
39.4114404865
 20
98.6438925819
  0
VERTEX
  8
0
 62
7
  6
CONTINUOUS
 10
39.2814581755
 20
98.6375744498
  0
SEQEND
  0
LINE
  8
1_AXIS
 62
7
  6
CONTINUOUS
 10
151.4655523512
 20
98.644470868
 11
149.0619480642
 21
98.644470868
  0
LINE
  8
1_AXIS
 62
7
  6
CONTINUOUS
 10
122.4535213831
 20
98.644470868
 11
115.3477575629
 21
98.644470868
  0
LINE
  8
1_AXIS
 62
7
  6
CONTINUOUS
 10
99.3540361431
 20
98.644470868
 11
91.575809279
 21
98.644470868
  0
LINE
  8
1_AXIS
 62
7
  6
CONTINUOUS
 10
75.5820878592
 20
98.644470868
 11
68.4763240391
 21
98.644470868
  0
LINE
  8
1_AXIS
 62
7
  6
CONTINUOUS
 10
41.867897358
 20
98.644470868
 11
39.4642930709
 21
98.644470868
  0
LINE
  8
0
 62
7
  6
CONTINUOUS
 10
37.7551449628
 20
98.644470868
 11
39.4432393233
 21
98.644470868
  0
LINE
  8
0
 62
7
  6
CONTINUOUS
 10
39.4642930715
 20
98.644470868
 11
68.4555144005
 21
98.644470868
  0
LINE
  8
0
 62
7
  6
CONTINUOUS
 10
68.4763240391
 20
98.644470868
 11
151.4655523506
 21
98.644470868
  0
LINE
  8
0
 62
7
  6
CONTINUOUS
 10
151.4863811564
 20
98.644470868
 11
153.1747004593
 21
98.644470868
  0
LINE
  8
0
 62
7
  6
CONTINUOUS
 10
68.4763834679
 20
98.6444707443
 11
68.3446363082
 21
98.6282314354
  0
LINE
  8
0
 62
7
  6
CONTINUOUS
 10
39.2814581755
 20
98.6375744498
 11
39.2235133922
 21
98.6325239995
  0
LINE
  8
0
 62
7
  6
CONTINUOUS
 10
37.4969317144
 20
98.6330549623
 11
37.755144962
 21
98.644470868
  0
POLYLINE
  8
0
 62
7
  6
CONTINUOUS
 66
1
 70
0
  0
VERTEX
  8
0
 62
7
  6
CONTINUOUS
 10
50.0434750757
 20
98.6444707607
  0
VERTEX
  8
0
 62
7
  6
CONTINUOUS
 10
50.0033506629
 20
98.643828867
  0
VERTEX
  8
0
 62
7
  6
CONTINUOUS
 10
49.8967583446
 20
98.6359744722
  0
SEQEND
  0
LINE
  8
0
 62
7
  6
CONTINUOUS
 10
153.1747004601
 20
98.644470868
 11
153.4329137077
 21
98.6330549623
  0
POLYLINE
  8
0
 62
7
  6
CONTINUOUS
 66
1
 70
0
  0
VERTEX
  8
0
 62
7
  6
CONTINUOUS
 10
151.654847365
 20
98.6370795146
  0
VERTEX
  8
0
 62
7
  6
CONTINUOUS
 10
151.5248248682
 20
98.6437437193
  0
VERTEX
  8
0
 62
7
  6
CONTINUOUS
 10
151.4655588015
 20
98.6444707627
  0
SEQEND
  0
POLYLINE
  8
0
 62
7
  6
CONTINUOUS
 66
1
 70
0
  0
VERTEX
  8
0
 62
7
  6
CONTINUOUS
 10
141.0383577298
 20
98.6353578978
  0
VERTEX
  8
0
 62
7
  6
CONTINUOUS
 10
140.9317848973
 20
98.64364869
  0
VERTEX
  8
0
 62
7
  6
CONTINUOUS
 10
140.8863641445
 20
98.6444707604
  0
SEQEND
  0
LINE
  8
0
 62
7
  6
CONTINUOUS
 10
122.5870443722
 20
98.6277711562
 11
122.4534578518
 21
98.6444707417
  0
LINE
  8
0
 62
7
  6
CONTINUOUS
 10
122.7630735959
 20
90.731827988
 11
122.8139936816
 21
90.7490267576
  0
LINE
  8
0
 62
7
  6
CONTINUOUS
 10
122.8141716653
 20
90.7490825976
 11
123.1531901358
 21
90.8555417286
  0
LINE
  8
0
 62
7
  6
CONTINUOUS
 10
48.5550407999
 20
98.4519736869
 11
48.5013019422
 21
98.4438584602
  0
POLYLINE
  8
0
 62
7
  6
CONTINUOUS
 66
1
 70
0
  0
VERTEX
  8
0
 62
7
  6
CONTINUOUS
 10
49.8460131887
 20
98.6291572044
  0
VERTEX
  8
0
 62
7
  6
CONTINUOUS
 10
49.7091823423
 20
98.6085993687
  0
VERTEX
  8
0
 62
7
  6
CONTINUOUS
 10
49.512804241
 20
98.5805252505
  0
SEQEND
  0
LINE
  8
0
 62
7
  6
CONTINUOUS
 10
49.8967583446
 20
98.6359744722
 11
49.8460361664
 21
98.6291606148
  0
LINE
  8
0
 62
7
  6
CONTINUOUS
 10
49.512804241
 20
98.5805252505
 11
48.5549858895
 21
98.45196657
  0
POLYLINE
  8
0
 62
7
  6
CONTINUOUS
 66
1
 70
0
  0
VERTEX
  8
0
 62
7
  6
CONTINUOUS
 10
37.3106462857
 20
98.4484353147
  0
VERTEX
  8
0
 62
7
  6
CONTINUOUS
 10
37.2371854181
 20
98.4404074874
  0
VERTEX
  8
0
 62
7
  6
CONTINUOUS
 10
37.1823590453
 20
98.4330082877
  0
VERTEX
  8
0
 62
7
  6
CONTINUOUS
 10
37.1219844543
 20
98.4204466445
  0
SEQEND
  0
POLYLINE
  8
0
 62
7
  6
CONTINUOUS
 66
1
 70
0
  0
VERTEX
  8
0
 62
7
  6
CONTINUOUS
 10
35.2693223027
 20
98.435462639
  0
VERTEX
  8
0
 62
7
  6
CONTINUOUS
 10
35.2506851923
 20
98.4335789532
  0
VERTEX
  8
0
 62
7
  6
CONTINUOUS
 10
35.2317176018
 20
98.4313648141
  0
VERTEX
  8
0
 62
7
  6
CONTINUOUS
 10
35.198447169
 20
98.4259205699
  0
VERTEX
  8
0
 62
7
  6
CONTINUOUS
 10
35.1575432669
 20
98.4160403648
  0
VERTEX
  8
0
 62
7
  6
CONTINUOUS
 10
35.1134878911
 20
98.4011748487
  0
VERTEX
  8
0
 62
7
  6
CONTINUOUS
 10
35.0911543895
 20
98.3918347325
  0
VERTEX
  8
0
 62
7
  6
CONTINUOUS
 10
35.0468725351
 20
98.3693421037
  0
VERTEX
  8
0
 62
7
  6
CONTINUOUS
 10
35.0029732092
 20
98.3410873449
  0
VERTEX
  8
0
 62
7
  6
CONTINUOUS
 10
34.9596915966
 20
98.3061026938
  0
VERTEX
  8
0
 62
7
  6
CONTINUOUS
 10
34.9181509653
 20
98.2637734313
  0
VERTEX
  8
0
 62
7
  6
CONTINUOUS
 10
34.8800310403
 20
98.2140384078
  0
VERTEX
  8
0
 62
7
  6
CONTINUOUS
 10
34.8469878263
 20
98.1570317613
  0
VERTEX
  8
0
 62
7
  6
CONTINUOUS
 10
34.8206776325
 20
98.0930511382
  0
VERTEX
  8
0
 62
7
  6
CONTINUOUS
 10
34.8028506134
 20
98.0227393287
  0
VERTEX
  8
0
 62
7
  6
CONTINUOUS
 10
34.7952915022
 20
97.9471531002
  0
VERTEX
  8
0
 62
7
  6
CONTINUOUS
 10
34.7951517998
 20
97.9353344198
  0
SEQEND
  0
LINE
  8
0
 62
7
  6
CONTINUOUS
 10
39.2235128162
 20
98.6325240515
 11
37.3736309419
 21
98.4546332252
  0
LINE
  8
0
 62
7
  6
CONTINUOUS
 10
37.3736309419
 20
98.4546332252
 11
37.3106462857
 21
98.4484353147
  0
LINE
  8
0
 62
7
  6
CONTINUOUS
 10
35.3295292032
 20
98.4411272138
 11
35.2693223027
 21
98.435462639
  0
LINE
  8
0
 62
7
  6
CONTINUOUS
 10
35.3295292032
 20
98.4411272138
 11
37.4969317144
 21
98.6330549623
  0
LINE
  8
1_AXIS
 62
7
  6
CONTINUOUS
 10
145.9649227111
 20
107.144470868
 11
44.9649227111
 21
107.144470868
  0
LINE
  8
0
 62
7
  6
CONTINUOUS
 10
151.7063322677
 20
98.6325239758
 11
151.654847365
 21
98.6370795146
  0
LINE
  8
0
 62
7
  6
CONTINUOUS
 10
153.9946904072
 20
98.5832673922
 11
155.4516239485
 21
98.454482761
  0
LINE
  8
0
 62
7
  6
CONTINUOUS
 10
153.4329137077
 20
98.6330549623
 11
153.9946904072
 21
98.5832673922
  0
LINE
  8
0
 62
7
  6
CONTINUOUS
 10
155.608309952
 20
98.4403908953
 11
155.4521345815
 21
98.4544420417
  0
LINE
  8
0
 62
7
  6
CONTINUOUS
 10
153.6170290272
 20
98.4486568829
 11
151.7063326104
 21
98.6325240525
  0
POLYLINE
  8
0
 62
7
  6
CONTINUOUS
 66
1
 70
0
  0
VERTEX
  8
0
 62
7
  6
CONTINUOUS
 10
142.3748595339
 20
98.4519665699
  0
VERTEX
  8
0
 62
7
  6
CONTINUOUS
 10
141.4212625705
 20
98.5799380983
  0
VERTEX
  8
0
 62
7
  6
CONTINUOUS
 10
141.2245868814
 20
98.6080228132
  0
VERTEX
  8
0
 62
7
  6
CONTINUOUS
 10
141.0838319363
 20
98.6291572499
  0
SEQEND
  0
LINE
  8
0
 62
7
  6
CONTINUOUS
 10
141.0838109666
 20
98.6291603519
 11
141.0383577298
 21
98.6353578978
  0
LINE
  8
0
 62
7
  6
CONTINUOUS
 10
142.39268737
 20
98.4494924746
 11
142.3747416788
 21
98.4519820454
  0
POLYLINE
  8
0
 62
7
  6
CONTINUOUS
 66
1
 70
0
  0
VERTEX
  8
0
 62
7
  6
CONTINUOUS
 10
153.7666809171
 20
98.4297025216
  0
VERTEX
  8
0
 62
7
  6
CONTINUOUS
 10
153.7224481965
 20
98.4366548197
  0
VERTEX
  8
0
 62
7
  6
CONTINUOUS
 10
153.6778985232
 20
98.4421264063
  0
VERTEX
  8
0
 62
7
  6
CONTINUOUS
 10
153.6170290272
 20
98.4486568829
  0
SEQEND
  0
LINE
  8
0
 62
7
  6
CONTINUOUS
 10
123.1531901345
 20
98.4334000079
 11
122.8141716653
 21
98.5398591385
  0
POLYLINE
  8
0
 62
7
  6
CONTINUOUS
 66
1
 70
0
  0
VERTEX
  8
0
 62
7
  6
CONTINUOUS
 10
122.8139866667
 20
98.5399171772
  0
VERTEX
  8
0
 62
7
  6
CONTINUOUS
 10
122.7640684908
 20
98.5567485432
  0
VERTEX
  8
0
 62
7
  6
CONTINUOUS
 10
122.7430035462
 20
98.5648655984
  0
SEQEND
  0
LINE
  8
0
 62
7
  6
CONTINUOUS
 10
122.727204584
 20
90.7171568621
 11
122.7278572151
 21
90.7175209599
  0
LINE
  8
0
 62
7
  6
CONTINUOUS
 10
122.7275515499
 20
90.7173017157
 11
122.7302110719
 21
90.7185607821
  0
LINE
  8
0
 62
7
  6
CONTINUOUS
 10
122.7302110719
 20
90.7185607821
 11
122.7630735959
 21
90.731827988
  0
LINE
  8
0
 62
7
  6
CONTINUOUS
 10
122.585204731
 20
90.66070921
 11
122.7272045104
 21
90.7171569941
  0
POLYLINE
  8
0
 62
7
  6
CONTINUOUS
 66
1
 70
0
  0
VERTEX
  8
0
 62
7
  6
CONTINUOUS
 10
123.1532074355
 20
90.8555482741
  0
VERTEX
  8
0
 62
7
  6
CONTINUOUS
 10
123.2111423328
 20
90.8772979528
  0
VERTEX
  8
0
 62
7
  6
CONTINUOUS
 10
123.335048814
 20
90.954329207
  0
VERTEX
  8
0
 62
7
  6
CONTINUOUS
 10
123.4408729907
 20
91.0772850503
  0
VERTEX
  8
0
 62
7
  6
CONTINUOUS
 10
123.5047723687
 20
91.2399434091
  0
VERTEX
  8
0
 62
7
  6
CONTINUOUS
 10
123.5147222293
 20
91.3393803442
  0
SEQEND
  0
POLYLINE
  8
0
 62
7
  6
CONTINUOUS
 66
1
 70
0
  0
VERTEX
  8
0
 62
7
  6
CONTINUOUS
 10
48.5013019422
 20
98.4438584602
  0
VERTEX
  8
0
 62
7
  6
CONTINUOUS
 10
48.4265157108
 20
98.427389041
  0
VERTEX
  8
0
 62
7
  6
CONTINUOUS
 10
48.3350585764
 20
98.3928318187
  0
VERTEX
  8
0
 62
7
  6
CONTINUOUS
 10
48.2397315554
 20
98.3324861151
  0
VERTEX
  8
0
 62
7
  6
CONTINUOUS
 10
48.1538353454
 20
98.2443371788
  0
VERTEX
  8
0
 62
7
  6
CONTINUOUS
 10
48.0894785677
 20
98.1320338228
  0
VERTEX
  8
0
 62
7
  6
CONTINUOUS
 10
48.0547418185
 20
97.9964888741
  0
VERTEX
  8
0
 62
7
  6
CONTINUOUS
 10
48.0516716444
 20
97.941115515
  0
SEQEND
  0
LINE
  8
0
 62
7
  6
CONTINUOUS
 10
122.7272038671
 20
98.5717851004
 11
122.5870443722
 21
98.6277711562
  0
LINE
  8
0
 62
7
  6
CONTINUOUS
 10
122.7430035462
 20
98.5648655984
 11
122.7278377124
 21
98.5714316702
  0
LINE
  8
0
 62
7
  6
CONTINUOUS
 10
122.7272038671
 20
98.5717851004
 11
122.727837641
 21
98.5714315425
  0
LINE
  8
0
 62
7
  6
CONTINUOUS
 10
122.7278572151
 20
90.7175209599
 11
122.7275515499
 21
90.7173017157
  0
POLYLINE
  8
0
 62
7
  6
CONTINUOUS
 66
1
 70
0
  0
VERTEX
  8
0
 62
7
  6
CONTINUOUS
 10
153.8078843594
 20
90.8685013017
  0
VERTEX
  8
0
 62
7
  6
CONTINUOUS
 10
153.880142686
 20
90.8935754332
  0
VERTEX
  8
0
 62
7
  6
CONTINUOUS
 10
153.9548471511
 20
90.9337807577
  0
VERTEX
  8
0
 62
7
  6
CONTINUOUS
 10
154.0271003611
 20
90.9910792117
  0
VERTEX
  8
0
 62
7
  6
CONTINUOUS
 10
154.0908346659
 20
91.0651807776
  0
VERTEX
  8
0
 62
7
  6
CONTINUOUS
 10
154.1404534105
 20
91.1536967965
  0
VERTEX
  8
0
 62
7
  6
CONTINUOUS
 10
154.1716447562
 20
91.2526168336
  0
VERTEX
  8
0
 62
7
  6
CONTINUOUS
 10
154.1817723576
 20
91.3527577202
  0
SEQEND
  0
POLYLINE
  8
0
 62
7
  6
CONTINUOUS
 66
1
 70
0
  0
VERTEX
  8
0
 62
7
  6
CONTINUOUS
 10
123.5147222295
 20
97.9495614215
  0
VERTEX
  8
0
 62
7
  6
CONTINUOUS
 10
123.5050081586
 20
98.0478246454
  0
VERTEX
  8
0
 62
7
  6
CONTINUOUS
 10
123.4420146052
 20
98.2097815621
  0
VERTEX
  8
0
 62
7
  6
CONTINUOUS
 10
123.3373802236
 20
98.3326407211
  0
VERTEX
  8
0
 62
7
  6
CONTINUOUS
 10
123.2145660534
 20
98.4101183381
  0
VERTEX
  8
0
 62
7
  6
CONTINUOUS
 10
123.1531889335
 20
98.433399275
  0
SEQEND
  0
LINE
  8
0
 62
7
  6
CONTINUOUS
 10
123.5147221257
 20
97.9496210173
 11
123.5147221257
 21
91.3393207187
  0
LINE
  8
0
 62
7
  6
CONTINUOUS
 10
142.8781745497
 20
97.941210042
 11
142.8781745497
 21
91.347731694
  0
POLYLINE
  8
0
 62
7
  6
CONTINUOUS
 66
1
 70
0
  0
VERTEX
  8
0
 62
7
  6
CONTINUOUS
 10
142.8781743781
 20
97.9411100158
  0
VERTEX
  8
0
 62
7
  6
CONTINUOUS
 10
142.8776703349
 20
97.918645152
  0
VERTEX
  8
0
 62
7
  6
CONTINUOUS
 10
142.8613893606
 20
98.069696975
  0
VERTEX
  8
0
 62
7
  6
CONTINUOUS
 10
142.8035168258
 20
98.2042380507
  0
VERTEX
  8
0
 62
7
  6
CONTINUOUS
 10
142.7162521631
 20
98.3100182117
  0
VERTEX
  8
0
 62
7
  6
CONTINUOUS
 10
142.6666306448
 20
98.3502157581
  0
VERTEX
  8
0
 62
7
  6
CONTINUOUS
 10
142.5653353035
 20
98.4060760655
  0
VERTEX
  8
0
 62
7
  6
CONTINUOUS
 10
142.4735356017
 20
98.4349381331
  0
VERTEX
  8
0
 62
7
  6
CONTINUOUS
 10
142.39268737
 20
98.4494924746
  0
SEQEND
  0
LINE
  8
1_AXIS
 62
7
  6
CONTINUOUS
 10
147.9649227111
 20
105.144470868
 11
147.9649227111
 21
99.644470868
  0
LINE
  8
1_AXIS
 62
7
  6
CONTINUOUS
 10
147.9649227111
 20
89.644470868
 11
147.9649227111
 21
84.144470868
  0
POLYLINE
  8
0
 62
7
  6
CONTINUOUS
 66
1
 70
0
  0
VERTEX
  8
0
 62
7
  6
CONTINUOUS
 10
156.1346896155
 20
97.9353349913
  0
VERTEX
  8
0
 62
7
  6
CONTINUOUS
 10
156.1341249838
 20
97.959090321
  0
VERTEX
  8
0
 62
7
  6
CONTINUOUS
 10
156.1268099219
 20
98.0237528459
  0
VERTEX
  8
0
 62
7
  6
CONTINUOUS
 10
156.1114698127
 20
98.0859371492
  0
VERTEX
  8
0
 62
7
  6
CONTINUOUS
 10
156.0888147236
 20
98.1445505263
  0
VERTEX
  8
0
 62
7
  6
CONTINUOUS
 10
156.0597228896
 20
98.1986750486
  0
VERTEX
  8
0
 62
7
  6
CONTINUOUS
 10
156.0251988595
 20
98.2475920144
  0
VERTEX
  8
0
 62
7
  6
CONTINUOUS
 10
155.9863288951
 20
98.2907960112
  0
VERTEX
  8
0
 62
7
  6
CONTINUOUS
 10
155.9442377963
 20
98.3279972525
  0
VERTEX
  8
0
 62
7
  6
CONTINUOUS
 10
155.9000454852
 20
98.3591171508
  0
VERTEX
  8
0
 62
7
  6
CONTINUOUS
 10
155.8548301188
 20
98.3842727477
  0
VERTEX
  8
0
 62
7
  6
CONTINUOUS
 10
155.8096121227
 20
98.4037494459
  0
VERTEX
  8
0
 62
7
  6
CONTINUOUS
 10
155.7653344784
 20
98.4179815977
  0
VERTEX
  8
0
 62
7
  6
CONTINUOUS
 10
155.7240533458
 20
98.4273159112
  0
VERTEX
  8
0
 62
7
  6
CONTINUOUS
 10
155.6945832275
 20
98.4318183889
  0
VERTEX
  8
0
 62
7
  6
CONTINUOUS
 10
155.6784052765
 20
98.4336586663
  0
VERTEX
  8
0
 62
7
  6
CONTINUOUS
 10
155.6612200987
 20
98.4353943709
  0
VERTEX
  8
0
 62
7
  6
CONTINUOUS
 10
155.608309952
 20
98.4403908953
  0
SEQEND
  0
LINE
  8
0
 62
7
  6
CONTINUOUS
 10
154.1817722626
 20
97.9362920223
 11
154.1817722626
 21
91.3526497139
  0
LINE
  8
0
 62
7
  6
CONTINUOUS
 10
156.1346945546
 20
97.9354311105
 11
156.1346945546
 21
91.3535106255
  0
POLYLINE
  8
0
 62
7
  6
CONTINUOUS
 66
1
 70
0
  0
VERTEX
  8
0
 62
7
  6
CONTINUOUS
 10
154.1817723575
 20
97.9361840063
  0
VERTEX
  8
0
 62
7
  6
CONTINUOUS
 10
154.1659870958
 20
98.0608478095
  0
VERTEX
  8
0
 62
7
  6
CONTINUOUS
 10
154.126419148
 20
98.1648930425
  0
VERTEX
  8
0
 62
7
  6
CONTINUOUS
 10
154.067679474
 20
98.2541749594
  0
VERTEX
  8
0
 62
7
  6
CONTINUOUS
 10
153.9954118448
 20
98.3256861345
  0
VERTEX
  8
0
 62
7
  6
CONTINUOUS
 10
153.9156339675
 20
98.3782913238
  0
VERTEX
  8
0
 62
7
  6
CONTINUOUS
 10
153.8346000086
 20
98.4125724368
  0
VERTEX
  8
0
 62
7
  6
CONTINUOUS
 10
153.7666809171
 20
98.4297025216
  0
SEQEND
  0
ARC
  8
0
 62
7
  6
CONTINUOUS
 10
48.963390043
 20
172.4663104613
 40
6.2
 50
104.5147783931
 51
111.838
  0
ARC
  8
0
 62
7
  6
CONTINUOUS
 10
48.963390043
 20
172.4663104613
 40
6.2
 50
88.058871156
 51
102.5279766092
  0
ARC
  8
0
 62
7
  6
CONTINUOUS
 10
52.0982962454
 20
168.9846444001
 40
6.2
 50
341.4720233908
 51
355.941128844
  0
ARC
  8
0
 62
7
  6
CONTINUOUS
 10
52.0982962454
 20
168.9846444001
 40
6.2
 50
332.162
 51
339.4852216069
  0
ARC
  8
0
 62
7
  6
CONTINUOUS
 10
49.1056550002
 20
176.6639003272
 40
2.0
 50
36.6723979408
 51
88.058871156
  0
ARC
  8
0
 62
7
  6
CONTINUOUS
 10
56.2877620121
 20
168.6873623969
 40
2.0
 50
355.941128844
 51
47.3276020592
  0
ARC
  8
0
 62
7
  6
CONTINUOUS
 10
45.2068488081
 20
178.5020690481
 40
0.8
 50
213.0354765661
 51
291.838
  0
ARC
  8
0
 62
7
  6
CONTINUOUS
 10
62.8449502822
 20
160.8857964819
 40
0.8
 50
237.0354765661
 51
315.838
  0
ARC
  8
0
 62
7
  6
CONTINUOUS
 10
57.7083248326
 20
164.6177733214
 40
0.8
 50
152.162
 51
230.9645234339
  0
ARC
  8
0
 62
7
  6
CONTINUOUS
 10
37.2356318877
 20
194.7275342036
 40
6.2
 50
80.5147783931
 51
87.838
  0
ARC
  8
0
 62
7
  6
CONTINUOUS
 10
37.2356318877
 20
194.7275342036
 40
6.2
 50
64.058871156
 51
78.5279766092
  0
ARC
  8
0
 62
7
  6
CONTINUOUS
 10
38.683390043
 20
190.2717927631
 40
6.2
 50
317.4720233908
 51
331.941128844
  0
ARC
  8
0
 62
7
  6
CONTINUOUS
 10
38.683390043
 20
190.2717927631
 40
6.2
 50
308.162
 51
315.4852216069
  0
ARC
  8
0
 62
7
  6
CONTINUOUS
 10
39.0729110042
 20
198.5043589874
 40
2.0
 50
12.6723979408
 51
64.058871156
  0
ARC
  8
0
 62
7
  6
CONTINUOUS
 10
42.3897419801
 20
188.2962028973
 40
2.0
 50
331.941128844
 51
23.3276020592
  0
ARC
  8
0
 62
7
  6
CONTINUOUS
 10
36.2588248921
 20
201.7693970154
 40
0.8
 50
189.0354765661
 51
267.838
  0
ARC
  8
0
 62
7
  6
CONTINUOUS
 10
35.5951508675
 20
208.0838335642
 40
0.8
 50
104.162
 51
182.9645234339
  0
ARC
  8
0
 62
7
  6
CONTINUOUS
 10
42.0322396928
 20
184.00065333
 40
0.8
 50
128.162
 51
206.9645234339
  0
ARC
  8
0
 62
7
  6
CONTINUOUS
 10
68.7316856498
 20
156.899779613
 40
6.2
 50
128.5147783931
 51
135.838
  0
ARC
  8
0
 62
7
  6
CONTINUOUS
 10
68.7316856498
 20
156.899779613
 40
6.2
 50
112.058871156
 51
126.5279766092
  0
ARC
  8
0
 62
7
  6
CONTINUOUS
 10
93.1224008083
 20
150.7195362596
 40
6.2
 50
152.5147783931
 51
159.838
  0
ARC
  8
0
 62
7
  6
CONTINUOUS
 10
93.1224008083
 20
150.7195362596
 40
6.2
 50
136.058871156
 51
150.5279766092
  0
ARC
  8
0
 62
7
  6
CONTINUOUS
 10
73.0116861372
 20
154.9942006228
 40
6.2
 50
5.4720233908
 51
19.941128844
  0
ARC
  8
0
 62
7
  6
CONTINUOUS
 10
73.0116861372
 20
154.9942006228
 40
6.2
 50
356.162
 51
3.4852216069
  0
ARC
  8
0
 62
7
  6
CONTINUOUS
 10
67.1543375442
 20
160.7923331391
 40
2.0
 50
60.6723979408
 51
112.058871156
  0
ARC
  8
0
 62
7
  6
CONTINUOUS
 10
90.0981774571
 20
153.6339955786
 40
2.0
 50
84.6723979408
 51
136.058871156
  0
ARC
  8
0
 62
7
  6
CONTINUOUS
 10
76.9598690423
 20
156.4266292414
 40
2.0
 50
19.941128844
 51
71.3276020592
  0
ARC
  8
0
 62
7
  6
CONTINUOUS
 10
86.1233413324
 20
151.9665928822
 40
0.8
 50
261.0354765661
 51
339.838
  0
ARC
  8
0
 62
7
  6
CONTINUOUS
 10
79.9128687536
 20
153.2866695799
 40
0.8
 50
176.162
 51
254.9645234339
  0
ARC
  8
0
 62
7
  6
CONTINUOUS
 10
35.5762471122
 20
219.8342830177
 40
6.2
 50
56.5147783931
 51
63.838
  0
ARC
  8
0
 62
7
  6
CONTINUOUS
 10
35.5762471122
 20
219.8342830177
 40
6.2
 50
40.058871156
 51
54.5279766092
  0
ARC
  8
0
 62
7
  6
CONTINUOUS
 10
41.9296365166
 20
239.3880049928
 40
6.2
 50
269.4720233908
 51
283.941128844
  0
ARC
  8
0
 62
7
  6
CONTINUOUS
 10
41.9296365166
 20
239.3880049928
 40
6.2
 50
260.162
 51
267.4852216069
  0
ARC
  8
0
 62
7
  6
CONTINUOUS
 10
35.0865266829
 20
215.1749043723
 40
6.2
 50
293.4720233908
 51
307.941128844
  0
ARC
  8
0
 62
7
  6
CONTINUOUS
 10
35.0865266829
 20
215.1749043723
 40
6.2
 50
284.162
 51
291.4852216069
  0
ARC
  8
0
 62
7
  6
CONTINUOUS
 10
38.7908581376
 20
222.5372954031
 40
2.0
 50
348.6723979408
 51
40.058871156
  0
ARC
  8
0
 62
7
  6
CONTINUOUS
 10
42.9415206496
 20
235.3117210844
 40
2.0
 50
283.941128844
 51
335.3276020592
  0
ARC
  8
0
 62
7
  6
CONTINUOUS
 10
37.6689028693
 20
211.8626040792
 40
2.0
 50
307.941128844
 51
359.3276020592
  0
ARC
  8
0
 62
7
  6
CONTINUOUS
 10
37.5480731595
 20
226.6646480011
 40
0.8
 50
165.0354765661
 51
243.838
  0
ARC
  8
0
 62
7
  6
CONTINUOUS
 10
39.5100894938
 20
232.7031133727
 40
0.8
 50
80.162
 51
158.9645234339
  0
ARC
  8
0
 62
7
  6
CONTINUOUS
 10
61.8197637442
 20
261.4782292133
 40
6.2
 50
8.5147783931
 51
15.838
  0
ARC
  8
0
 62
7
  6
CONTINUOUS
 10
61.8197637442
 20
261.4782292133
 40
6.2
 50
352.058871156
 51
6.5279766092
  0
ARC
  8
0
 62
7
  6
CONTINUOUS
 10
44.2721584193
 20
243.4453719462
 40
6.2
 50
32.5147783931
 51
39.838
  0
ARC
  8
0
 62
7
  6
CONTINUOUS
 10
44.2721584193
 20
243.4453719462
 40
6.2
 50
16.058871156
 51
30.5279766092
  0
ARC
  8
0
 62
7
  6
CONTINUOUS
 10
58.0294836861
 20
258.724429558
 40
6.2
 50
245.4720233908
 51
259.941128844
  0
ARC
  8
0
 62
7
  6
CONTINUOUS
 10
58.0294836861
 20
258.724429558
 40
6.2
 50
236.162
 51
243.4852216069
  0
ARC
  8
0
 62
7
  6
CONTINUOUS
 10
48.3082659035
 20
244.6071965355
 40
2.0
 50
324.6723979408
 51
16.058871156
  0
ARC
  8
0
 62
7
  6
CONTINUOUS
 10
57.2959118063
 20
254.5889885541
 40
2.0
 50
259.941128844
 51
311.3276020592
  0
ARC
  8
0
 62
7
  6
CONTINUOUS
 10
48.8516708725
 20
248.8832069436
 40
0.8
 50
141.0354765661
 51
219.838
  0
ARC
  8
0
 62
7
  6
CONTINUOUS
 10
53.100127117
 20
253.6015956175
 40
0.8
 50
56.162
 51
134.9645234339
  0
ARC
  8
0
 62
7
  6
CONTINUOUS
 10
71.3525814726
 20
211.1843043995
 40
4.0
 50
75.0
 51
268.8461538462
  0
ARC
  8
0
 62
7
  6
CONTINUOUS
 10
85.1849227111
 20
270.8148099741
 40
6.2
 50
344.5147783931
 51
351.838
  0
ARC
  8
0
 62
7
  6
CONTINUOUS
 10
85.1849227111
 20
270.8148099741
 40
6.2
 50
328.058871156
 51
342.5279766092
  0
ARC
  8
0
 62
7
  6
CONTINUOUS
 10
80.6022583533
 20
269.8407345949
 40
6.2
 50
221.4720233908
 51
235.941128844
  0
ARC
  8
0
 62
7
  6
CONTINUOUS
 10
80.6022583533
 20
269.8407345949
 40
6.2
 50
212.162
 51
219.4852216069
  0
ARC
  8
0
 62
7
  6
CONTINUOUS
 10
88.7490096909
 20
268.5928099741
 40
2.0
 50
276.6723979408
 51
328.058871156
  0
ARC
  8
0
 62
7
  6
CONTINUOUS
 10
65.9794880362
 20
260.8979759802
 40
2.0
 50
300.6723979408
 51
352.058871156
  0
ARC
  8
0
 62
7
  6
CONTINUOUS
 10
78.2500717031
 20
266.3611918142
 40
2.0
 50
235.941128844
 51
287.3276020592
  0
ARC
  8
0
 62
7
  6
CONTINUOUS
 10
92.2903135958
 20
271.0501908205
 40
0.8
 50
93.0354765661
 51
171.838
  0
ARC
  8
0
 62
7
  6
CONTINUOUS
 10
68.2151232964
 20
264.5832831525
 40
0.8
 50
117.0354765661
 51
195.838
  0
ARC
  8
0
 62
7
  6
CONTINUOUS
 10
74.0154227705
 20
267.1657428618
 40
0.8
 50
32.162
 51
110.9645234339
  0
ARC
  8
0
 62
7
  6
CONTINUOUS
 10
117.9181592849
 20
154.9942006228
 40
6.2
 50
176.5147783931
 51
183.838
  0
ARC
  8
0
 62
7
  6
CONTINUOUS
 10
117.9181592849
 20
154.9942006228
 40
6.2
 50
160.058871156
 51
174.5279766092
  0
ARC
  8
0
 62
7
  6
CONTINUOUS
 10
97.8074446138
 20
150.7195362596
 40
6.2
 50
29.4720233908
 51
43.941128844
  0
ARC
  8
0
 62
7
  6
CONTINUOUS
 10
97.8074446138
 20
150.7195362596
 40
6.2
 50
20.162
 51
27.4852216069
  0
ARC
  8
0
 62
7
  6
CONTINUOUS
 10
122.1981597724
 20
156.899779613
 40
6.2
 50
53.4720233908
 51
67.941128844
  0
ARC
  8
0
 62
7
  6
CONTINUOUS
 10
122.1981597724
 20
156.899779613
 40
6.2
 50
44.162
 51
51.4852216069
  0
ARC
  8
0
 62
7
  6
CONTINUOUS
 10
113.9699763798
 20
156.4266292414
 40
2.0
 50
108.6723979408
 51
160.058871156
  0
ARC
  8
0
 62
7
  6
CONTINUOUS
 10
100.831667965
 20
153.6339955786
 40
2.0
 50
43.941128844
 51
95.3276020592
  0
ARC
  8
0
 62
7
  6
CONTINUOUS
 10
123.7755078779
 20
160.7923331391
 40
2.0
 50
67.941128844
 51
119.3276020592
  0
ARC
  8
0
 62
7
  6
CONTINUOUS
 10
111.0169766685
 20
153.2866695799
 40
0.8
 50
285.0354765661
 51
3.838
  0
ARC
  8
0
 62
7
  6
CONTINUOUS
 10
104.8065040898
 20
151.9665928822
 40
0.8
 50
200.162
 51
278.9645234339
  0
ARC
  8
0
 62
7
  6
CONTINUOUS
 10
95.4649227111
 20
187.0719631611
 40
4.0
 50
165.0
 51
358.8461538462
  0
ARC
  8
0
 62
7
  6
CONTINUOUS
 10
141.9664553791
 20
172.4663104613
 40
6.2
 50
68.162
 51
75.4852216069
  0
ARC
  8
0
 62
7
  6
CONTINUOUS
 10
141.9664553791
 20
172.4663104613
 40
6.2
 50
77.4720233908
 51
91.941128844
  0
ARC
  8
0
 62
7
  6
CONTINUOUS
 10
138.8315491767
 20
168.9846444001
 40
6.2
 50
200.5147783931
 51
207.838
  0
ARC
  8
0
 62
7
  6
CONTINUOUS
 10
138.8315491767
 20
168.9846444001
 40
6.2
 50
184.058871156
 51
198.5279766092
  0
ARC
  8
0
 62
7
  6
CONTINUOUS
 10
141.8241904219
 20
176.6639003272
 40
2.0
 50
91.941128844
 51
143.3276020592
  0
ARC
  8
0
 62
7
  6
CONTINUOUS
 10
134.64208341
 20
168.6873623969
 40
2.0
 50
132.6723979408
 51
184.058871156
  0
ARC
  8
0
 62
7
  6
CONTINUOUS
 10
145.722996614
 20
178.5020690481
 40
0.8
 50
248.162
 51
326.9645234339
  0
ARC
  8
0
 62
7
  6
CONTINUOUS
 10
133.2215205895
 20
164.6177733214
 40
0.8
 50
309.0354765661
 51
27.838
  0
ARC
  8
0
 62
7
  6
CONTINUOUS
 10
128.0848951399
 20
160.8857964819
 40
0.8
 50
224.162
 51
302.9645234339
  0
ARC
  8
0
 62
7
  6
CONTINUOUS
 10
153.6942135345
 20
194.7275342036
 40
6.2
 50
92.162
 51
99.4852216069
  0
ARC
  8
0
 62
7
  6
CONTINUOUS
 10
153.6942135345
 20
194.7275342036
 40
6.2
 50
101.4720233908
 51
115.941128844
  0
ARC
  8
0
 62
7
  6
CONTINUOUS
 10
152.2464553791
 20
190.2717927631
 40
6.2
 50
208.058871156
 51
222.5279766092
  0
ARC
  8
0
 62
7
  6
CONTINUOUS
 10
152.2464553791
 20
190.2717927631
 40
6.2
 50
224.5147783931
 51
231.838
  0
ARC
  8
0
 62
7
  6
CONTINUOUS
 10
151.8569344179
 20
198.5043589874
 40
2.0
 50
115.941128844
 51
167.3276020592
  0
ARC
  8
0
 62
7
  6
CONTINUOUS
 10
148.540103442
 20
188.2962028973
 40
2.0
 50
156.6723979408
 51
208.058871156
  0
ARC
  8
0
 62
7
  6
CONTINUOUS
 10
154.67102053
 20
201.7693970154
 40
0.8
 50
272.162
 51
350.9645234339
  0
ARC
  8
0
 62
7
  6
CONTINUOUS
 10
155.3346945546
 20
208.0838335642
 40
0.8
 50
357.0354765661
 51
75.838
  0
ARC
  8
0
 62
7
  6
CONTINUOUS
 10
148.8976057293
 20
184.00065333
 40
0.8
 50
333.0354765661
 51
51.838
  0
ARC
  8
0
 62
7
  6
CONTINUOUS
 10
95.4649227111
 20
211.1843043995
 40
55.8
 50
96.6723979408
 51
107.3276020592
  0
ARC
  8
0
 62
7
  6
CONTINUOUS
 10
95.4649227111
 20
211.1843043995
 40
55.8
 50
72.6723979408
 51
83.3276020592
  0
ARC
  8
0
 62
7
  6
CONTINUOUS
 10
95.4649227111
 20
211.1843043995
 40
55.8
 50
120.6723979408
 51
131.3276020592
  0
ARC
  8
0
 62
7
  6
CONTINUOUS
 10
95.4649227111
 20
211.1843043995
 40
55.8
 50
144.6723979408
 51
155.3276020592
  0
ARC
  8
0
 62
7
  6
CONTINUOUS
 10
95.4649227111
 20
211.1843043995
 40
55.8
 50
168.6723979408
 51
179.3276020592
  0
ARC
  8
0
 62
7
  6
CONTINUOUS
 10
95.4649227111
 20
211.1843043995
 40
55.8
 50
192.6723979408
 51
203.3276020592
  0
ARC
  8
0
 62
7
  6
CONTINUOUS
 10
95.4649227111
 20
211.1843043995
 40
55.8
 50
48.6723979408
 51
59.3276020592
  0
ARC
  8
0
 62
7
  6
CONTINUOUS
 10
95.4649227111
 20
211.1843043995
 40
55.8
 50
216.6723979408
 51
227.3276020592
  0
ARC
  8
0
 62
7
  6
CONTINUOUS
 10
95.4649227111
 20
211.1843043995
 40
55.8
 50
240.6723979408
 51
251.3276020592
  0
ARC
  8
0
 62
7
  6
CONTINUOUS
 10
95.4649227111
 20
211.1843043995
 40
55.8
 50
24.6723979408
 51
35.3276020592
  0
ARC
  8
0
 62
7
  6
CONTINUOUS
 10
95.4649227111
 20
211.1843043995
 40
55.8
 50
264.6723979408
 51
275.3276020592
  0
ARC
  8
0
 62
7
  6
CONTINUOUS
 10
95.4649227111
 20
211.1843043995
 40
55.8
 50
288.6723979408
 51
299.3276020592
  0
ARC
  8
0
 62
7
  6
CONTINUOUS
 10
95.4649227111
 20
211.1843043995
 40
55.8
 50
0.6723979408
 51
11.3276020592
  0
ARC
  8
0
 62
7
  6
CONTINUOUS
 10
95.4649227111
 20
211.1843043995
 40
55.8
 50
312.6723979408
 51
323.3276020592
  0
ARC
  8
0
 62
7
  6
CONTINUOUS
 10
95.4649227111
 20
211.1843043995
 40
55.8
 50
336.6723979408
 51
347.3276020592
  0
CIRCLE
  8
1_AXIS
 62
7
  6
CONTINUOUS
 10
95.4649227111
 20
211.1843043995
 40
52.5
  0
ARC
  8
0
 62
7
  6
CONTINUOUS
 10
95.4649227111
 20
235.296645638
 40
4.0
 50
345.0
 51
178.8461538462
  0
ARC
  8
0
 62
7
  6
CONTINUOUS
 10
119.5772639495
 20
211.1843043995
 40
4.0
 50
255.0
 51
88.8461538462
  0
ARC
  8
0
 62
7
  6
CONTINUOUS
 10
105.7449227111
 20
270.8148099741
 40
6.2
 50
197.4720233908
 51
211.941128844
  0
ARC
  8
0
 62
7
  6
CONTINUOUS
 10
105.7449227111
 20
270.8148099741
 40
6.2
 50
188.162
 51
195.4852216069
  0
ARC
  8
0
 62
7
  6
CONTINUOUS
 10
110.3275870688
 20
269.8407345949
 40
6.2
 50
304.058871156
 51
318.5279766092
  0
ARC
  8
0
 62
7
  6
CONTINUOUS
 10
110.3275870688
 20
269.8407345949
 40
6.2
 50
320.5147783931
 51
327.838
  0
ARC
  8
0
 62
7
  6
CONTINUOUS
 10
102.1808357312
 20
268.5928099741
 40
2.0
 50
211.941128844
 51
263.3276020592
  0
ARC
  8
0
 62
7
  6
CONTINUOUS
 10
124.9503573859
 20
260.8979759802
 40
2.0
 50
187.941128844
 51
239.3276020592
  0
ARC
  8
0
 62
7
  6
CONTINUOUS
 10
112.679773719
 20
266.3611918142
 40
2.0
 50
252.6723979408
 51
304.058871156
  0
ARC
  8
0
 62
7
  6
CONTINUOUS
 10
98.6395318263
 20
271.0501908205
 40
0.8
 50
8.162
 51
86.9645234339
  0
ARC
  8
0
 62
7
  6
CONTINUOUS
 10
122.7147221257
 20
264.5832831525
 40
0.8
 50
344.162
 51
62.9645234339
  0
ARC
  8
0
 62
7
  6
CONTINUOUS
 10
116.9144226516
 20
267.1657428618
 40
0.8
 50
69.0354765661
 51
147.838
  0
ARC
  8
0
 62
7
  6
CONTINUOUS
 10
155.3535983099
 20
219.8342830177
 40
6.2
 50
116.162
 51
123.4852216069
  0
ARC
  8
0
 62
7
  6
CONTINUOUS
 10
155.3535983099
 20
219.8342830177
 40
6.2
 50
125.4720233908
 51
139.941128844
  0
ARC
  8
0
 62
7
  6
CONTINUOUS
 10
149.0002089056
 20
239.3880049928
 40
6.2
 50
256.058871156
 51
270.5279766092
  0
ARC
  8
0
 62
7
  6
CONTINUOUS
 10
149.0002089056
 20
239.3880049928
 40
6.2
 50
272.5147783931
 51
279.838
  0
ARC
  8
0
 62
7
  6
CONTINUOUS
 10
155.8433187392
 20
215.1749043723
 40
6.2
 50
232.058871156
 51
246.5279766092
  0
ARC
  8
0
 62
7
  6
CONTINUOUS
 10
155.8433187392
 20
215.1749043723
 40
6.2
 50
248.5147783931
 51
255.838
  0
ARC
  8
0
 62
7
  6
CONTINUOUS
 10
152.1389872845
 20
222.5372954031
 40
2.0
 50
139.941128844
 51
191.3276020592
  0
ARC
  8
0
 62
7
  6
CONTINUOUS
 10
147.9883247726
 20
235.3117210844
 40
2.0
 50
204.6723979408
 51
256.058871156
  0
ARC
  8
0
 62
7
  6
CONTINUOUS
 10
153.2609425528
 20
211.8626040792
 40
2.0
 50
180.6723979408
 51
232.058871156
  0
ARC
  8
0
 62
7
  6
CONTINUOUS
 10
153.3817722626
 20
226.6646480011
 40
0.8
 50
296.162
 51
14.9645234339
  0
ARC
  8
0
 62
7
  6
CONTINUOUS
 10
151.4197559284
 20
232.7031133727
 40
0.8
 50
21.0354765661
 51
99.838
  0
ARC
  8
0
 62
7
  6
CONTINUOUS
 10
129.1100816779
 20
261.4782292133
 40
6.2
 50
164.162
 51
171.4852216069
  0
ARC
  8
0
 62
7
  6
CONTINUOUS
 10
129.1100816779
 20
261.4782292133
 40
6.2
 50
173.4720233908
 51
187.941128844
  0
ARC
  8
0
 62
7
  6
CONTINUOUS
 10
146.6576870028
 20
243.4453719462
 40
6.2
 50
140.162
 51
147.4852216069
  0
ARC
  8
0
 62
7
  6
CONTINUOUS
 10
146.6576870028
 20
243.4453719462
 40
6.2
 50
149.4720233908
 51
163.941128844
  0
ARC
  8
0
 62
7
  6
CONTINUOUS
 10
132.900361736
 20
258.724429558
 40
6.2
 50
280.058871156
 51
294.5279766092
  0
ARC
  8
0
 62
7
  6
CONTINUOUS
 10
132.900361736
 20
258.724429558
 40
6.2
 50
296.5147783931
 51
303.838
  0
ARC
  8
0
 62
7
  6
CONTINUOUS
 10
142.6215795186
 20
244.6071965355
 40
2.0
 50
163.941128844
 51
215.3276020592
  0
ARC
  8
0
 62
7
  6
CONTINUOUS
 10
133.6339336158
 20
254.5889885541
 40
2.0
 50
228.6723979408
 51
280.058871156
  0
ARC
  8
0
 62
7
  6
CONTINUOUS
 10
142.0781745497
 20
248.8832069436
 40
0.8
 50
320.162
 51
38.9645234339
  0
ARC
  8
0
 62
7
  6
CONTINUOUS
 10
137.8297183051
 20
253.6015956175
 40
0.8
 50
45.0354765661
 51
123.838
  0
ARC
  8
1_AXIS
 62
7
  6
CONTINUOUS
 10
145.9649227111
 20
105.144470868
 40
2.0
 50
0.0
 51
90.0
  0
ARC
  8
1_AXIS
 62
7
  6
CONTINUOUS
 10
145.9649227111
 20
84.144470868
 40
2.0
 50
270.0
 51
360.0
  0
ARC
  8
1_AXIS
 62
7
  6
CONTINUOUS
 10
44.9649227111
 20
105.144470868
 40
2.0
 50
90.0
 51
180.0
  0
ARC
  8
1_AXIS
 62
7
  6
CONTINUOUS
 10
44.9649227111
 20
84.144470868
 40
2.0
 50
180.0
 51
270.0
  0
ARC
  8
1_AXIS
 62
7
  6
CONTINUOUS
 10
148.9649227111
 20
99.644470868
 40
1.0
 50
180.0
 51
270.0
  0
ARC
  8
1_AXIS
 62
7
  6
CONTINUOUS
 10
148.9649227111
 20
89.644470868
 40
1.0
 50
90.0
 51
180.0
  0
ARC
  8
1_AXIS
 62
7
  6
CONTINUOUS
 10
41.9649227111
 20
99.644470868
 40
1.0
 50
270.0
 51
360.0
  0
ARC
  8
1_AXIS
 62
7
  6
CONTINUOUS
 10
41.9649227111
 20
89.644470868
 40
1.0
 50
0.0
 51
90.0
  0
ENDSEC
  0
EOF
