  0
SECTION
  2
HEADER
  9
$EXTMAX
 10
210.0
 20
297.0
 30
0.0
  9
$EXTMIN
 10
0.0
 20
0.0
 30
0.0
  9
$LIMMIN
 10
0.0
 20
0.0
  9
$LIMMAX
 10
210.0
 20
297.0
  9
$VIEWCTR
 10
105.0
 20
148.5
  9
$VIEWSIZE
 40
297.0
  9
$CLAYER
  8
0
  9
$LTSCALE
 40
19.36
  9
$CELTYPE
  6
BYLAYER
  9
$DIMSCALE
 40
1.0
  9
$DIMASZ
 40
3.5
  9
$DIMEXO
 40
1.0
  9
$DIMDLI
 40
13.376
  9
$DIMEXE
 40
2.0
  9
$DIMCEN
 40
3.168
  9
$DIMLFAC
 40
1.0
  9
$DIMBLK
  1
_FILLED
  9
$DIMALT
 70
0
  9
$DIMALTF
 40
0.0393700787
  9
$DIMTXT
 40
3.5
  9
$AUNITS
 70
0
  9
$PDMODE
 70
3
  9
$PDSIZE
 40
0.3125
  9
$TILEMODE
 70
1
  0
ENDSEC
  0
SECTION
  2
TABLES
  0
TABLE
  2
LTYPE
 70
6
  0
LTYPE
  2
BYBLOCK
 70
0
  3

 72
65
 73
0
 40
0.0
  0
LTYPE
  2
BYLAYER
 70
0
  3

 72
65
 73
0
 40
0.0
  0
LTYPE
  2
CONTINUOUS
 70
64
  3
Solid line
 72
65
 73
0
 40
0.0
  0
LTYPE
  2
CENTER
 70
64
  3
____ _ ____ _ ____ _ ____ _ ____ _ ____ _ ____
 72
65
 73
4
 40
0.6
 49
0.375
 49
-0.075
 49
0.075
 49
-0.075
  0
LTYPE
  2
HIDDEN
 70
64
  3
- - - - - - - - - - - - - - - - - - - -
 72
65
 73
2
 40
0.2
 49
0.1
 49
-0.1
  0
LTYPE
  2
PHANTOM
 70
64
  3
_____ _ _ _____ _ _ _____ _ _ _____
 72
65
 73
6
 40
0.8
 49
0.45
 49
-0.05
 49
0.1
 49
-0.05
 49
0.1
 49
-0.05
  0
LTYPE
  2
DOT
 70
64
  3
. . . . . . . . . . . . . . . . . . . .
 72
65
 73
2
 40
0.2
 49
0.1
 49
-0.1
  0
LTYPE
  2
DASHED
 70
64
  3
- - - - - - - - - - - - - - - - - - - -
 72
65
 73
2
 40
0.2
 49
0.1
 49
-0.1
  0
ENDTAB
  0
TABLE
  2
LAYER
 70
36
  0
LAYER
  2
0
 70
0
 62
7
  6
CONTINUOUS
  0
LAYER
  2
DEFAULT_1
 70
0
 62
7
  6
CENTER
  0
LAYER
  2
DEFAULT_2
 70
0
 62
8
  6
HIDDEN
  0
LAYER
  2
DEFAULT_3
 70
0
 62
7
  6
PHANTOM
  0
LAYER
  2
1_AXIS
 70
0
 62
7
  6
CONTINUOUS
  0
LAYER
  2
1_CSYS
 70
0
 62
7
  6
CONTINUOUS
  0
LAYER
  2
1_DATUM_PLANE
 70
0
 62
7
  6
CONTINUOUS
  0
LAYER
  2
2_FEATURE
 70
0
 62
7
  6
CONTINUOUS
  0
LAYER
  2
6_DIM
 70
0
 62
7
  6
CONTINUOUS
  0
LAYER
  2
AXES
 70
0
 62
7
  6
CONTINUOUS
  0
LAYER
  2
CSYS
 70
0
 62
7
  6
CONTINUOUS
  0
LAYER
  2
PITCH
 70
0
 62
7
  6
CONTINUOUS
  0
LAYER
  2
PLANES
 70
0
 62
7
  6
CONTINUOUS
  0
LAYER
  2
QUILTS
 70
0
 62
7
  6
CONTINUOUS
  0
LAYER
  2
SQ
 70
0
 62
7
  6
CONTINUOUS
  0
ENDTAB
  0
TABLE
  2
STYLE
 70
1
  0
STYLE
  2
STANDARD
 70
0
 40
0.0
 41
0.8
 50
0.0
 71
0
 42
0.2
  3
txt
  4

  0
STYLE
  2
TEXTSTYLE_1
 70
0
 40
0.0
 41
0.8
 50
0.0
 71
0
 42
0.2
  3
gdt
  4

  0
STYLE
  2
TEXTSTYLE_2
 70
0
 40
0.0
 41
0.6
 50
0.0
 71
0
 42
0.2
  3
txt
  4

  0
STYLE
  2
TEXTSTYLE_3
 70
0
 40
0.0
 41
1.0
 50
0.0
 71
0
 42
0.2
  3
ftb_____.ttf
  4

  0
STYLE
  2
TEXTSTYLE_4
 70
0
 40
0.0
 41
1.0
 50
0.0
 71
0
 42
0.2
  3
fti_____.ttf
  4

  0
STYLE
  2
TEXTSTYLE_5
 70
0
 40
0.0
 41
1.0
 50
0.0
 71
0
 42
0.2
  3
frutiger light.ttf
  4

  0
STYLE
  2
TEXTSTYLE_6
 70
0
 40
0.0
 41
0.7
 50
0.0
 71
0
 42
0.2
  3
txt
  4

  0
STYLE
  2
TEXTSTYLE_7
 70
0
 40
0.0
 41
0.5
 50
0.0
 71
0
 42
0.2
  3
txt
  4

  0
ENDTAB
  0
ENDSEC
  0
SECTION
  2
BLOCKS
  0
BLOCK
  8
0
 62
2
  6
CONTINUOUS
  2
UNI_LOGO2_BL1
 70
64
 10
173.5956734183
 20
35.5937998301
  0
TEXT
  8
0
 62
7
  6
CONTINUOUS
 10
164.6539584268
 20
30.6865562072
  7
TEXTSTYLE_4
 40
1.0655737705
  1
The brand for plastic modular belts and chains
 41
1.0
 72
0
  0
LINE
  8
0
 62
7
  6
CONTINUOUS
 10
149.5737418074
 20
36.1675703219
 11
149.5737418074
 21
34.0364227809
  0
LINE
  8
0
 62
7
  6
CONTINUOUS
 10
149.8628043005
 20
31.0454914852
 11
149.8628043005
 21
31.1422825445
  0
LINE
  8
0
 62
7
  6
CONTINUOUS
 10
149.5737418074
 20
31.1100188581
 11
149.6315543091
 21
30.9164367395
  0
LINE
  8
0
 62
7
  6
CONTINUOUS
 10
150.9671844304
 20
33.9544555678
 11
150.9671844304
 21
36.1675703219
  0
LINE
  8
0
 62
7
  6
CONTINUOUS
 10
151.8862417523
 20
32.1101932727
 11
151.8862417523
 21
30.5937998301
  0
LINE
  8
0
 62
7
  6
CONTINUOUS
 10
152.1753043074
 20
30.5937998301
 11
152.1753043074
 21
31.3358647082
  0
LINE
  8
0
 62
7
  6
CONTINUOUS
 10
152.1753043074
 20
31.4649194539
 11
152.1753043074
 21
32.1101932727
  0
LINE
  8
0
 62
7
  6
CONTINUOUS
 10
149.6315543091
 20
31.3036010218
 11
149.5737418074
 21
31.1100188581
  0
LINE
  8
0
 62
7
  6
CONTINUOUS
 10
149.9784292936
 20
30.8841730531
 11
149.8628043005
 21
31.0454914852
  0
LINE
  8
0
 62
7
  6
CONTINUOUS
 10
151.0768668626
 20
31.400392081
 11
151.1346793074
 21
31.3036010218
  0
LINE
  8
0
 62
7
  6
CONTINUOUS
 10
151.4237418626
 20
31.3036010218
 11
151.3659292523
 21
31.4326557675
  0
LINE
  8
0
 62
7
  6
CONTINUOUS
 10
152.852430332
 20
36.1675703219
 11
152.852430332
 21
34.3642916334
  0
LINE
  8
0
 62
7
  6
CONTINUOUS
 10
152.852430332
 20
33.0528162235
 11
152.852430332
 21
32.3970785186
  0
LINE
  8
0
 62
7
  6
CONTINUOUS
 10
153.2159293074
 20
31.2390736489
 11
153.2159293074
 21
30.5937998301
  0
LINE
  8
0
 62
7
  6
CONTINUOUS
 10
153.5049916972
 20
30.5937998301
 11
153.5049916972
 21
31.2390736489
  0
LINE
  8
0
 62
7
  6
CONTINUOUS
 10
149.8628043005
 20
31.1422825445
 11
149.9206168074
 21
31.2713373354
  0
LINE
  8
0
 62
7
  6
CONTINUOUS
 10
149.6315543091
 20
30.9164367395
 11
149.7471793074
 21
30.7873819712
  0
LINE
  8
0
 62
7
  6
CONTINUOUS
 10
153.1581166972
 20
31.3681283946
 11
153.2159293074
 21
31.2390736489
  0
LINE
  8
0
 62
7
  6
CONTINUOUS
 10
153.9674919177
 20
30.8841730531
 11
154.0253041972
 21
30.7551182848
  0
LINE
  8
0
 62
7
  6
CONTINUOUS
 10
153.5049916972
 20
31.2390736489
 11
153.4471794177
 21
31.400392081
  0
LINE
  8
0
 62
7
  6
CONTINUOUS
 10
153.9674919177
 20
31.4326557675
 11
153.9674919177
 21
31.3681283946
  0
LINE
  8
0
 62
7
  6
CONTINUOUS
 10
153.9674919177
 20
30.9809641124
 11
153.9674919177
 21
30.8841730531
  0
LINE
  8
0
 62
7
  6
CONTINUOUS
 10
154.245872955
 20
32.3970785186
 11
154.245872955
 21
36.1675703219
  0
LINE
  8
0
 62
7
  6
CONTINUOUS
 10
154.2565543074
 20
30.8519093441
 11
154.2565543074
 21
30.9164367395
  0
LINE
  8
0
 62
7
  6
CONTINUOUS
 10
154.5737418074
 20
36.1675703219
 11
154.5737418074
 21
32.3970785186
  0
LINE
  8
0
 62
7
  6
CONTINUOUS
 10
151.3659292523
 20
30.7873819712
 11
151.4237418626
 21
30.9164367395
  0
LINE
  8
0
 62
7
  6
CONTINUOUS
 10
155.759679528
 20
30.6905909007
 11
155.7018665869
 21
30.8519093441
  0
LINE
  8
0
 62
7
  6
CONTINUOUS
 10
155.412804528
 20
31.3681283946
 11
155.412804528
 21
31.2713373354
  0
LINE
  8
0
 62
7
  6
CONTINUOUS
 10
155.412804528
 20
31.1422825445
 11
155.412804528
 21
30.9487004259
  0
LINE
  8
0
 62
7
  6
CONTINUOUS
 10
155.7018665869
 20
30.8519093441
 11
155.7018665869
 21
31.3681283946
  0
LINE
  8
0
 62
7
  6
CONTINUOUS
 10
155.9671844304
 20
32.3970785186
 11
155.9671844304
 21
34.2003572071
  0
LINE
  8
0
 62
7
  6
CONTINUOUS
 10
155.9671844304
 20
35.511832617
 11
155.9671844304
 21
36.1675703219
  0
LINE
  8
0
 62
7
  6
CONTINUOUS
 10
156.279992028
 20
32.1101932727
 11
156.279992028
 21
31.9488748406
  0
LINE
  8
0
 62
7
  6
CONTINUOUS
 10
156.279992028
 20
31.626237886
 11
156.279992028
 21
30.5937998301
  0
LINE
  8
0
 62
7
  6
CONTINUOUS
 10
156.5690540869
 20
30.5937998301
 11
156.5690540869
 21
31.626237886
  0
LINE
  8
0
 62
7
  6
CONTINUOUS
 10
156.5690540869
 20
31.9488748406
 11
156.5690540869
 21
32.1101932727
  0
LINE
  8
0
 62
7
  6
CONTINUOUS
 10
151.1346793074
 20
30.9164367395
 11
151.0768668626
 21
30.8196456577
  0
LINE
  8
0
 62
7
  6
CONTINUOUS
 10
153.4471794177
 20
31.400392081
 11
153.3893668074
 21
31.4649194539
  0
LINE
  8
0
 62
7
  6
CONTINUOUS
 10
154.3143669177
 20
30.7873819712
 11
154.2565543074
 21
30.8519093441
  0
LINE
  8
0
 62
7
  6
CONTINUOUS
 10
155.4706168074
 20
30.6583272086
 11
155.5284290869
 21
30.5937998301
  0
LINE
  8
0
 62
7
  6
CONTINUOUS
 10
155.412804528
 20
30.7551182848
 11
155.4706168074
 21
30.6583272086
  0
LINE
  8
0
 62
7
  6
CONTINUOUS
 10
155.8174918074
 20
30.5937998301
 11
155.759679528
 21
30.6905909007
  0
LINE
  8
0
 62
7
  6
CONTINUOUS
 10
155.7018665869
 20
31.3681283946
 11
155.6440543074
 21
31.4649194539
  0
LINE
  8
0
 62
7
  6
CONTINUOUS
 10
157.0315543074
 20
31.626237886
 11
157.0315543074
 21
30.5937998301
  0
LINE
  8
0
 62
7
  6
CONTINUOUS
 10
157.320617028
 20
30.5937998301
 11
157.320617028
 21
31.3358647082
  0
LINE
  8
0
 62
7
  6
CONTINUOUS
 10
157.320617028
 20
31.4649194539
 11
157.320617028
 21
31.626237886
  0
LINE
  8
0
 62
7
  6
CONTINUOUS
 10
157.852430332
 20
34.6101932727
 11
157.852430332
 21
32.3970785186
  0
LINE
  8
0
 62
7
  6
CONTINUOUS
 10
149.7471793074
 20
31.4326557675
 11
149.6315543091
 21
31.3036010218
  0
LINE
  8
0
 62
7
  6
CONTINUOUS
 10
149.9206168074
 20
31.2713373354
 11
149.9784292936
 21
31.3358647082
  0
LINE
  8
0
 62
7
  6
CONTINUOUS
 10
149.7471793074
 20
30.7873819712
 11
149.8628043005
 21
30.7228545871
  0
LINE
  8
0
 62
7
  6
CONTINUOUS
 10
150.1518667936
 20
30.7873819712
 11
149.9784292936
 21
30.8841730531
  0
LINE
  8
0
 62
7
  6
CONTINUOUS
 10
155.3549915869
 20
31.4326557675
 11
155.412804528
 21
31.3681283946
  0
LINE
  8
0
 62
7
  6
CONTINUOUS
 10
158.3034290869
 20
31.3681283946
 11
158.361242028
 21
31.2068099625
  0
LINE
  8
0
 62
7
  6
CONTINUOUS
 10
158.6503040869
 20
31.2068099625
 11
158.5924918074
 21
31.3681283946
  0
LINE
  8
0
 62
7
  6
CONTINUOUS
 10
158.361242028
 20
31.2068099625
 11
158.361242028
 21
30.5937998301
  0
LINE
  8
0
 62
7
  6
CONTINUOUS
 10
158.6503040869
 20
30.5937998301
 11
158.6503040869
 21
31.2068099625
  0
LINE
  8
0
 62
7
  6
CONTINUOUS
 10
159.1128043074
 20
31.4326557675
 11
159.1128043074
 21
31.3681283946
  0
LINE
  8
0
 62
7
  6
CONTINUOUS
 10
159.245872955
 20
32.3970785186
 11
159.245872955
 21
34.5282260596
  0
LINE
  8
0
 62
7
  6
CONTINUOUS
 10
159.5737418074
 20
36.1675703219
 11
159.5737418074
 21
32.3970785186
  0
LINE
  8
0
 62
7
  6
CONTINUOUS
 10
154.2565543074
 20
30.9164367395
 11
154.3143669177
 21
31.0132277988
  0
LINE
  8
0
 62
7
  6
CONTINUOUS
 10
149.8628043005
 20
30.7228545871
 11
150.0362418212
 21
30.6583272086
  0
LINE
  8
0
 62
7
  6
CONTINUOUS
 10
151.3659292523
 20
31.4326557675
 11
151.1924917523
 21
31.5294468267
  0
LINE
  8
0
 62
7
  6
CONTINUOUS
 10
154.0253041972
 20
30.7551182848
 11
154.1987416972
 21
30.6583272086
  0
LINE
  8
0
 62
7
  6
CONTINUOUS
 10
153.0424918074
 20
31.4326557675
 11
153.1581166972
 21
31.3681283946
  0
LINE
  8
0
 62
7
  6
CONTINUOUS
 10
153.3893668074
 20
31.4649194539
 11
153.2737419177
 21
31.5294468267
  0
LINE
  8
0
 62
7
  6
CONTINUOUS
 10
159.1128043074
 20
30.8519093441
 11
159.228429528
 21
30.7228545871
  0
LINE
  8
0
 62
7
  6
CONTINUOUS
 10
159.4596793074
 20
30.7873819712
 11
159.401867028
 21
30.8519093441
  0
LINE
  8
0
 62
7
  6
CONTINUOUS
 10
159.1128043074
 20
31.3681283946
 11
159.228429528
 21
31.2390736489
  0
LINE
  8
0
 62
7
  6
CONTINUOUS
 10
158.5924918074
 20
31.3681283946
 11
158.534679528
 21
31.4649194539
  0
LINE
  8
0
 62
7
  6
CONTINUOUS
 10
160.9628038663
 20
30.7873819712
 11
160.9628038663
 21
30.8519093441
  0
LINE
  8
0
 62
7
  6
CONTINUOUS
 10
160.9671844304
 20
32.3970785186
 11
160.9671844304
 21
36.1675703219
  0
LINE
  8
0
 62
7
  6
CONTINUOUS
 10
154.0253041972
 20
31.4971831403
 11
153.9674919177
 21
31.4326557675
  0
LINE
  8
0
 62
7
  6
CONTINUOUS
 10
150.9034292799
 20
31.4649194539
 11
151.0768668626
 21
31.400392081
  0
LINE
  8
0
 62
7
  6
CONTINUOUS
 10
155.6440543074
 20
31.4649194539
 11
155.5284290869
 21
31.5294468267
  0
LINE
  8
0
 62
7
  6
CONTINUOUS
 10
159.4596793074
 20
31.3036010218
 11
159.401867028
 21
31.3681283946
  0
LINE
  8
0
 62
7
  6
CONTINUOUS
 10
160.615929528
 20
30.9164367395
 11
160.6737418074
 21
30.8519093441
  0
LINE
  8
0
 62
7
  6
CONTINUOUS
 10
160.9628038663
 20
30.8519093441
 11
160.8471793074
 21
30.9809641124
  0
LINE
  8
0
 62
7
  6
CONTINUOUS
 10
160.615929528
 20
31.4326557675
 11
160.6737418074
 21
31.3681283946
  0
LINE
  8
0
 62
7
  6
CONTINUOUS
 10
160.9628038663
 20
31.3681283946
 11
160.8471793074
 21
31.4971831403
  0
LINE
  8
0
 62
7
  6
CONTINUOUS
 10
154.2565543074
 20
31.3681283946
 11
154.3143669177
 21
31.4326557675
  0
LINE
  8
0
 62
7
  6
CONTINUOUS
 10
154.0831168074
 20
31.1100188581
 11
153.9674919177
 21
30.9809641124
  0
LINE
  8
0
 62
7
  6
CONTINUOUS
 10
155.412804528
 20
30.9487004259
 11
155.3549915869
 21
30.8841730531
  0
LINE
  8
0
 62
7
  6
CONTINUOUS
 10
155.3549915869
 20
30.6905909007
 11
155.412804528
 21
30.7551182848
  0
LINE
  8
0
 62
7
  6
CONTINUOUS
 10
154.1987416972
 20
30.6583272086
 11
154.3143669177
 21
30.6260635193
  0
LINE
  8
0
 62
7
  6
CONTINUOUS
 10
151.1924917523
 20
31.5294468267
 11
150.9612418074
 21
31.5939741996
  0
LINE
  8
0
 62
7
  6
CONTINUOUS
 10
154.5456166972
 20
30.7228545871
 11
154.3143669177
 21
30.7873819712
  0
LINE
  8
0
 62
7
  6
CONTINUOUS
 10
153.2737419177
 20
31.5294468267
 11
153.1003044177
 21
31.5939741996
  0
LINE
  8
0
 62
7
  6
CONTINUOUS
 10
155.5284290869
 20
31.5294468267
 11
155.3549915869
 21
31.5939741996
  0
LINE
  8
0
 62
7
  6
CONTINUOUS
 10
158.187804528
 20
31.4326557675
 11
158.3034290869
 21
31.3681283946
  0
LINE
  8
0
 62
7
  6
CONTINUOUS
 10
158.534679528
 20
31.4649194539
 11
158.4190543074
 21
31.5294468267
  0
LINE
  8
0
 62
7
  6
CONTINUOUS
 10
150.0362418212
 20
30.6583272086
 11
150.2096793212
 21
30.6260635193
  0
LINE
  8
0
 62
7
  6
CONTINUOUS
 10
150.498741835
 20
30.7228545871
 11
150.1518667936
 21
30.7873819712
  0
LINE
  8
0
 62
7
  6
CONTINUOUS
 10
152.9268669177
 20
31.4649194539
 11
153.0424918074
 21
31.4326557675
  0
LINE
  8
0
 62
7
  6
CONTINUOUS
 10
155.239367028
 20
31.4649194539
 11
155.3549915869
 21
31.4326557675
  0
LINE
  8
0
 62
7
  6
CONTINUOUS
 10
159.575304528
 20
30.7551182848
 11
159.4596793074
 21
30.7873819712
  0
LINE
  8
0
 62
7
  6
CONTINUOUS
 10
158.0721793074
 20
31.4649194539
 11
158.187804528
 21
31.4326557675
  0
LINE
  8
0
 62
7
  6
CONTINUOUS
 10
159.228429528
 20
30.7228545871
 11
159.401867028
 21
30.6583272086
  0
LINE
  8
0
 62
7
  6
CONTINUOUS
 10
158.4190543074
 20
31.5294468267
 11
158.2456168074
 21
31.5939741996
  0
LINE
  8
0
 62
7
  6
CONTINUOUS
 10
159.6331168074
 20
31.2390736489
 11
159.4596793074
 21
31.3036010218
  0
LINE
  8
0
 62
7
  6
CONTINUOUS
 10
160.442492028
 20
30.9809641124
 11
160.615929528
 21
30.9164367395
  0
LINE
  8
0
 62
7
  6
CONTINUOUS
 10
160.8471793074
 20
31.4971831403
 11
160.6737418074
 21
31.5617105132
  0
LINE
  8
0
 62
7
  6
CONTINUOUS
 10
159.228429528
 20
31.2390736489
 11
159.4596793074
 21
31.1422825445
  0
LINE
  8
0
 62
7
  6
CONTINUOUS
 10
160.8471793074
 20
30.9809641124
 11
160.615929528
 21
31.0777551716
  0
LINE
  8
0
 62
7
  6
CONTINUOUS
 10
159.401867028
 20
31.3681283946
 11
159.4596793074
 21
31.4326557675
  0
LINE
  8
0
 62
7
  6
CONTINUOUS
 10
149.8628043005
 20
31.4971831403
 11
149.7471793074
 21
31.4326557675
  0
LINE
  8
0
 62
7
  6
CONTINUOUS
 10
149.9784292936
 20
31.3358647082
 11
150.1518667936
 21
31.4326557675
  0
LINE
  8
0
 62
7
  6
CONTINUOUS
 10
152.2909293626
 20
31.5294468267
 11
152.1753043074
 21
31.4649194539
  0
LINE
  8
0
 62
7
  6
CONTINUOUS
 10
152.1753043074
 20
31.3358647082
 11
152.2909293626
 21
31.400392081
  0
LINE
  8
0
 62
7
  6
CONTINUOUS
 10
151.1924917523
 20
30.6905909007
 11
151.3659292523
 21
30.7873819712
  0
LINE
  8
0
 62
7
  6
CONTINUOUS
 10
150.2096793212
 20
30.6260635193
 11
150.5565542799
 21
30.5937998301
  0
LINE
  8
0
 62
7
  6
CONTINUOUS
 10
154.3143669177
 20
30.6260635193
 11
154.5456166972
 21
30.5937998301
  0
LINE
  8
0
 62
7
  6
CONTINUOUS
 10
152.6956168074
 20
31.4971831403
 11
152.9268669177
 21
31.4649194539
  0
LINE
  8
0
 62
7
  6
CONTINUOUS
 10
155.0081169177
 20
31.4971831403
 11
155.239367028
 21
31.4649194539
  0
LINE
  8
0
 62
7
  6
CONTINUOUS
 10
159.4596793074
 20
31.1422825445
 11
160.442492028
 21
30.9809641124
  0
LINE
  8
0
 62
7
  6
CONTINUOUS
 10
160.615929528
 20
31.0777551716
 11
159.6331168074
 21
31.2390736489
  0
LINE
  8
0
 62
7
  6
CONTINUOUS
 10
153.1003044177
 20
31.5939741996
 11
152.9268669177
 21
31.626237886
  0
LINE
  8
0
 62
7
  6
CONTINUOUS
 10
159.401867028
 20
30.6583272086
 11
159.575304528
 21
30.6260635193
  0
LINE
  8
0
 62
7
  6
CONTINUOUS
 10
158.2456168074
 20
31.5939741996
 11
158.0721793074
 21
31.626237886
  0
LINE
  8
0
 62
7
  6
CONTINUOUS
 10
160.5003043074
 20
31.4649194539
 11
160.615929528
 21
31.4326557675
  0
LINE
  8
0
 62
7
  6
CONTINUOUS
 10
160.6737418074
 20
30.8519093441
 11
160.615929528
 21
30.7873819712
  0
LINE
  8
0
 62
7
  6
CONTINUOUS
 10
159.228429528
 20
31.5294468267
 11
159.1128043074
 21
31.4326557675
  0
LINE
  8
0
 62
7
  6
CONTINUOUS
 10
154.1409294177
 20
31.5617105132
 11
154.0253041972
 21
31.4971831403
  0
LINE
  8
0
 62
7
  6
CONTINUOUS
 10
154.1987416972
 20
31.1745462761
 11
154.0831168074
 21
31.1100188581
  0
LINE
  8
0
 62
7
  6
CONTINUOUS
 10
154.3143669177
 20
31.0132277988
 11
154.4299918074
 21
31.0777551716
  0
LINE
  8
0
 62
7
  6
CONTINUOUS
 10
151.8862417523
 20
30.5937998301
 11
152.1753043074
 21
30.5937998301
  0
LINE
  8
0
 62
7
  6
CONTINUOUS
 10
153.2159293074
 20
30.5937998301
 11
153.5049916972
 21
30.5937998301
  0
LINE
  8
0
 62
7
  6
CONTINUOUS
 10
154.5456166972
 20
30.5937998301
 11
154.8924916972
 21
30.5937998301
  0
LINE
  8
0
 62
7
  6
CONTINUOUS
 10
155.5284290869
 20
30.5937998301
 11
155.8174918074
 21
30.5937998301
  0
LINE
  8
0
 62
7
  6
CONTINUOUS
 10
156.279992028
 20
30.5937998301
 11
156.5690540869
 21
30.5937998301
  0
LINE
  8
0
 62
7
  6
CONTINUOUS
 10
157.0315543074
 20
30.5937998301
 11
157.320617028
 21
30.5937998301
  0
LINE
  8
0
 62
7
  6
CONTINUOUS
 10
158.361242028
 20
30.5937998301
 11
158.6503040869
 21
30.5937998301
  0
LINE
  8
0
 62
7
  6
CONTINUOUS
 10
159.922179528
 20
30.5937998301
 11
160.269054528
 21
30.5937998301
  0
LINE
  8
0
 62
7
  6
CONTINUOUS
 10
160.269054528
 20
30.7228545871
 11
159.922179528
 21
30.7228545871
  0
LINE
  8
0
 62
7
  6
CONTINUOUS
 10
154.8924916972
 20
30.7228545871
 11
154.5456166972
 21
30.7228545871
  0
LINE
  8
0
 62
7
  6
CONTINUOUS
 10
159.401867028
 20
30.8519093441
 11
159.1128043074
 21
30.8519093441
  0
LINE
  8
0
 62
7
  6
CONTINUOUS
 10
151.4237418626
 20
30.9164367395
 11
151.1346793074
 21
30.9164367395
  0
LINE
  8
0
 62
7
  6
CONTINUOUS
 10
150.498741835
 20
31.4971831403
 11
150.9034292799
 21
31.4649194539
  0
LINE
  8
0
 62
7
  6
CONTINUOUS
 10
150.9612418074
 20
31.5939741996
 11
150.5565542799
 21
31.626237886
  0
LINE
  8
0
 62
7
  6
CONTINUOUS
 10
159.575304528
 20
30.6260635193
 11
159.922179528
 21
30.5937998301
  0
LINE
  8
0
 62
7
  6
CONTINUOUS
 10
159.922179528
 20
30.7228545871
 11
159.575304528
 21
30.7551182848
  0
LINE
  8
0
 62
7
  6
CONTINUOUS
 10
155.3549915869
 20
31.5939741996
 11
155.0081169177
 21
31.626237886
  0
LINE
  8
0
 62
7
  6
CONTINUOUS
 10
160.1534293074
 20
31.4971831403
 11
160.5003043074
 21
31.4649194539
  0
LINE
  8
0
 62
7
  6
CONTINUOUS
 10
160.5003043074
 20
31.5939741996
 11
160.1534293074
 21
31.626237886
  0
LINE
  8
0
 62
7
  6
CONTINUOUS
 10
157.840929528
 20
31.4971831403
 11
158.0721793074
 21
31.4649194539
  0
LINE
  8
0
 62
7
  6
CONTINUOUS
 10
160.6737418074
 20
31.5617105132
 11
160.5003043074
 21
31.5939741996
  0
LINE
  8
0
 62
7
  6
CONTINUOUS
 10
160.8471793074
 20
30.6905909007
 11
160.9628038663
 21
30.7873819712
  0
LINE
  8
0
 62
7
  6
CONTINUOUS
 10
155.3549915869
 20
30.8841730531
 11
155.1815540869
 21
30.7873819712
  0
LINE
  8
0
 62
7
  6
CONTINUOUS
 10
157.4362415869
 20
31.5294468267
 11
157.320617028
 21
31.4649194539
  0
LINE
  8
0
 62
7
  6
CONTINUOUS
 10
157.320617028
 20
31.3358647082
 11
157.4362415869
 21
31.400392081
  0
LINE
  8
0
 62
7
  6
CONTINUOUS
 10
150.0362418212
 20
31.5617105132
 11
149.8628043005
 21
31.4971831403
  0
LINE
  8
0
 62
7
  6
CONTINUOUS
 10
152.4643666972
 20
31.5939741996
 11
152.2909293626
 21
31.5294468267
  0
LINE
  8
0
 62
7
  6
CONTINUOUS
 10
152.2909293626
 20
31.400392081
 11
152.4643666972
 21
31.4649194539
  0
LINE
  8
0
 62
7
  6
CONTINUOUS
 10
151.0768668626
 20
30.8196456577
 11
150.9034292799
 21
30.7551182848
  0
LINE
  8
0
 62
7
  6
CONTINUOUS
 10
160.5003043074
 20
30.7551182848
 11
160.269054528
 21
30.7228545871
  0
LINE
  8
0
 62
7
  6
CONTINUOUS
 10
154.8924916972
 20
30.5937998301
 11
155.1815540869
 21
30.6260635193
  0
LINE
  8
0
 62
7
  6
CONTINUOUS
 10
160.269054528
 20
30.5937998301
 11
160.615929528
 21
30.6260635193
  0
LINE
  8
0
 62
7
  6
CONTINUOUS
 10
150.5565542799
 20
30.5937998301
 11
150.9612418074
 21
30.6260635193
  0
LINE
  8
0
 62
7
  6
CONTINUOUS
 10
150.9034292799
 20
30.7551182848
 11
150.498741835
 21
30.7228545871
  0
LINE
  8
0
 62
7
  6
CONTINUOUS
 10
154.7768668074
 20
31.1422825445
 11
155.412804528
 21
31.1422825445
  0
LINE
  8
0
 62
7
  6
CONTINUOUS
 10
155.412804528
 20
31.2713373354
 11
154.7768668074
 21
31.2713373354
  0
LINE
  8
0
 62
7
  6
CONTINUOUS
 10
151.1346793074
 20
31.3036010218
 11
151.4237418626
 21
31.3036010218
  0
LINE
  8
0
 62
7
  6
CONTINUOUS
 10
153.9674919177
 20
31.3681283946
 11
154.2565543074
 21
31.3681283946
  0
LINE
  8
0
 62
7
  6
CONTINUOUS
 10
160.6737418074
 20
31.3681283946
 11
160.9628038663
 21
31.3681283946
  0
LINE
  8
0
 62
7
  6
CONTINUOUS
 10
154.6612419177
 20
31.4971831403
 11
155.0081169177
 21
31.4971831403
  0
LINE
  8
0
 62
7
  6
CONTINUOUS
 10
159.8065543074
 20
31.4971831403
 11
160.1534293074
 21
31.4971831403
  0
LINE
  8
0
 62
7
  6
CONTINUOUS
 10
160.1534293074
 20
31.626237886
 11
159.8065543074
 21
31.626237886
  0
LINE
  8
0
 62
7
  6
CONTINUOUS
 10
158.0721793074
 20
31.626237886
 11
157.840929528
 21
31.626237886
  0
LINE
  8
0
 62
7
  6
CONTINUOUS
 10
157.320617028
 20
31.626237886
 11
157.0315543074
 21
31.626237886
  0
LINE
  8
0
 62
7
  6
CONTINUOUS
 10
156.5690540869
 20
31.626237886
 11
156.279992028
 21
31.626237886
  0
LINE
  8
0
 62
7
  6
CONTINUOUS
 10
155.0081169177
 20
31.626237886
 11
154.6612419177
 21
31.626237886
  0
LINE
  8
0
 62
7
  6
CONTINUOUS
 10
152.9268669177
 20
31.626237886
 11
152.6956168074
 21
31.626237886
  0
LINE
  8
0
 62
7
  6
CONTINUOUS
 10
156.279992028
 20
31.9488748406
 11
156.5690540869
 21
31.9488748406
  0
LINE
  8
0
 62
7
  6
CONTINUOUS
 10
156.5690540869
 20
32.1101932727
 11
156.279992028
 21
32.1101932727
  0
LINE
  8
0
 62
7
  6
CONTINUOUS
 10
152.1753043074
 20
32.1101932727
 11
151.8862417523
 21
32.1101932727
  0
LINE
  8
0
 62
7
  6
CONTINUOUS
 10
151.2130860697
 20
32.3970785186
 11
151.6256574183
 21
32.3970785186
  0
LINE
  8
0
 62
7
  6
CONTINUOUS
 10
152.852430332
 20
32.3970785186
 11
154.245872955
 21
32.3970785186
  0
LINE
  8
0
 62
7
  6
CONTINUOUS
 10
154.5737418074
 20
32.3970785186
 11
155.9671844304
 21
32.3970785186
  0
LINE
  8
0
 62
7
  6
CONTINUOUS
 10
157.852430332
 20
32.3970785186
 11
159.245872955
 21
32.3970785186
  0
LINE
  8
0
 62
7
  6
CONTINUOUS
 10
159.5737418074
 20
32.3970785186
 11
160.9671844304
 21
32.3970785186
  0
LINE
  8
0
 62
7
  6
CONTINUOUS
 10
157.6096790869
 20
31.5939741996
 11
157.4362415869
 21
31.5294468267
  0
LINE
  8
0
 62
7
  6
CONTINUOUS
 10
155.1815540869
 20
30.6260635193
 11
155.3549915869
 21
30.6905909007
  0
LINE
  8
0
 62
7
  6
CONTINUOUS
 10
160.615929528
 20
30.6260635193
 11
160.8471793074
 21
30.6905909007
  0
LINE
  8
0
 62
7
  6
CONTINUOUS
 10
160.615929528
 20
30.7873819712
 11
160.5003043074
 21
30.7551182848
  0
LINE
  8
0
 62
7
  6
CONTINUOUS
 10
159.575304528
 20
31.4649194539
 11
159.8065543074
 21
31.4971831403
  0
LINE
  8
0
 62
7
  6
CONTINUOUS
 10
157.6096790869
 20
31.4649194539
 11
157.840929528
 21
31.4971831403
  0
LINE
  8
0
 62
7
  6
CONTINUOUS
 10
154.5456166972
 20
31.1100188581
 11
154.7768668074
 21
31.1422825445
  0
LINE
  8
0
 62
7
  6
CONTINUOUS
 10
157.840929528
 20
31.626237886
 11
157.6096790869
 21
31.5939741996
  0
LINE
  8
0
 62
7
  6
CONTINUOUS
 10
154.4299918074
 20
31.4649194539
 11
154.6612419177
 21
31.4971831403
  0
LINE
  8
0
 62
7
  6
CONTINUOUS
 10
159.8065543074
 20
31.626237886
 11
159.4596793074
 21
31.5939741996
  0
LINE
  8
0
 62
7
  6
CONTINUOUS
 10
154.7768668074
 20
31.2713373354
 11
154.4299918074
 21
31.2390736489
  0
LINE
  8
0
 62
7
  6
CONTINUOUS
 10
150.5565542799
 20
31.626237886
 11
150.2096793212
 21
31.5939741996
  0
LINE
  8
0
 62
7
  6
CONTINUOUS
 10
154.6612419177
 20
31.626237886
 11
154.2565543074
 21
31.5939741996
  0
LINE
  8
0
 62
7
  6
CONTINUOUS
 10
152.0327582009
 20
33.5446195022
 11
151.3770204959
 21
33.5446195022
  0
LINE
  8
0
 62
7
  6
CONTINUOUS
 10
157.4362415869
 20
31.400392081
 11
157.6096790869
 21
31.4649194539
  0
LINE
  8
0
 62
7
  6
CONTINUOUS
 10
159.4596793074
 20
31.4326557675
 11
159.575304528
 21
31.4649194539
  0
LINE
  8
0
 62
7
  6
CONTINUOUS
 10
159.4596793074
 20
31.5939741996
 11
159.228429528
 21
31.5294468267
  0
LINE
  8
0
 62
7
  6
CONTINUOUS
 10
155.1815540869
 20
30.7873819712
 11
154.8924916972
 21
30.7228545871
  0
LINE
  8
0
 62
7
  6
CONTINUOUS
 10
152.4643666972
 20
31.4649194539
 11
152.6956168074
 21
31.4971831403
  0
LINE
  8
0
 62
7
  6
CONTINUOUS
 10
152.6956168074
 20
31.626237886
 11
152.4643666972
 21
31.5939741996
  0
LINE
  8
0
 62
7
  6
CONTINUOUS
 10
150.2674918074
 20
31.4649194539
 11
150.498741835
 21
31.4971831403
  0
LINE
  8
0
 62
7
  6
CONTINUOUS
 10
156.7868565615
 20
35.0200293383
 11
157.4425942664
 21
35.0200293383
  0
LINE
  8
0
 62
7
  6
CONTINUOUS
 10
154.4299918074
 20
31.0777551716
 11
154.5456166972
 21
31.1100188581
  0
LINE
  8
0
 62
7
  6
CONTINUOUS
 10
154.4299918074
 20
31.2390736489
 11
154.1987416972
 21
31.1745462761
  0
LINE
  8
0
 62
7
  6
CONTINUOUS
 10
154.3143669177
 20
31.4326557675
 11
154.4299918074
 21
31.4649194539
  0
LINE
  8
0
 62
7
  6
CONTINUOUS
 10
150.9612418074
 20
30.6260635193
 11
151.1924917523
 21
30.6905909007
  0
LINE
  8
0
 62
7
  6
CONTINUOUS
 10
154.2565543074
 20
31.5939741996
 11
154.1409294177
 21
31.5617105132
  0
LINE
  8
0
 62
7
  6
CONTINUOUS
 10
150.2096793212
 20
31.5939741996
 11
150.0362418212
 21
31.5617105132
  0
LINE
  8
0
 62
7
  6
CONTINUOUS
 10
160.9671844304
 20
36.1675703219
 11
159.5737418074
 21
36.1675703219
  0
LINE
  8
0
 62
7
  6
CONTINUOUS
 10
157.6065286927
 20
36.1675703219
 11
157.1939573441
 21
36.1675703219
  0
LINE
  8
0
 62
7
  6
CONTINUOUS
 10
155.9671844304
 20
36.1675703219
 11
154.5737418074
 21
36.1675703219
  0
LINE
  8
0
 62
7
  6
CONTINUOUS
 10
154.245872955
 20
36.1675703219
 11
152.852430332
 21
36.1675703219
  0
LINE
  8
0
 62
7
  6
CONTINUOUS
 10
150.9671844304
 20
36.1675703219
 11
149.5737418074
 21
36.1675703219
  0
LINE
  8
0
 62
7
  6
CONTINUOUS
 10
150.1518667936
 20
31.4326557675
 11
150.2674918074
 21
31.4649194539
  0
CIRCLE
  8
0
 62
7
  6
CONTINUOUS
 10
160.2704631189
 20
38.5036358957
 40
2.0901639344
  0
ARC
  8
0
 62
7
  6
CONTINUOUS
 10
151.2130860697
 20
34.0364227809
 40
1.6393442623
 50
180.0
 51
270.0
  0
ARC
  8
0
 62
7
  6
CONTINUOUS
 10
157.6065286927
 20
34.5282260596
 40
1.6393442623
 50
0.0
 51
90.0
  0
ARC
  8
0
 62
7
  6
CONTINUOUS
 10
151.6256574183
 20
33.8724883547
 40
1.4754098361
 50
270.0
 51
326.2510114041
  0
ARC
  8
0
 62
7
  6
CONTINUOUS
 10
157.1939573441
 20
34.6921604858
 40
1.4754098361
 50
90.0
 51
146.2510114041
  0
ARC
  8
0
 62
7
  6
CONTINUOUS
 10
152.0327582009
 20
34.3642916334
 40
0.8196721311
 50
270.0
 51
360.0
  0
ARC
  8
0
 62
7
  6
CONTINUOUS
 10
156.7868565615
 20
34.2003572071
 40
0.8196721311
 50
90.0
 51
180.0
  0
ARC
  8
0
 62
7
  6
CONTINUOUS
 10
151.3770204959
 20
33.9544555678
 40
0.4098360656
 50
180.0
 51
270.0
  0
ARC
  8
0
 62
7
  6
CONTINUOUS
 10
157.4425942664
 20
34.6101932727
 40
0.4098360656
 50
0.0
 51
90.0
  0
SOLID
  8
0
 62
7
  6
CONTINUOUS
 10
156.279992028
 20
31.9488752009
 11
156.279992028
 21
32.1101936845
 12
156.5690540869
 22
31.9488752009
 13
156.5690540869
 23
32.1101936845
  0
SOLID
  8
0
 62
7
  6
CONTINUOUS
 10
150.5565542799
 20
31.6262382337
 11
150.9612418074
 21
31.5939740028
 12
150.2096793212
 22
31.5939740028
 13
150.2096793212
 23
31.5939740028
  0
SOLID
  8
0
 62
7
  6
CONTINUOUS
 10
150.0362418212
 20
31.5617111435
 11
150.2096793212
 21
31.5939740028
 12
150.9612418074
 22
31.5939740028
 13
150.9612418074
 23
31.5939740028
  0
SOLID
  8
0
 62
7
  6
CONTINUOUS
 10
150.9612418074
 20
31.5939740028
 11
151.1924917523
 21
31.5294468402
 12
150.0362418212
 22
31.5617111435
 13
150.0362418212
 23
31.5617111435
  0
SOLID
  8
0
 62
7
  6
CONTINUOUS
 10
149.8628043005
 20
31.49718259
 11
150.0362418212
 21
31.5617111435
 12
151.1924917523
 22
31.5294468402
 13
151.1924917523
 23
31.5294468402
  0
SOLID
  8
0
 62
7
  6
CONTINUOUS
 10
149.8628043005
 20
31.49718259
 11
151.1924917523
 21
31.5294468402
 12
150.498741835
 22
31.49718259
 13
150.498741835
 23
31.49718259
  0
SOLID
  8
0
 62
7
  6
CONTINUOUS
 10
150.498741835
 20
31.49718259
 11
151.1924917523
 21
31.5294468402
 12
150.9034292799
 22
31.4649197501
 13
150.9034292799
 23
31.4649197501
  0
SOLID
  8
0
 62
7
  6
CONTINUOUS
 10
151.1924917523
 20
31.5294468402
 11
151.3659292523
 21
31.4326554468
 12
150.9034292799
 22
31.4649197501
 13
150.9034292799
 23
31.4649197501
  0
SOLID
  8
0
 62
7
  6
CONTINUOUS
 10
151.0768668626
 20
31.4003926599
 11
150.9034292799
 21
31.4649197501
 12
151.3659292523
 22
31.4326554468
 13
151.3659292523
 23
31.4326554468
  0
SOLID
  8
0
 62
7
  6
CONTINUOUS
 10
151.0768668626
 20
31.4003926599
 11
151.3659292523
 21
31.4326554468
 12
151.1346793074
 22
31.3036013776
 13
151.1346793074
 23
31.3036013776
  0
SOLID
  8
0
 62
7
  6
CONTINUOUS
 10
151.3659292523
 20
31.4326554468
 11
151.4237418626
 21
31.3036013776
 12
151.1346793074
 22
31.3036013776
 13
151.1346793074
 23
31.3036013776
  0
SOLID
  8
0
 62
7
  6
CONTINUOUS
 10
152.4643666972
 20
31.5939739754
 11
152.6956168074
 21
31.6262382787
 12
152.9268669177
 22
31.6262382787
 13
152.9268669177
 23
31.6262382787
  0
SOLID
  8
0
 62
7
  6
CONTINUOUS
 10
152.9268669177
 20
31.6262382787
 11
153.1003044177
 21
31.5939739754
 12
152.4643666972
 22
31.5939739754
 13
152.4643666972
 23
31.5939739754
  0
SOLID
  8
0
 62
7
  6
CONTINUOUS
 10
152.2909293626
 20
31.5294468852
 11
152.4643666972
 21
31.5939739754
 12
153.1003044177
 22
31.5939739754
 13
153.1003044177
 23
31.5939739754
  0
SOLID
  8
0
 62
7
  6
CONTINUOUS
 10
153.1003044177
 20
31.5939739754
 11
153.2737419177
 21
31.5294468852
 12
152.2909293626
 22
31.5294468852
 13
152.2909293626
 23
31.5294468852
  0
SOLID
  8
0
 62
7
  6
CONTINUOUS
 10
153.2737419177
 20
31.5294468852
 11
152.6956168074
 21
31.4971825369
 12
152.2909293626
 22
31.5294468852
 13
152.2909293626
 23
31.5294468852
  0
SOLID
  8
0
 62
7
  6
CONTINUOUS
 10
152.1753043074
 20
31.4649197951
 11
152.2909293626
 21
31.5294468852
 12
152.6956168074
 22
31.4971825369
 13
152.6956168074
 23
31.4971825369
  0
SOLID
  8
0
 62
7
  6
CONTINUOUS
 10
152.6956168074
 20
31.4971825369
 11
152.4643666972
 21
31.4649197951
 12
152.1753043074
 22
31.4649197951
 13
152.1753043074
 23
31.4649197951
  0
SOLID
  8
0
 62
7
  6
CONTINUOUS
 10
152.6956168074
 20
31.4971825369
 11
153.2737419177
 21
31.5294468852
 12
152.9268669177
 22
31.4649197951
 13
152.9268669177
 23
31.4649197951
  0
SOLID
  8
0
 62
7
  6
CONTINUOUS
 10
153.2737419177
 20
31.5294468852
 11
153.3893668074
 21
31.4649197951
 12
152.9268669177
 22
31.4649197951
 13
152.9268669177
 23
31.4649197951
  0
SOLID
  8
0
 62
7
  6
CONTINUOUS
 10
153.0424918074
 20
31.4326554468
 11
152.9268669177
 21
31.4649197951
 12
153.3893668074
 22
31.4649197951
 13
153.3893668074
 23
31.4649197951
  0
SOLID
  8
0
 62
7
  6
CONTINUOUS
 10
153.3893668074
 20
31.4649197951
 11
153.4471794177
 21
31.4003927049
 12
153.0424918074
 22
31.4326554468
 13
153.0424918074
 23
31.4326554468
  0
SOLID
  8
0
 62
7
  6
CONTINUOUS
 10
153.1581166972
 20
31.3681283566
 11
153.0424918074
 21
31.4326554468
 12
153.4471794177
 22
31.4003927049
 13
153.4471794177
 23
31.4003927049
  0
SOLID
  8
0
 62
7
  6
CONTINUOUS
 10
153.1581166972
 20
31.3681283566
 11
153.4471794177
 21
31.4003927049
 12
153.2159293074
 22
31.2390742213
 13
153.2159293074
 23
31.2390742213
  0
SOLID
  8
0
 62
7
  6
CONTINUOUS
 10
153.4471794177
 20
31.4003927049
 11
153.5049916972
 21
31.2390742213
 12
153.2159293074
 22
31.2390742213
 13
153.2159293074
 23
31.2390742213
  0
SOLID
  8
0
 62
7
  6
CONTINUOUS
 10
152.4643666972
 20
31.4649197951
 11
152.2909293626
 21
31.4003927049
 12
152.1753043074
 22
31.4649197951
 13
152.1753043074
 23
31.4649197951
  0
SOLID
  8
0
 62
7
  6
CONTINUOUS
 10
152.2909293626
 20
31.4003927049
 11
152.1753043074
 21
31.3358640533
 12
152.1753043074
 22
31.4649197951
 13
152.1753043074
 23
31.4649197951
  0
SOLID
  8
0
 62
7
  6
CONTINUOUS
 10
152.1753043074
 20
31.3358640533
 11
151.8862417523
 21
30.5938002869
 12
152.1753043074
 22
31.4649197951
 13
152.1753043074
 23
31.4649197951
  0
SOLID
  8
0
 62
7
  6
CONTINUOUS
 10
152.1753043074
 20
31.4649197951
 11
151.8862417523
 21
30.5938002869
 12
152.1753043074
 22
32.1101937295
 13
152.1753043074
 23
32.1101937295
  0
SOLID
  8
0
 62
7
  6
CONTINUOUS
 10
151.8862417523
 20
30.5938002869
 11
151.8862417523
 21
32.1101937295
 12
152.1753043074
 22
32.1101937295
 13
152.1753043074
 23
32.1101937295
  0
SOLID
  8
0
 62
7
  6
CONTINUOUS
 10
152.1753043074
 20
31.3358640533
 11
152.1753043074
 21
30.5938002869
 12
151.8862417523
 22
30.5938002869
 13
151.8862417523
 23
30.5938002869
  0
SOLID
  8
0
 62
7
  6
CONTINUOUS
 10
153.2159293074
 20
30.5938002869
 11
153.2159293074
 21
31.2390742213
 12
153.5049916972
 22
31.2390742213
 13
153.5049916972
 23
31.2390742213
  0
SOLID
  8
0
 62
7
  6
CONTINUOUS
 10
153.5049916972
 20
31.2390742213
 11
153.5049916972
 21
30.5938002869
 12
153.2159293074
 22
30.5938002869
 13
153.2159293074
 23
30.5938002869
  0
SOLID
  8
0
 62
7
  6
CONTINUOUS
 10
154.2565543074
 20
31.5939738288
 11
154.6612419177
 21
31.6262385959
 12
155.0081169177
 22
31.6262385959
 13
155.0081169177
 23
31.6262385959
  0
SOLID
  8
0
 62
7
  6
CONTINUOUS
 10
155.0081169177
 20
31.6262385959
 11
155.3549915869
 21
31.5939738288
 12
154.2565543074
 22
31.5939738288
 13
154.2565543074
 23
31.5939738288
  0
SOLID
  8
0
 62
7
  6
CONTINUOUS
 10
154.1409294177
 20
31.5617111435
 11
154.2565543074
 21
31.5939738288
 12
155.3549915869
 22
31.5939738288
 13
155.3549915869
 23
31.5939738288
  0
SOLID
  8
0
 62
7
  6
CONTINUOUS
 10
155.3549915869
 20
31.5939738288
 11
155.5284290869
 21
31.5294468402
 12
154.1409294177
 22
31.5617111435
 13
154.1409294177
 23
31.5617111435
  0
SOLID
  8
0
 62
7
  6
CONTINUOUS
 10
154.0253041972
 20
31.4971826249
 11
154.1409294177
 21
31.5617111435
 12
155.5284290869
 22
31.5294468402
 13
155.5284290869
 23
31.5294468402
  0
SOLID
  8
0
 62
7
  6
CONTINUOUS
 10
154.0253041972
 20
31.4971826249
 11
155.5284290869
 21
31.5294468402
 12
154.6612419177
 22
31.4971826249
 13
154.6612419177
 23
31.4971826249
  0
SOLID
  8
0
 62
7
  6
CONTINUOUS
 10
154.6612419177
 20
31.4971826249
 11
155.5284290869
 21
31.5294468402
 12
155.0081169177
 22
31.4971826249
 13
155.0081169177
 23
31.4971826249
  0
SOLID
  8
0
 62
7
  6
CONTINUOUS
 10
155.0081169177
 20
31.4971826249
 11
155.5284290869
 21
31.5294468402
 12
155.239367028
 22
31.4649194065
 13
155.239367028
 23
31.4649194065
  0
SOLID
  8
0
 62
7
  6
CONTINUOUS
 10
155.5284290869
 20
31.5294468402
 11
155.6440543074
 21
31.4649194065
 12
155.239367028
 22
31.4649194065
 13
155.239367028
 23
31.4649194065
  0
SOLID
  8
0
 62
7
  6
CONTINUOUS
 10
153.9674919177
 20
31.4326554138
 11
154.0253041972
 21
31.4971826249
 12
154.6612419177
 22
31.4971826249
 13
154.6612419177
 23
31.4971826249
  0
SOLID
  8
0
 62
7
  6
CONTINUOUS
 10
155.3549915869
 20
31.4326554138
 11
155.239367028
 21
31.4649194065
 12
155.6440543074
 22
31.4649194065
 13
155.6440543074
 23
31.4649194065
  0
SOLID
  8
0
 62
7
  6
CONTINUOUS
 10
155.3549915869
 20
31.4326554138
 11
155.6440543074
 21
31.4649194065
 12
155.412804528
 22
31.3681282026
 13
155.412804528
 23
31.3681282026
  0
SOLID
  8
0
 62
7
  6
CONTINUOUS
 10
155.6440543074
 20
31.4649194065
 11
155.7018665869
 21
31.3681282026
 12
155.412804528
 22
31.3681282026
 13
155.412804528
 23
31.3681282026
  0
SOLID
  8
0
 62
7
  6
CONTINUOUS
 10
155.412804528
 20
31.2713369632
 11
155.412804528
 21
31.3681282026
 12
155.7018665869
 22
31.3681282026
 13
155.7018665869
 23
31.3681282026
  0
SOLID
  8
0
 62
7
  6
CONTINUOUS
 10
155.412804528
 20
31.2713369632
 11
155.7018665869
 21
31.3681282026
 12
155.412804528
 22
31.1422827828
 13
155.412804528
 23
31.1422827828
  0
SOLID
  8
0
 62
7
  6
CONTINUOUS
 10
155.412804528
 20
31.1422827828
 11
155.7018665869
 21
31.3681282026
 12
155.412804528
 22
30.9487004259
 13
155.412804528
 23
30.9487004259
  0
SOLID
  8
0
 62
7
  6
CONTINUOUS
 10
155.7018665869
 20
31.3681282026
 11
155.7018665869
 21
30.8519086025
 12
155.412804528
 22
30.9487004259
 13
155.412804528
 23
30.9487004259
  0
SOLID
  8
0
 62
7
  6
CONTINUOUS
 10
157.6096790869
 20
31.5939736268
 11
157.840929528
 21
31.6262383465
 12
158.0721793074
 22
31.6262383465
 13
158.0721793074
 23
31.6262383465
  0
SOLID
  8
0
 62
7
  6
CONTINUOUS
 10
158.0721793074
 20
31.6262383465
 11
158.2456168074
 21
31.5939736268
 12
157.6096790869
 22
31.5939736268
 13
157.6096790869
 23
31.5939736268
  0
SOLID
  8
0
 62
7
  6
CONTINUOUS
 10
157.4362415869
 20
31.5294472848
 11
157.6096790869
 21
31.5939736268
 12
158.2456168074
 22
31.5939736268
 13
158.2456168074
 23
31.5939736268
  0
SOLID
  8
0
 62
7
  6
CONTINUOUS
 10
158.2456168074
 20
31.5939736268
 11
158.4190543074
 21
31.5294472848
 12
157.4362415869
 22
31.5294472848
 13
157.4362415869
 23
31.5294472848
  0
SOLID
  8
0
 62
7
  6
CONTINUOUS
 10
158.4190543074
 20
31.5294472848
 11
157.840929528
 21
31.4971825369
 12
157.4362415869
 22
31.5294472848
 13
157.4362415869
 23
31.5294472848
  0
SOLID
  8
0
 62
7
  6
CONTINUOUS
 10
157.320617028
 20
31.4649199103
 11
157.4362415869
 21
31.5294472848
 12
157.840929528
 22
31.4971825369
 13
157.840929528
 23
31.4971825369
  0
SOLID
  8
0
 62
7
  6
CONTINUOUS
 10
157.840929528
 20
31.4971825369
 11
157.6096790869
 21
31.4649199103
 12
157.320617028
 22
31.4649199103
 13
157.320617028
 23
31.4649199103
  0
SOLID
  8
0
 62
7
  6
CONTINUOUS
 10
157.840929528
 20
31.4971825369
 11
158.4190543074
 21
31.5294472848
 12
158.0721793074
 22
31.4649199103
 13
158.0721793074
 23
31.4649199103
  0
SOLID
  8
0
 62
7
  6
CONTINUOUS
 10
158.4190543074
 20
31.5294472848
 11
158.534679528
 21
31.4649199103
 12
158.0721793074
 22
31.4649199103
 13
158.0721793074
 23
31.4649199103
  0
SOLID
  8
0
 62
7
  6
CONTINUOUS
 10
158.187804528
 20
31.4326554468
 11
158.0721793074
 21
31.4649199103
 12
158.534679528
 22
31.4649199103
 13
158.534679528
 23
31.4649199103
  0
SOLID
  8
0
 62
7
  6
CONTINUOUS
 10
158.187804528
 20
31.4326554468
 11
158.534679528
 21
31.4649199103
 12
158.3034290869
 22
31.3681288486
 13
158.3034290869
 23
31.3681288486
  0
SOLID
  8
0
 62
7
  6
CONTINUOUS
 10
158.534679528
 20
31.4649199103
 11
158.5924918074
 21
31.3681288486
 12
158.3034290869
 22
31.3681288486
 13
158.3034290869
 23
31.3681288486
  0
SOLID
  8
0
 62
7
  6
CONTINUOUS
 10
158.361242028
 20
31.2068093799
 11
158.3034290869
 21
31.3681288486
 12
158.5924918074
 22
31.3681288486
 13
158.5924918074
 23
31.3681288486
  0
SOLID
  8
0
 62
7
  6
CONTINUOUS
 10
158.5924918074
 20
31.3681288486
 11
158.6503040869
 21
31.2068093799
 12
158.361242028
 22
31.2068093799
 13
158.361242028
 23
31.2068093799
  0
SOLID
  8
0
 62
7
  6
CONTINUOUS
 10
157.6096790869
 20
31.4649199103
 11
157.4362415869
 21
31.4003926599
 12
157.320617028
 22
31.4649199103
 13
157.320617028
 23
31.4649199103
  0
SOLID
  8
0
 62
7
  6
CONTINUOUS
 10
157.4362415869
 20
31.4003926599
 11
157.320617028
 21
31.3358640533
 12
157.320617028
 22
31.4649199103
 13
157.320617028
 23
31.4649199103
  0
SOLID
  8
0
 62
7
  6
CONTINUOUS
 10
157.320617028
 20
31.3358640533
 11
157.0315543074
 21
30.5938003547
 12
157.320617028
 22
31.4649199103
 13
157.320617028
 23
31.4649199103
  0
SOLID
  8
0
 62
7
  6
CONTINUOUS
 10
157.320617028
 20
31.4649199103
 11
157.0315543074
 21
30.5938003547
 12
157.320617028
 22
31.6262383465
 13
157.320617028
 23
31.6262383465
  0
SOLID
  8
0
 62
7
  6
CONTINUOUS
 10
157.0315543074
 20
30.5938003547
 11
157.0315543074
 21
31.6262383465
 12
157.320617028
 22
31.6262383465
 13
157.320617028
 23
31.6262383465
  0
SOLID
  8
0
 62
7
  6
CONTINUOUS
 10
157.320617028
 20
31.3358640533
 11
157.320617028
 21
30.5938003547
 12
157.0315543074
 22
30.5938003547
 13
157.0315543074
 23
30.5938003547
  0
SOLID
  8
0
 62
7
  6
CONTINUOUS
 10
158.361242028
 20
30.5938003547
 11
158.361242028
 21
31.2068093799
 12
158.6503040869
 22
31.2068093799
 13
158.6503040869
 23
31.2068093799
  0
SOLID
  8
0
 62
7
  6
CONTINUOUS
 10
158.6503040869
 20
31.2068093799
 11
158.6503040869
 21
30.5938003547
 12
158.361242028
 22
30.5938003547
 13
158.361242028
 23
30.5938003547
  0
SOLID
  8
0
 62
7
  6
CONTINUOUS
 10
159.4596793074
 20
31.5939739474
 11
159.8065543074
 21
31.6262381969
 12
160.1534293074
 22
31.6262381969
 13
160.1534293074
 23
31.6262381969
  0
SOLID
  8
0
 62
7
  6
CONTINUOUS
 10
160.1534293074
 20
31.6262381969
 11
160.5003043074
 21
31.5939739474
 12
159.4596793074
 22
31.5939739474
 13
159.4596793074
 23
31.5939739474
  0
SOLID
  8
0
 62
7
  6
CONTINUOUS
 10
159.228429528
 20
31.5294468402
 11
159.4596793074
 21
31.5939739474
 12
160.5003043074
 22
31.5939739474
 13
160.5003043074
 23
31.5939739474
  0
SOLID
  8
0
 62
7
  6
CONTINUOUS
 10
159.228429528
 20
31.5294468402
 11
160.5003043074
 21
31.5939739304
 12
160.6737418074
 22
31.5617111435
 13
160.6737418074
 23
31.5617111435
  0
SOLID
  8
0
 62
7
  6
CONTINUOUS
 10
159.228429528
 20
31.5294468402
 11
160.6737418074
 21
31.5617111435
 12
159.8065543074
 22
31.4971825592
 13
159.8065543074
 23
31.4971825592
  0
SOLID
  8
0
 62
7
  6
CONTINUOUS
 10
159.8065543074
 20
31.4971825592
 11
160.6737418074
 21
31.5617111435
 12
160.1534293074
 22
31.4971825592
 13
160.1534293074
 23
31.4971825592
  0
SOLID
  8
0
 62
7
  6
CONTINUOUS
 10
160.6737418074
 20
31.5617111435
 11
160.8471793074
 21
31.4971825592
 12
160.1534293074
 22
31.4971825592
 13
160.1534293074
 23
31.4971825592
  0
SOLID
  8
0
 62
7
  6
CONTINUOUS
 10
160.5003043074
 20
31.4649197501
 11
160.1534293074
 21
31.4971825592
 12
160.8471793074
 22
31.4971825592
 13
160.8471793074
 23
31.4971825592
  0
SOLID
  8
0
 62
7
  6
CONTINUOUS
 10
159.1128043074
 20
31.4326555427
 11
159.228429528
 21
31.5294468402
 12
159.8065543074
 22
31.4971825592
 13
159.8065543074
 23
31.4971825592
  0
SOLID
  8
0
 62
7
  6
CONTINUOUS
 10
160.5003043074
 20
31.4649197501
 11
160.8471793074
 21
31.4971825592
 12
160.615929528
 22
31.4326555427
 13
160.615929528
 23
31.4326555427
  0
SOLID
  8
0
 62
7
  6
CONTINUOUS
 10
160.615929528
 20
31.4326555427
 11
160.8471793074
 21
31.4971825592
 12
160.6737418074
 22
31.3681283005
 13
160.6737418074
 23
31.3681283005
  0
SOLID
  8
0
 62
7
  6
CONTINUOUS
 10
160.8471793074
 20
31.4971825592
 11
160.9628038663
 21
31.3681283005
 12
160.6737418074
 22
31.3681283005
 13
160.6737418074
 23
31.3681283005
  0
SOLID
  8
0
 62
7
  6
CONTINUOUS
 10
150.2674918074
 20
31.4649197501
 11
149.7471793074
 21
31.4326554237
 12
150.498741835
 22
31.4971824493
 13
150.498741835
 23
31.4971824493
  0
SOLID
  8
0
 62
7
  6
CONTINUOUS
 10
149.7471793074
 20
31.4326554237
 11
149.8628043005
 21
31.4971824493
 12
150.498741835
 22
31.4971824493
 13
150.498741835
 23
31.4971824493
  0
SOLID
  8
0
 62
7
  6
CONTINUOUS
 10
150.2674918074
 20
31.4649197501
 11
150.1518667936
 21
31.4326554237
 12
149.7471793074
 22
31.4326554237
 13
149.7471793074
 23
31.4326554237
  0
SOLID
  8
0
 62
7
  6
CONTINUOUS
 10
149.6315543091
 20
31.3036012664
 11
149.7471793074
 21
31.4326554237
 12
150.1518667936
 22
31.4326554237
 13
150.1518667936
 23
31.4326554237
  0
SOLID
  8
0
 62
7
  6
CONTINUOUS
 10
153.9674919177
 20
31.4326554237
 11
154.6612419177
 21
31.4971825369
 12
154.4299918074
 22
31.4649197501
 13
154.4299918074
 23
31.4649197501
  0
SOLID
  8
0
 62
7
  6
CONTINUOUS
 10
154.4299918074
 20
31.4649197501
 11
154.3143669177
 21
31.4326554237
 12
153.9674919177
 22
31.4326554237
 13
153.9674919177
 23
31.4326554237
  0
SOLID
  8
0
 62
7
  6
CONTINUOUS
 10
153.9674919177
 20
31.3681283335
 11
153.9674919177
 21
31.4326554237
 12
154.3143669177
 22
31.4326554237
 13
154.3143669177
 23
31.4326554237
  0
SOLID
  8
0
 62
7
  6
CONTINUOUS
 10
154.3143669177
 20
31.4326554237
 11
154.2565543074
 21
31.3681283335
 12
153.9674919177
 22
31.3681283335
 13
153.9674919177
 23
31.3681283335
  0
SOLID
  8
0
 62
7
  6
CONTINUOUS
 10
159.1128043074
 20
31.4326555528
 11
159.8065543074
 21
31.4971825369
 12
159.575304528
 22
31.4649197501
 13
159.575304528
 23
31.4649197501
  0
SOLID
  8
0
 62
7
  6
CONTINUOUS
 10
159.575304528
 20
31.4649197501
 11
159.4596793074
 21
31.4326555528
 12
159.1128043074
 22
31.4326555528
 13
159.1128043074
 23
31.4326555528
  0
SOLID
  8
0
 62
7
  6
CONTINUOUS
 10
159.1128043074
 20
31.3681284626
 11
159.1128043074
 21
31.4326555528
 12
159.4596793074
 22
31.4326555528
 13
159.4596793074
 23
31.4326555528
  0
SOLID
  8
0
 62
7
  6
CONTINUOUS
 10
159.4596793074
 20
31.4326555528
 11
159.401867028
 21
31.3681284626
 12
159.1128043074
 22
31.3681284626
 13
159.1128043074
 23
31.3681284626
  0
SOLID
  8
0
 62
7
  6
CONTINUOUS
 10
159.228429528
 20
31.2390741763
 11
159.1128043074
 21
31.3681284626
 12
159.401867028
 22
31.3681284626
 13
159.401867028
 23
31.3681284626
  0
SOLID
  8
0
 62
7
  6
CONTINUOUS
 10
149.6315543091
 20
31.3036012664
 11
150.1518667936
 21
31.4326554468
 12
149.9784292936
 22
31.3358640533
 13
149.9784292936
 23
31.3358640533
  0
SOLID
  8
0
 62
7
  6
CONTINUOUS
 10
149.9784292936
 20
31.3358640533
 11
149.9206168074
 21
31.2713369632
 12
149.6315543091
 22
31.3036012664
 13
149.6315543091
 23
31.3036012664
  0
SOLID
  8
0
 62
7
  6
CONTINUOUS
 10
149.5737418074
 20
31.1100184796
 11
149.6315543091
 21
31.3036012664
 12
149.9206168074
 22
31.2713369632
 13
149.9206168074
 23
31.2713369632
  0
SOLID
  8
0
 62
7
  6
CONTINUOUS
 10
154.4299918074
 20
31.2390741763
 11
154.7768668074
 21
31.271336924
 12
155.412804528
 22
31.271336924
 13
155.412804528
 23
31.271336924
  0
SOLID
  8
0
 62
7
  6
CONTINUOUS
 10
154.4299918074
 20
31.2390741763
 11
155.412804528
 21
31.271336924
 12
154.1987416972
 22
31.1745462761
 13
154.1987416972
 23
31.1745462761
  0
SOLID
  8
0
 62
7
  6
CONTINUOUS
 10
154.1987416972
 20
31.1745462761
 11
155.412804528
 21
31.271336924
 12
154.7768668074
 22
31.1422827436
 13
154.7768668074
 23
31.1422827436
  0
SOLID
  8
0
 62
7
  6
CONTINUOUS
 10
155.412804528
 20
31.271336924
 11
155.412804528
 21
31.1422827436
 12
154.7768668074
 22
31.1422827436
 13
154.7768668074
 23
31.1422827436
  0
SOLID
  8
0
 62
7
  6
CONTINUOUS
 10
159.228429528
 20
31.2390745501
 11
159.401867028
 21
31.3681283566
 12
159.4596793074
 22
31.3036012664
 13
159.4596793074
 23
31.3036012664
  0
SOLID
  8
0
 62
7
  6
CONTINUOUS
 10
159.4596793074
 20
31.3036012664
 11
159.6331168074
 21
31.2390745501
 12
159.228429528
 22
31.2390745501
 13
159.228429528
 23
31.2390745501
  0
SOLID
  8
0
 62
7
  6
CONTINUOUS
 10
159.4596793074
 20
31.1422827828
 11
159.228429528
 21
31.2390745501
 12
159.6331168074
 22
31.2390745501
 13
159.6331168074
 23
31.2390745501
  0
SOLID
  8
0
 62
7
  6
CONTINUOUS
 10
159.6331168074
 20
31.2390745501
 11
160.615929528
 21
31.0777556927
 12
159.4596793074
 22
31.1422827828
 13
159.4596793074
 23
31.1422827828
  0
SOLID
  8
0
 62
7
  6
CONTINUOUS
 10
160.442492028
 20
30.9809646623
 11
159.4596793074
 21
31.1422827828
 12
160.615929528
 22
31.0777556927
 13
160.615929528
 23
31.0777556927
  0
SOLID
  8
0
 62
7
  6
CONTINUOUS
 10
160.615929528
 20
31.0777556927
 11
160.8471793074
 21
30.9809646623
 12
160.442492028
 22
30.9809646623
 13
160.442492028
 23
30.9809646623
  0
SOLID
  8
0
 62
7
  6
CONTINUOUS
 10
160.615929528
 20
30.9164372091
 11
160.442492028
 21
30.9809646623
 12
160.8471793074
 22
30.9809646623
 13
160.8471793074
 23
30.9809646623
  0
SOLID
  8
0
 62
7
  6
CONTINUOUS
 10
160.615929528
 20
30.9164372091
 11
160.8471793074
 21
30.9809646623
 12
160.6737418074
 22
30.8519089441
 13
160.6737418074
 23
30.8519089441
  0
SOLID
  8
0
 62
7
  6
CONTINUOUS
 10
160.8471793074
 20
30.9809646623
 11
160.9628038663
 21
30.8519089441
 12
160.6737418074
 22
30.8519089441
 13
160.6737418074
 23
30.8519089441
  0
SOLID
  8
0
 62
7
  6
CONTINUOUS
 10
160.615929528
 20
30.7873818593
 11
160.6737418074
 21
30.8519089441
 12
160.9628038663
 22
30.8519089441
 13
160.9628038663
 23
30.8519089441
  0
SOLID
  8
0
 62
7
  6
CONTINUOUS
 10
160.9628038663
 20
30.8519089441
 11
160.9628038663
 21
30.7873818593
 12
160.615929528
 22
30.7873818593
 13
160.615929528
 23
30.7873818593
  0
SOLID
  8
0
 62
7
  6
CONTINUOUS
 10
160.5003043074
 20
30.7551187255
 11
160.615929528
 21
30.7873818593
 12
160.9628038663
 22
30.7873818593
 13
160.9628038663
 23
30.7873818593
  0
SOLID
  8
0
 62
7
  6
CONTINUOUS
 10
160.5003043074
 20
30.7551187255
 11
160.9628038663
 21
30.7873818593
 12
160.269054528
 22
30.7228547745
 13
160.269054528
 23
30.7228547745
  0
SOLID
  8
0
 62
7
  6
CONTINUOUS
 10
160.9628038663
 20
30.7873818593
 11
160.8471793074
 21
30.6905916353
 12
160.269054528
 22
30.7228547745
 13
160.269054528
 23
30.7228547745
  0
SOLID
  8
0
 62
7
  6
CONTINUOUS
 10
160.8471793074
 20
30.6905916353
 11
159.401867028
 21
30.658327332
 12
160.269054528
 22
30.7228547745
 13
160.269054528
 23
30.7228547745
  0
SOLID
  8
0
 62
7
  6
CONTINUOUS
 10
160.269054528
 20
30.7228547745
 11
159.401867028
 21
30.658327332
 12
159.922179528
 22
30.7228547745
 13
159.922179528
 23
30.7228547745
  0
SOLID
  8
0
 62
7
  6
CONTINUOUS
 10
159.401867028
 20
30.658327332
 11
159.228429528
 21
30.7228547745
 12
159.922179528
 22
30.7228547745
 13
159.922179528
 23
30.7228547745
  0
SOLID
  8
0
 62
7
  6
CONTINUOUS
 10
159.401867028
 20
30.658327332
 11
160.8471793074
 21
30.6905916353
 12
159.575304528
 22
30.6260629858
 13
159.575304528
 23
30.6260629858
  0
SOLID
  8
0
 62
7
  6
CONTINUOUS
 10
160.8471793074
 20
30.6905916353
 11
160.615929528
 21
30.6260629858
 12
159.575304528
 22
30.6260629858
 13
159.575304528
 23
30.6260629858
  0
SOLID
  8
0
 62
7
  6
CONTINUOUS
 10
159.922179528
 20
30.5938006049
 11
159.575304528
 21
30.6260629858
 12
160.615929528
 22
30.6260629858
 13
160.615929528
 23
30.6260629858
  0
SOLID
  8
0
 62
7
  6
CONTINUOUS
 10
160.615929528
 20
30.6260629858
 11
160.269054528
 21
30.5938006049
 12
159.922179528
 22
30.5938006049
 13
159.922179528
 23
30.5938006049
  0
SOLID
  8
0
 62
7
  6
CONTINUOUS
 10
149.5737418074
 20
31.1100184796
 11
149.9206168074
 21
31.2713369632
 12
149.8628043005
 22
31.1422827828
 13
149.8628043005
 23
31.1422827828
  0
SOLID
  8
0
 62
7
  6
CONTINUOUS
 10
149.8628043005
 20
31.1422827828
 11
149.8628043005
 21
31.0454914852
 12
149.5737418074
 22
31.1100184796
 13
149.5737418074
 23
31.1100184796
  0
SOLID
  8
0
 62
7
  6
CONTINUOUS
 10
149.6315543091
 20
30.9164372091
 11
149.5737418074
 21
31.1100184796
 12
149.8628043005
 22
31.0454914852
 13
149.8628043005
 23
31.0454914852
  0
SOLID
  8
0
 62
7
  6
CONTINUOUS
 10
149.8628043005
 20
31.0454914852
 11
149.9784292936
 21
30.8841729058
 12
149.6315543091
 22
30.9164372091
 13
149.6315543091
 23
30.9164372091
  0
SOLID
  8
0
 62
7
  6
CONTINUOUS
 10
149.7471793074
 20
30.7873813202
 11
149.6315543091
 21
30.9164372091
 12
149.9784292936
 22
30.8841729058
 13
149.9784292936
 23
30.8841729058
  0
SOLID
  8
0
 62
7
  6
CONTINUOUS
 10
149.9784292936
 20
30.8841729058
 11
150.1518667936
 21
30.7873813202
 12
149.7471793074
 22
30.7873813202
 13
149.7471793074
 23
30.7873813202
  0
SOLID
  8
0
 62
7
  6
CONTINUOUS
 10
149.8628043005
 20
30.7228547004
 11
149.7471793074
 21
30.7873813202
 12
150.1518667936
 22
30.7873813202
 13
150.1518667936
 23
30.7873813202
  0
SOLID
  8
0
 62
7
  6
CONTINUOUS
 10
150.1518667936
 20
30.7873813202
 11
150.498741835
 21
30.7228547004
 12
149.8628043005
 22
30.7228547004
 13
149.8628043005
 23
30.7228547004
  0
SOLID
  8
0
 62
7
  6
CONTINUOUS
 10
150.0362418212
 20
30.658327332
 11
149.8628043005
 21
30.7228547004
 12
150.498741835
 22
30.7228547004
 13
150.498741835
 23
30.7228547004
  0
SOLID
  8
0
 62
7
  6
CONTINUOUS
 10
154.0831168074
 20
31.1100184386
 11
154.1987416972
 21
31.1745462761
 12
154.7768668074
 22
31.1422827828
 13
154.7768668074
 23
31.1422827828
  0
SOLID
  8
0
 62
7
  6
CONTINUOUS
 10
154.7768668074
 20
31.1422827828
 11
154.5456166972
 21
31.1100184386
 12
154.0831168074
 22
31.1100184386
 13
154.0831168074
 23
31.1100184386
  0
SOLID
  8
0
 62
7
  6
CONTINUOUS
 10
153.9674919177
 20
30.9809642992
 11
154.0831168074
 21
31.1100184386
 12
154.5456166972
 22
31.1100184386
 13
154.5456166972
 23
31.1100184386
  0
SOLID
  8
0
 62
7
  6
CONTINUOUS
 10
154.3143669177
 20
31.0132277988
 11
153.9674919177
 21
30.9809642992
 12
154.4299918074
 22
31.0777556927
 13
154.4299918074
 23
31.0777556927
  0
SOLID
  8
0
 62
7
  6
CONTINUOUS
 10
153.9674919177
 20
30.9809642992
 11
154.5456166972
 21
31.1100184796
 12
154.4299918074
 22
31.0777556927
 13
154.4299918074
 23
31.0777556927
  0
SOLID
  8
0
 62
7
  6
CONTINUOUS
 10
154.3143669177
 20
31.0132277988
 11
154.2565543074
 21
30.9164372091
 12
153.9674919177
 22
30.9809642992
 13
153.9674919177
 23
30.9809642992
  0
SOLID
  8
0
 62
7
  6
CONTINUOUS
 10
153.9674919177
 20
30.8841729058
 11
153.9674919177
 21
30.9809642992
 12
154.2565543074
 22
30.9164372091
 13
154.2565543074
 23
30.9164372091
  0
SOLID
  8
0
 62
7
  6
CONTINUOUS
 10
154.2565543074
 20
30.9164372091
 11
154.2565543074
 21
30.8519086025
 12
153.9674919177
 22
30.8841729058
 13
153.9674919177
 23
30.8841729058
  0
SOLID
  8
0
 62
7
  6
CONTINUOUS
 10
154.0253041972
 20
30.7551187255
 11
153.9674919177
 21
30.8841729058
 12
154.2565543074
 22
30.8519086025
 13
154.2565543074
 23
30.8519086025
  0
SOLID
  8
0
 62
7
  6
CONTINUOUS
 10
155.412804528
 20
30.9487004259
 11
155.7018665869
 21
30.8519086025
 12
155.3549915869
 22
30.8841729058
 13
155.3549915869
 23
30.8841729058
  0
SOLID
  8
0
 62
7
  6
CONTINUOUS
 10
155.1815540869
 20
30.7873815123
 11
155.3549915869
 21
30.8841729058
 12
155.7018665869
 22
30.8519086025
 13
155.7018665869
 23
30.8519086025
  0
SOLID
  8
0
 62
7
  6
CONTINUOUS
 10
155.1815540869
 20
30.7873815123
 11
155.7018665869
 21
30.8519086025
 12
155.412804528
 22
30.7551187255
 13
155.412804528
 23
30.7551187255
  0
SOLID
  8
0
 62
7
  6
CONTINUOUS
 10
155.7018665869
 20
30.8519086025
 11
155.759679528
 21
30.6905916353
 12
155.412804528
 22
30.7551187255
 13
155.412804528
 23
30.7551187255
  0
SOLID
  8
0
 62
7
  6
CONTINUOUS
 10
155.4706168074
 20
30.658327332
 11
155.412804528
 21
30.7551187255
 12
155.759679528
 22
30.6905916353
 13
155.759679528
 23
30.6905916353
  0
SOLID
  8
0
 62
7
  6
CONTINUOUS
 10
155.4706168074
 20
30.658327332
 11
155.759679528
 21
30.6905916353
 12
155.5284290869
 22
30.5938002079
 13
155.5284290869
 23
30.5938002079
  0
SOLID
  8
0
 62
7
  6
CONTINUOUS
 10
155.759679528
 20
30.6905916353
 11
155.8174918074
 21
30.5938002079
 12
155.5284290869
 22
30.5938002079
 13
155.5284290869
 23
30.5938002079
  0
SOLID
  8
0
 62
7
  6
CONTINUOUS
 10
151.0768668626
 20
30.8196456577
 11
151.1346793074
 21
30.9164373395
 12
151.4237418626
 22
30.9164373395
 13
151.4237418626
 23
30.9164373395
  0
SOLID
  8
0
 62
7
  6
CONTINUOUS
 10
151.4237418626
 20
30.9164373395
 11
151.3659292523
 21
30.7873815123
 12
151.0768668626
 22
30.8196456577
 13
151.0768668626
 23
30.8196456577
  0
SOLID
  8
0
 62
7
  6
CONTINUOUS
 10
150.9034292799
 20
30.7551187255
 11
151.0768668626
 21
30.8196456577
 12
151.3659292523
 22
30.7873815123
 13
151.3659292523
 23
30.7873815123
  0
SOLID
  8
0
 62
7
  6
CONTINUOUS
 10
150.9034292799
 20
30.7551187255
 11
151.3659292523
 21
30.7873815123
 12
150.498741835
 22
30.7228544222
 13
150.498741835
 23
30.7228544222
  0
SOLID
  8
0
 62
7
  6
CONTINUOUS
 10
151.3659292523
 20
30.7873815123
 11
151.1924917523
 21
30.6905916353
 12
150.498741835
 22
30.7228544222
 13
150.498741835
 23
30.7228544222
  0
SOLID
  8
0
 62
7
  6
CONTINUOUS
 10
150.0362418212
 20
30.658327332
 11
150.498741835
 21
30.7228544222
 12
151.1924917523
 22
30.6905916353
 13
151.1924917523
 23
30.6905916353
  0
SOLID
  8
0
 62
7
  6
CONTINUOUS
 10
150.0362418212
 20
30.658327332
 11
151.1924917523
 21
30.6905916353
 12
150.2096793212
 22
30.6260631011
 13
150.2096793212
 23
30.6260631011
  0
SOLID
  8
0
 62
7
  6
CONTINUOUS
 10
151.1924917523
 20
30.6905916353
 11
150.9612418074
 21
30.6260631011
 12
150.2096793212
 22
30.6260631011
 13
150.2096793212
 23
30.6260631011
  0
SOLID
  8
0
 62
7
  6
CONTINUOUS
 10
150.5565542799
 20
30.5938002419
 11
150.2096793212
 21
30.6260631011
 12
150.9612418074
 22
30.6260631011
 13
150.9612418074
 23
30.6260631011
  0
SOLID
  8
0
 62
7
  6
CONTINUOUS
 10
154.0253041972
 20
30.7551187255
 11
154.2565543074
 21
30.8519086025
 12
154.3143669177
 22
30.7873815123
 13
154.3143669177
 23
30.7873815123
  0
SOLID
  8
0
 62
7
  6
CONTINUOUS
 10
154.3143669177
 20
30.7873815123
 11
154.5456166972
 21
30.7228544222
 12
154.0253041972
 22
30.7551187255
 13
154.0253041972
 23
30.7551187255
  0
SOLID
  8
0
 62
7
  6
CONTINUOUS
 10
154.1987416972
 20
30.658327332
 11
154.0253041972
 21
30.7551187255
 12
154.5456166972
 22
30.7228544222
 13
154.5456166972
 23
30.7228544222
  0
SOLID
  8
0
 62
7
  6
CONTINUOUS
 10
154.8924916972
 20
30.7228544637
 11
155.1815540869
 21
30.7873815123
 12
155.412804528
 22
30.7551187255
 13
155.412804528
 23
30.7551187255
  0
SOLID
  8
0
 62
7
  6
CONTINUOUS
 10
155.412804528
 20
30.7551187255
 11
155.3549915869
 21
30.6905916353
 12
154.8924916972
 22
30.7228544637
 13
154.8924916972
 23
30.7228544637
  0
SOLID
  8
0
 62
7
  6
CONTINUOUS
 10
155.3549915869
 20
30.6905916353
 11
154.1987416972
 21
30.658327332
 12
154.8924916972
 22
30.7228544637
 13
154.8924916972
 23
30.7228544637
  0
SOLID
  8
0
 62
7
  6
CONTINUOUS
 10
154.1987416972
 20
30.658327332
 11
154.5456166972
 21
30.7228544637
 12
154.8924916972
 22
30.7228544637
 13
154.8924916972
 23
30.7228544637
  0
SOLID
  8
0
 62
7
  6
CONTINUOUS
 10
154.1987416972
 20
30.658327332
 11
155.3549915869
 21
30.6905916353
 12
154.3143669177
 22
30.6260630541
 13
154.3143669177
 23
30.6260630541
  0
SOLID
  8
0
 62
7
  6
CONTINUOUS
 10
155.3549915869
 20
30.6905916353
 11
155.1815540869
 21
30.6260630541
 12
154.3143669177
 22
30.6260630541
 13
154.3143669177
 23
30.6260630541
  0
SOLID
  8
0
 62
7
  6
CONTINUOUS
 10
154.5456166972
 20
30.5938002188
 11
154.3143669177
 21
30.6260630541
 12
155.1815540869
 22
30.6260630541
 13
155.1815540869
 23
30.6260630541
  0
SOLID
  8
0
 62
7
  6
CONTINUOUS
 10
155.1815540869
 20
30.6260630541
 11
154.8924916972
 21
30.5938002188
 12
154.5456166972
 22
30.5938002188
 13
154.5456166972
 23
30.5938002188
  0
SOLID
  8
0
 62
7
  6
CONTINUOUS
 10
159.575304528
 20
30.7551187255
 11
159.228429528
 21
30.7228544637
 12
159.4596793074
 22
30.7873815123
 13
159.4596793074
 23
30.7873815123
  0
SOLID
  8
0
 62
7
  6
CONTINUOUS
 10
159.4596793074
 20
30.7873815123
 11
159.228429528
 21
30.7228544637
 12
159.401867028
 22
30.851908644
 13
159.401867028
 23
30.851908644
  0
SOLID
  8
0
 62
7
  6
CONTINUOUS
 10
159.228429528
 20
30.7228544637
 11
159.1128043074
 21
30.851908644
 12
159.401867028
 22
30.851908644
 13
159.401867028
 23
30.851908644
  0
SOLID
  8
0
 62
7
  6
CONTINUOUS
 10
159.575304528
 20
30.7551187255
 11
159.922179528
 21
30.7228544637
 12
159.228429528
 22
30.7228544637
 13
159.228429528
 23
30.7228544637
  0
SOLID
  8
0
 62
7
  6
CONTINUOUS
 10
156.279992028
 20
30.5938002419
 11
156.279992028
 21
31.6262382337
 12
156.5690540869
 22
30.5938002419
 13
156.5690540869
 23
31.6262382337
  0
ENDBLK
  8
0
  6
BYBLOCK
 62
0
  0
BLOCK
  8
0
 62
2
  6
CONTINUOUS
  2
AMMEAAL_LOGO_BL0
 70
64
 10
32.1213064866
 20
19.8534310916
  0
TEXT
  8
0
 62
7
  6
CONTINUOUS
 10
18.3860103289
 20
19.2268451992
  7
TEXTSTYLE_3
 40
2.7338706658
  1
Ammeraal Beltech
 41
1.0
 51
15.0
 72
0
  0
TEXT
  8
0
 62
7
  6
CONTINUOUS
 10
29.1868111546
 20
16.9533085264
  7
TEXTSTYLE_4
 40
1.0935482663
  1
Innovation & Service in Belting
 41
1.0
 72
0
  0
LINE
  8
0
 62
7
  6
CONTINUOUS
 10
12.3614696776
 20
19.9934385078
 11
13.1396216709
 21
23.6543558055
  0
LINE
  8
0
 62
7
  6
CONTINUOUS
 10
23.2347899607
 20
27.3177497171
 11
13.6274394139
 21
24.1961322958
  0
LINE
  8
0
 62
7
  6
CONTINUOUS
 10
12.5867530099
 20
19.3000877048
 11
20.093828271
 21
12.5406867788
  0
LINE
  8
0
 62
7
  6
CONTINUOUS
 10
12.8492874206
 20
20.5352149982
 11
23.6575567857
 21
24.0470345971
  0
LINE
  8
0
 62
7
  6
CONTINUOUS
 10
23.6533516486
 20
13.6972460334
 11
15.2078919798
 21
21.3015720751
  0
LINE
  8
0
 62
7
  6
CONTINUOUS
 10
24.1731743684
 20
26.4728246013
 11
23.1966148312
 21
21.8784731989
  0
LINE
  8
0
 62
7
  6
CONTINUOUS
 10
22.4968128835
 20
18.5861638851
 11
21.810364672
 21
15.3566789607
  0
LINE
  8
0
 62
7
  6
CONTINUOUS
 10
24.8542704669
 20
14.087448211
 11
25.8105020025
 21
18.5861638851
  0
LINE
  8
0
 62
7
  6
CONTINUOUS
 10
26.5103039502
 20
21.8784731989
 11
26.9545457526
 21
23.9684665583
  0
LINE
  8
0
 62
7
  6
CONTINUOUS
 10
20.8069293463
 20
12.3891124661
 11
24.3664527239
 21
13.5456717207
  0
LINE
  8
0
 62
7
  6
CONTINUOUS
 10
23.9478910361
 20
27.1661754044
 11
26.7292624203
 21
24.6618173613
  0
ARC
  8
0
 62
7
  6
CONTINUOUS
 10
13.8527227462
 20
23.5027814928
 40
0.7290321776
 50
108.0
 51
168.0
  0
ARC
  8
0
 62
7
  6
CONTINUOUS
 10
23.4600732931
 20
26.624398914
 40
0.7290321776
 50
348.0
 51
108.0
  0
ARC
  8
0
 62
7
  6
CONTINUOUS
 10
26.2414446773
 20
24.120040871
 40
0.7290321776
 50
348.0
 51
48.0
  0
ARC
  8
0
 62
7
  6
CONTINUOUS
 10
20.581646014
 20
13.0824632691
 40
0.7290321776
 50
228.0
 51
288.0
  0
ARC
  8
0
 62
7
  6
CONTINUOUS
 10
13.0745707529
 20
19.8418641951
 40
0.7290321776
 50
108.0
 51
228.0
  0
ARC
  8
0
 62
7
  6
CONTINUOUS
 10
24.1411693916
 20
14.2390225237
 40
0.7290321776
 50
228.0
 51
348.0
  0
ENDBLK
  8
0
  6
BYBLOCK
 62
0
  0
ENDSEC
  0
SECTION
  2
ENTITIES
  0
TEXT
  8
0
 62
5
  6
CONTINUOUS
 10
96.0
 20
25.636
  7
TEXTSTYLE_2
 40
2.8
  1
Scale :
 41
0.6
 51
0.000019
 72
0
  0
TEXT
  8
0
 62
5
  6
CONTINUOUS
 10
116.0
 20
25.636
  7
TEXTSTYLE_2
 40
2.8
  1
Belt type:
 41
0.6
 51
0.000019
 72
0
  0
INSERT
  8
0
 62
2
  6
CONTINUOUS
  2
AMMEAAL_LOGO_BL0
 10
32.1213064866
 20
19.8534310916
  0
INSERT
  8
0
 62
2
  6
CONTINUOUS
  2
UNI_LOGO2_BL1
 10
173.5956734183
 20
35.5937998301
  0
LINE
  8
0
 62
2
  6
CONTINUOUS
 10
10.0
 20
30.0
 11
200.0
 21
30.0
  0
LINE
  8
0
 62
2
  6
CONTINUOUS
 10
10.0
 20
30.0
 11
10.0
 21
10.0
  0
LINE
  8
0
 62
2
  6
CONTINUOUS
 10
10.0
 20
10.0
 11
200.0
 21
10.0
  0
LINE
  8
0
 62
2
  6
CONTINUOUS
 10
95.0
 20
30.0
 11
95.0
 21
10.0
  0
LINE
  8
0
 62
2
  6
CONTINUOUS
 10
115.0
 20
30.0
 11
115.0
 21
10.0
  0
LINE
  8
0
 62
2
  6
CONTINUOUS
 10
200.0
 20
30.0
 11
200.0
 21
10.0
  0
TEXT
  8
0
 62
5
  6
CONTINUOUS
 10
13.0
 20
23.303
  7
TEXTSTYLE_5
 40
1.52
  1
                                                                     Ammeraal Beltech Modular A/S
 41
1.0
 72
0
  0
TEXT
  8
0
 62
5
  6
CONTINUOUS
 10
13.0
 20
20.595
  7
TEXTSTYLE_5
 40
1.5
  1
                                                                      Hjulmagervej 21,  7100 Vejle,  DK
 41
1.0
 72
0
  0
TEXT
  8
0
 62
5
  6
CONTINUOUS
 10
13.0
 20
17.881
  7
TEXTSTYLE_5
 40
1.495
  1
                                                                      tel: 
 41
1.0
 72
0
  0
TEXT
  8
0
 62
5
  6
CONTINUOUS
 10
57.9869465649
 20
17.881
  7
TEXTSTYLE_5
 40
1.51
  1
+45 75723100     fax: +45 75723348
 41
1.0
 72
0
  0
TEXT
  8
0
 62
5
  6
CONTINUOUS
 10
13.0
 20
15.177
  7
TEXTSTYLE_5
 40
1.5
  1
                                                                      admin@unichains.dk  www.unichains.com
 41
1.0
 72
0
  0
TEXT
  8
0
 62
5
  6
CONTINUOUS
 10
99.75
 20
13.75
  7
TEXTSTYLE_6
 40
5.0
  1
1:1
 41
0.7
 72
1
 11
105.0
 21
13.75
  0
TEXT
  8
0
 62
5
  6
CONTINUOUS
 10
118.0
 20
13.75
  7
TEXTSTYLE_7
 40
7.5
  1
Sprocket Z15 Pilotbore
 41
0.3759469697
 72
0
  0
LINE
  8
0
 62
7
  6
CONTINUOUS
 10
210.0
 20
0.0
 11
0.0
 21
0.0
  0
LINE
  8
0
 62
7
  6
CONTINUOUS
 10
10.0
 20
10.0
 11
200.0
 21
10.0
  0
LINE
  8
0
 62
7
  6
CONTINUOUS
 10
10.0
 20
30.0
 11
200.0
 21
30.0
  0
LINE
  8
0
 62
7
  6
CONTINUOUS
 10
0.0
 20
0.0
 11
0.0
 21
297.0
  0
LINE
  8
0
 62
7
  6
CONTINUOUS
 10
10.0
 20
10.0
 11
10.0
 21
287.0
  0
LINE
  8
0
 62
7
  6
CONTINUOUS
 10
200.0
 20
287.0
 11
200.0
 21
10.0
  0
LINE
  8
0
 62
7
  6
CONTINUOUS
 10
210.0
 20
0.0
 11
210.0
 21
297.0
  0
LINE
  8
0
 62
7
  6
CONTINUOUS
 10
10.0
 20
287.0
 11
200.0
 21
287.0
  0
LINE
  8
0
 62
7
  6
CONTINUOUS
 10
0.0
 20
297.0
 11
210.0
 21
297.0
  0
LINE
  8
0
 62
7
  6
CONTINUOUS
 10
35.550457497
 20
195.3109642309
 11
36.2229878889
 21
188.9122649759
  0
LINE
  8
0
 62
7
  6
CONTINUOUS
 10
39.5176388405
 20
220.2587748792
 11
37.5294404701
 21
214.139729486
  0
LINE
  8
0
 62
7
  6
CONTINUOUS
 10
53.2890280917
 20
241.436135953
 11
48.9838785195
 21
236.6547829599
  0
LINE
  8
0
 62
7
  6
CONTINUOUS
 10
74.48342694
 20
255.1812893323
 11
68.605725638
 21
252.5643681089
  0
LINE
  8
0
 62
7
  6
CONTINUOUS
 10
111.9787463612
 20
139.7825620283
 11
105.6853984186
 21
138.4448696282
  0
LINE
  8
0
 62
7
  6
CONTINUOUS
 10
80.459571118
 20
139.7825620283
 11
86.7529190606
 21
138.4448696282
  0
LINE
  8
0
 62
7
  6
CONTINUOUS
 10
57.9587196885
 20
151.2648731592
 11
63.1638905986
 21
147.4830951275
  0
LINE
  8
0
 62
7
  6
CONTINUOUS
 10
42.0734457561
 20
170.9064071128
 11
45.2904182958
 21
165.3344472275
  0
LINE
  8
QUILTS
 62
7
  6
CONTINUOUS
 10
48.4031046905
 20
201.7038672132
 11
48.38360238
 21
201.183399035
  0
LINE
  8
QUILTS
 62
7
  6
CONTINUOUS
 10
48.305593156
 20
199.1015268063
 11
48.2860908497
 21
198.5810587398
  0
LINE
  8
QUILTS
 62
7
  6
CONTINUOUS
 10
50.4200607546
 20
215.1925290413
 11
50.4704864524
 21
215.6195950367
  0
LINE
  8
QUILTS
 62
7
  6
CONTINUOUS
 10
48.7496320344
 20
204.9053523087
 11
48.6971036166
 21
204.4920097849
  0
LINE
  8
QUILTS
 62
7
  6
CONTINUOUS
 10
48.5789147328
 20
203.5619895498
 11
48.5132542293
 21
203.0453115428
  0
LINE
  8
QUILTS
 62
7
  6
CONTINUOUS
 10
49.8748109251
 20
215.8489304742
 11
49.786958668
 21
215.3246527888
  0
LINE
  8
QUILTS
 62
7
  6
CONTINUOUS
 10
47.6000969412
 20
207.7535965758
 11
47.5049291
 21
207.2415318962
  0
LINE
  8
QUILTS
 62
7
  6
CONTINUOUS
 10
48.02788891
 20
207.1443391818
 11
48.1230567512
 21
207.6564038614
  0
LINE
  8
QUILTS
 62
7
  6
CONTINUOUS
 10
49.1689766642
 20
207.4620183782
 11
49.073808823
 21
206.9499536985
  0
LINE
  8
QUILTS
 62
7
  6
CONTINUOUS
 10
50.1742212581
 20
216.6266184317
 11
49.8748109251
 21
215.8489304742
  0
LINE
  8
QUILTS
 62
7
  6
CONTINUOUS
 10
50.4704864524
 20
215.6195950367
 11
50.7698967854
 21
216.3972829942
  0
LINE
  8
QUILTS
 62
7
  6
CONTINUOUS
 10
53.7987005368
 20
215.6776716416
 11
53.5741428941
 21
215.0944059516
  0
LINE
  8
QUILTS
 62
7
  6
CONTINUOUS
 10
49.1192404106
 20
204.4383637732
 11
49.2773030269
 21
204.838294794
  0
LINE
  8
QUILTS
 62
7
  6
CONTINUOUS
 10
48.8945625275
 20
205.2019475508
 11
48.7496320344
 21
204.9053523087
  0
LINE
  8
QUILTS
 62
7
  6
CONTINUOUS
 10
53.2717117876
 20
223.1531548468
 11
52.9831724734
 21
222.5987451931
  0
LINE
  8
QUILTS
 62
7
  6
CONTINUOUS
 10
51.7809249638
 20
220.2887042643
 11
51.3481165428
 21
219.4570908412
  0
LINE
  8
QUILTS
 62
7
  6
CONTINUOUS
 10
50.4606315959
 20
217.0744498588
 11
50.1742212581
 21
216.6266184317
  0
LINE
  8
QUILTS
 62
7
  6
CONTINUOUS
 10
55.3704387071
 20
226.4163623055
 11
53.9822020796
 21
224.3372280948
  0
LINE
  8
QUILTS
 62
7
  6
CONTINUOUS
 10
54.8601039504
 20
224.5025682955
 11
55.9591250551
 21
226.1485502066
  0
LINE
  8
QUILTS
 62
7
  6
CONTINUOUS
 10
57.1977583021
 20
225.3215155531
 11
56.0987371974
 21
223.675533642
  0
LINE
  8
QUILTS
 62
7
  6
CONTINUOUS
 10
56.6295799114
 20
223.32109029
 11
57.7286010161
 21
224.9670722011
  0
LINE
  8
QUILTS
 62
7
  6
CONTINUOUS
 10
50.7698967854
 20
216.3972829942
 11
51.0188809922
 21
216.7479038438
  0
LINE
  8
QUILTS
 62
7
  6
CONTINUOUS
 10
66.3356303378
 20
235.2197481714
 11
66.5979014407
 21
235.5605428172
  0
LINE
  8
QUILTS
 62
7
  6
CONTINUOUS
 10
67.2213069754
 20
235.1030306057
 11
66.7950823222
 21
234.6336992726
  0
LINE
  8
QUILTS
 62
7
  6
CONTINUOUS
 10
66.3353574496
 20
235.8954279023
 11
65.8271550831
 21
235.36182749
  0
LINE
  8
QUILTS
 62
7
  6
CONTINUOUS
 10
55.7481293394
 20
226.7904426959
 11
55.3704387071
 21
226.4163623055
  0
LINE
  8
QUILTS
 62
7
  6
CONTINUOUS
 10
62.3741712046
 20
234.578908472
 11
60.5696465129
 21
232.8486799792
  0
LINE
  8
QUILTS
 62
7
  6
CONTINUOUS
 10
61.4625380994
 20
232.8205074488
 11
62.8911207206
 21
234.1902722223
  0
LINE
  8
QUILTS
 62
7
  6
CONTINUOUS
 10
63.9218952252
 20
233.1152361488
 11
62.493312604
 21
231.7454713753
  0
LINE
  8
QUILTS
 62
7
  6
CONTINUOUS
 10
62.9350730176
 20
231.2847417218
 11
64.3636556388
 21
232.6545064952
  0
LINE
  8
QUILTS
 62
7
  6
CONTINUOUS
 10
66.8272218532
 20
236.2810409061
 11
66.3353574496
 21
235.8954279023
  0
LINE
  8
QUILTS
 62
7
  6
CONTINUOUS
 10
66.5979014407
 20
235.5605428172
 11
67.0897658443
 21
235.9461558211
  0
LINE
  8
QUILTS
 62
7
  6
CONTINUOUS
 10
65.8767203772
 20
234.4544346665
 11
66.2866070675
 21
234.7757785912
  0
LINE
  8
QUILTS
 62
7
  6
CONTINUOUS
 10
68.1230561929
 20
235.8099860633
 11
67.2213069754
 21
235.1030306057
  0
LINE
  8
QUILTS
 62
7
  6
CONTINUOUS
 10
67.4838510584
 20
234.7681454034
 11
68.3856002759
 21
235.475100861
  0
LINE
  8
QUILTS
 62
7
  6
CONTINUOUS
 10
55.9591250551
 20
226.1485502066
 11
56.2211284192
 21
226.3493680909
  0
LINE
  8
QUILTS
 62
7
  6
CONTINUOUS
 10
68.3669093453
 20
239.3743196476
 11
67.9378902285
 21
239.0790035217
  0
LINE
  8
QUILTS
 62
7
  6
CONTINUOUS
 10
69.6248813439
 20
240.202805887
 11
69.1870755709
 21
239.9206798126
  0
LINE
  8
QUILTS
 62
7
  6
CONTINUOUS
 10
62.8237417315
 20
234.8625855658
 11
62.3741712046
 21
234.578908472
  0
LINE
  8
QUILTS
 62
7
  6
CONTINUOUS
 10
67.3847203782
 20
236.5829311677
 11
66.8272218532
 21
236.2810409061
  0
LINE
  8
QUILTS
 62
7
  6
CONTINUOUS
 10
62.8911207206
 20
234.1902722223
 11
63.1903130427
 21
234.3297625083
  0
LINE
  8
QUILTS
 62
7
  6
CONTINUOUS
 10
67.0897658443
 20
235.9461558211
 11
67.4833089427
 21
236.1195079244
  0
LINE
  8
QUILTS
 62
7
  6
CONTINUOUS
 10
89.7772495731
 20
245.0686467728
 11
90.1778982623
 21
245.2248765712
  0
LINE
  8
QUILTS
 62
7
  6
CONTINUOUS
 10
90.1132572072
 20
245.7528490331
 11
89.6092154763
 21
245.5839605532
  0
LINE
  8
QUILTS
 62
7
  6
CONTINUOUS
 10
48.6971036166
 20
204.4920097849
 11
48.7501093972
 21
204.0652557582
  0
LINE
  8
QUILTS
 62
7
  6
CONTINUOUS
 10
49.1722461912
 20
204.0116097464
 11
49.1192404106
 21
204.4383637732
  0
LINE
  8
QUILTS
 62
7
  6
CONTINUOUS
 10
49.786958668
 20
215.3246527888
 11
49.8358122248
 21
214.8593642205
  0
LINE
  8
QUILTS
 62
7
  6
CONTINUOUS
 10
51.3251325987
 20
200.1350200482
 11
51.3095307514
 21
199.7186455355
  0
LINE
  8
QUILTS
 62
7
  6
CONTINUOUS
 10
51.7347642322
 20
199.7027117364
 11
51.7503660795
 21
200.1190862491
  0
LINE
  8
QUILTS
 62
7
  6
CONTINUOUS
 10
51.7932711526
 20
201.264115973
 11
51.8127734631
 21
201.7845841512
  0
LINE
  8
QUILTS
 62
7
  6
CONTINUOUS
 10
54.257670748
 20
215.3893481728
 11
54.2446711812
 21
215.0594927548
  0
LINE
  8
QUILTS
 62
7
  6
CONTINUOUS
 10
54.9281985982
 20
215.3544338669
 11
54.9411981562
 21
215.6842892881
  0
LINE
  8
QUILTS
 62
7
  6
CONTINUOUS
 10
57.810238816
 20
225.6640774298
 11
57.8374509746
 21
225.8964118451
  0
LINE
  8
QUILTS
 62
7
  6
CONTINUOUS
 10
51.8903488769
 20
202.6161434111
 11
51.9560093804
 21
203.1328214181
  0
LINE
  8
QUILTS
 62
7
  6
CONTINUOUS
 10
52.1923871479
 20
204.9928618883
 11
52.2580476139
 21
205.5095395996
  0
LINE
  8
QUILTS
 62
7
  6
CONTINUOUS
 10
54.8403467781
 20
214.8301572906
 11
54.9281985982
 21
215.3544338669
  0
LINE
  8
QUILTS
 62
7
  6
CONTINUOUS
 10
52.4207518999
 20
206.3279202719
 11
52.5159197411
 21
206.8399849516
  0
LINE
  8
QUILTS
 62
7
  6
CONTINUOUS
 10
57.2828140949
 20
225.6404812214
 11
57.1977583021
 21
225.3215155531
  0
LINE
  8
QUILTS
 62
7
  6
CONTINUOUS
 10
59.1407637795
 20
224.3999293653
 11
59.0557079868
 21
224.080963697
  0
LINE
  8
QUILTS
 62
7
  6
CONTINUOUS
 10
51.6128540175
 20
199.2903207479
 11
51.7347642322
 21
199.7027117364
  0
LINE
  8
QUILTS
 62
7
  6
CONTINUOUS
 10
64.5939066049
 20
233.3174284452
 11
64.6706563533
 21
233.5384018785
  0
LINE
  8
QUILTS
 62
7
  6
CONTINUOUS
 10
54.2446711812
 20
215.0594927548
 11
53.9452608483
 21
214.2818047973
  0
LINE
  8
QUILTS
 62
7
  6
CONTINUOUS
 10
54.5409364451
 20
214.0524693331
 11
54.8403467781
 21
214.8301572906
  0
LINE
  8
QUILTS
 62
7
  6
CONTINUOUS
 10
55.214609373
 20
215.8022664031
 11
55.4391670157
 21
216.3855320931
  0
LINE
  8
QUILTS
 62
7
  6
CONTINUOUS
 10
59.5287071285
 20
223.6398890506
 11
59.7294501818
 21
224.1321172302
  0
LINE
  8
QUILTS
 62
7
  6
CONTINUOUS
 10
65.8271550831
 20
235.36182749
 11
65.7288356542
 21
235.1495680605
  0
LINE
  8
QUILTS
 62
7
  6
CONTINUOUS
 10
66.2373109089
 20
235.0074887419
 11
66.3356303378
 21
235.2197481714
  0
LINE
  8
QUILTS
 62
7
  6
CONTINUOUS
 10
66.7950823222
 20
234.6336992726
 11
66.5984453408
 21
234.2091818845
  0
LINE
  8
QUILTS
 62
7
  6
CONTINUOUS
 10
67.1232624029
 20
234.215092799
 11
67.2215799555
 21
234.4273507576
  0
LINE
  8
QUILTS
 62
7
  6
CONTINUOUS
 10
64.0738340761
 20
233.408302986
 11
63.9218952252
 21
233.1152361488
  0
LINE
  8
QUILTS
 62
7
  6
CONTINUOUS
 10
65.6199956783
 20
231.7957490371
 11
65.4680568274
 21
231.5026821999
  0
LINE
  8
QUILTS
 62
7
  6
CONTINUOUS
 10
55.7833937725
 20
217.1487763272
 11
56.0719330867
 21
217.7031859809
  0
LINE
  8
QUILTS
 62
7
  6
CONTINUOUS
 10
57.274180046
 20
220.0132258523
 11
57.7069890173
 21
220.8448403328
  0
LINE
  8
QUILTS
 62
7
  6
CONTINUOUS
 10
51.3095307514
 20
199.7186455355
 11
51.0813121479
 21
199.3102379974
  0
LINE
  8
QUILTS
 62
7
  6
CONTINUOUS
 10
68.7796891967
 20
234.2970934439
 11
68.5010745249
 21
233.8083069474
  0
LINE
  8
QUILTS
 62
7
  6
CONTINUOUS
 10
54.2545256702
 20
213.6046367969
 11
54.5409364451
 21
214.0524693331
  0
LINE
  8
QUILTS
 62
7
  6
CONTINUOUS
 10
59.0557079868
 20
224.080963697
 11
57.9566868821
 21
222.4349817859
  0
LINE
  8
QUILTS
 62
7
  6
CONTINUOUS
 10
58.1404705011
 20
221.5607548399
 11
59.5287071285
 21
223.6398890506
  0
LINE
  8
QUILTS
 62
7
  6
CONTINUOUS
 10
49.2773030269
 20
204.838294794
 11
49.4091013967
 21
205.0315542574
  0
LINE
  8
QUILTS
 62
7
  6
CONTINUOUS
 10
65.8346281901
 20
230.9698590887
 11
66.1369452394
 21
231.4071127403
  0
LINE
  8
QUILTS
 62
7
  6
CONTINUOUS
 10
53.9452608483
 20
214.2818047973
 11
53.6962766414
 21
213.9311839478
  0
LINE
  8
QUILTS
 62
7
  6
CONTINUOUS
 10
67.2215799555
 20
234.4273507576
 11
67.4838510584
 21
234.7681454034
  0
LINE
  8
QUILTS
 62
7
  6
CONTINUOUS
 10
68.763618539
 20
233.4734218331
 11
69.1078692257
 21
233.8784870363
  0
LINE
  8
QUILTS
 62
7
  6
CONTINUOUS
 10
49.1450272191
 20
205.48513129
 11
48.8945625275
 21
205.2019475508
  0
LINE
  8
QUILTS
 62
7
  6
CONTINUOUS
 10
65.4680568274
 20
231.5026821999
 11
64.0394742062
 21
230.1329174264
  0
LINE
  8
QUILTS
 62
7
  6
CONTINUOUS
 10
64.0301034984
 20
229.2396305959
 11
65.8346281901
 21
230.9698590887
  0
LINE
  8
QUILTS
 62
7
  6
CONTINUOUS
 10
50.8088954857
 20
217.386849248
 11
50.4606315959
 21
217.0744498588
  0
LINE
  8
QUILTS
 62
7
  6
CONTINUOUS
 10
89.6092154763
 20
245.5839605532
 11
89.1310254343
 21
245.2038825089
  0
LINE
  8
QUILTS
 62
7
  6
CONTINUOUS
 10
68.5010745249
 20
233.8083069474
 11
68.0092119977
 21
233.4226954146
  0
LINE
  8
QUILTS
 62
7
  6
CONTINUOUS
 10
68.2717560117
 20
233.0878103002
 11
68.763618539
 21
233.4734218331
  0
LINE
  8
QUILTS
 62
7
  6
CONTINUOUS
 10
69.6653677565
 20
234.1803772906
 11
70.0752506942
 21
234.5017182733
  0
LINE
  8
QUILTS
 62
7
  6
CONTINUOUS
 10
57.7286010161
 20
224.9670722011
 11
57.9906043801
 21
225.1678900854
  0
LINE
  8
QUILTS
 62
7
  6
CONTINUOUS
 10
51.0188809922
 20
216.7479038438
 11
51.3297183226
 21
216.963091543
  0
LINE
  8
QUILTS
 62
7
  6
CONTINUOUS
 10
70.7729163853
 20
234.9604325693
 11
71.2019355021
 21
235.2557486952
  0
LINE
  8
QUILTS
 62
7
  6
CONTINUOUS
 10
71.8954776196
 20
235.7177572173
 11
72.3332833927
 21
235.9998832916
  0
LINE
  8
QUILTS
 62
7
  6
CONTINUOUS
 10
58.0143985459
 20
225.7782640611
 11
57.810238816
 21
225.6640774298
  0
LINE
  8
QUILTS
 62
7
  6
CONTINUOUS
 10
64.3636556388
 20
232.6545064952
 11
64.6628479608
 21
232.7939967812
  0
LINE
  8
QUILTS
 62
7
  6
CONTINUOUS
 10
67.8782110312
 20
232.9144567332
 11
68.2717560117
 21
233.0878103002
  0
LINE
  8
QUILTS
 62
7
  6
CONTINUOUS
 10
91.4574836485
 20
243.345170128
 11
91.0568302263
 21
243.1889397501
  0
LINE
  8
QUILTS
 62
7
  6
CONTINUOUS
 10
56.244922585
 20
226.9597420665
 11
55.7481293394
 21
226.7904426959
  0
LINE
  8
QUILTS
 62
7
  6
CONTINUOUS
 10
91.1214712903
 20
242.6609672142
 11
91.6255177532
 21
242.8298562829
  0
LINE
  8
QUILTS
 62
7
  6
CONTINUOUS
 10
64.8179098245
 20
233.3848253273
 11
64.5939066049
 21
233.3174284452
  0
LINE
  8
QUILTS
 62
7
  6
CONTINUOUS
 10
110.2242716721
 20
245.0516795108
 11
110.5869132824
 21
245.1585282557
  0
LINE
  8
QUILTS
 62
7
  6
CONTINUOUS
 10
110.0968208919
 20
243.9751610797
 11
109.3715376712
 21
243.7614635898
  0
LINE
  8
QUILTS
 62
7
  6
CONTINUOUS
 10
48.7501093972
 20
204.0652557582
 11
48.9217815372
 21
203.7284263029
  0
LINE
  8
QUILTS
 62
7
  6
CONTINUOUS
 10
50.5063404424
 20
214.8244510505
 11
50.4200607546
 21
215.1925290413
  0
LINE
  8
QUILTS
 62
7
  6
CONTINUOUS
 10
51.2344260423
 20
200.5553778629
 11
51.3251325987
 21
200.1350200482
  0
LINE
  8
QUILTS
 62
7
  6
CONTINUOUS
 10
51.7503660795
 20
200.1190862491
 11
51.659659551
 21
200.5394440627
  0
LINE
  8
QUILTS
 62
7
  6
CONTINUOUS
 10
59.7294501818
 20
224.1321172302
 11
59.6954006902
 21
224.6558599683
  0
LINE
  8
QUILTS
 62
7
  6
CONTINUOUS
 10
65.7288356542
 20
235.1495680605
 11
65.6961540995
 21
234.8535888307
  0
LINE
  8
QUILTS
 62
7
  6
CONTINUOUS
 10
66.1369452394
 20
231.4071127403
 11
66.2168179813
 21
231.9258479027
  0
LINE
  8
QUILTS
 62
7
  6
CONTINUOUS
 10
69.1078692257
 20
233.8784870363
 11
69.2225284766
 21
234.2387353673
  0
LINE
  8
QUILTS
 62
7
  6
CONTINUOUS
 10
51.3885358823
 20
198.9860067632
 11
51.6128540175
 21
199.2903207479
  0
LINE
  8
QUILTS
 62
7
  6
CONTINUOUS
 10
89.4024573059
 20
244.7012279896
 11
89.7772495731
 21
245.0686467728
  0
LINE
  8
QUILTS
 62
7
  6
CONTINUOUS
 10
53.9062621827
 20
213.2922385302
 11
54.2545256702
 21
213.6046367969
  0
LINE
  8
QUILTS
 62
7
  6
CONTINUOUS
 10
91.7418110848
 20
243.5943357371
 11
91.4574836485
 21
243.345170128
  0
LINE
  8
QUILTS
 62
7
  6
CONTINUOUS
 10
91.6255177532
 20
242.8298562829
 11
92.1037077918
 21
243.2099343549
  0
LINE
  8
QUILTS
 62
7
  6
CONTINUOUS
 10
49.3823597874
 20
205.6649792504
 11
49.1450272191
 21
205.48513129
  0
LINE
  8
QUILTS
 62
7
  6
CONTINUOUS
 10
53.6962766414
 20
213.9311839478
 11
53.3854392415
 21
213.7159962754
  0
LINE
  8
QUILTS
 62
7
  6
CONTINUOUS
 10
101.7371673475
 20
244.9799339442
 11
102.1821436971
 21
245.2582536416
  0
LINE
  8
QUILTS
 62
7
  6
CONTINUOUS
 10
51.3557174562
 20
217.6228023788
 11
50.8088954857
 21
217.386849248
  0
LINE
  8
QUILTS
 62
7
  6
CONTINUOUS
 10
109.6704584764
 20
243.3300518009
 11
110.0331000868
 21
243.4369005459
  0
LINE
  8
QUILTS
 62
7
  6
CONTINUOUS
 10
111.0984651948
 20
241.3061672917
 11
110.7358235845
 21
241.1993185468
  0
LINE
  8
QUILTS
 62
7
  6
CONTINUOUS
 10
48.9217815372
 20
203.7284263029
 11
49.1065857253
 21
203.4949320351
  0
LINE
  8
QUILTS
 62
7
  6
CONTINUOUS
 10
51.0335107046
 20
200.8756256091
 11
51.2344260423
 21
200.5553778629
  0
LINE
  8
QUILTS
 62
7
  6
CONTINUOUS
 10
49.3439183312
 20
203.6747802911
 11
49.1722461912
 21
204.0116097464
  0
LINE
  8
QUILTS
 62
7
  6
CONTINUOUS
 10
51.659659551
 20
200.5394440627
 11
51.5611521073
 21
200.7516148433
  0
LINE
  8
QUILTS
 62
7
  6
CONTINUOUS
 10
49.8358122248
 20
214.8593642205
 11
50.0832242907
 21
214.3176305063
  0
LINE
  8
QUILTS
 62
7
  6
CONTINUOUS
 10
64.0769570889
 20
233.7060646949
 11
64.0738340761
 21
233.408302986
  0
LINE
  8
QUILTS
 62
7
  6
CONTINUOUS
 10
65.6231186395
 20
232.0935107998
 11
65.6199956783
 21
231.7957490371
  0
LINE
  8
QUILTS
 62
7
  6
CONTINUOUS
 10
66.5984453408
 20
234.2091818845
 11
66.5657638779
 21
233.9132025375
  0
LINE
  8
QUILTS
 62
7
  6
CONTINUOUS
 10
67.0905789719
 20
233.9191120983
 11
67.1232624029
 21
234.215092799
  0
LINE
  8
QUILTS
 62
7
  6
CONTINUOUS
 10
68.828712421
 20
234.7410630828
 11
68.7796891967
 21
234.2970934439
  0
LINE
  8
QUILTS
 62
7
  6
CONTINUOUS
 10
82.5016190073
 20
241.4809600823
 11
84.9221460785
 21
245.9270014435
  0
LINE
  8
QUILTS
 62
7
  6
CONTINUOUS
 10
86.5435904161
 20
246.9979775829
 11
86.0762061601
 21
246.1454950934
  0
LINE
  8
QUILTS
 62
7
  6
CONTINUOUS
 10
86.2425602639
 20
245.3108476893
 11
86.7099444616
 21
246.1633304711
  0
LINE
  8
QUILTS
 62
7
  6
CONTINUOUS
 10
84.363022325
 20
245.9896032559
 11
81.8422816018
 21
241.5151438147
  0
LINE
  8
QUILTS
 62
7
  6
CONTINUOUS
 10
51.057909379
 20
198.6856762842
 11
51.3885358823
 21
198.9860067632
  0
LINE
  8
QUILTS
 62
7
  6
CONTINUOUS
 10
101.9213409415
 20
245.8173346369
 11
101.6938206902
 21
245.625221865
  0
LINE
  8
QUILTS
 62
7
  6
CONTINUOUS
 10
49.4091013967
 20
205.0315542574
 11
49.6464339651
 21
205.2114022177
  0
LINE
  8
QUILTS
 62
7
  6
CONTINUOUS
 10
110.0570935104
 20
245.552463975
 11
109.6292974171
 21
245.243070827
  0
LINE
  8
QUILTS
 62
7
  6
CONTINUOUS
 10
109.4069822681
 20
243.1913035298
 11
109.6704584764
 21
243.3300518009
  0
LINE
  8
QUILTS
 62
7
  6
CONTINUOUS
 10
55.4391670157
 20
216.3855320931
 11
54.7556391618
 21
216.0905898719
  0
LINE
  8
QUILTS
 62
7
  6
CONTINUOUS
 10
54.2088171217
 20
215.8546367679
 11
53.7987005368
 21
215.6776716416
  0
LINE
  8
QUILTS
 62
7
  6
CONTINUOUS
 10
54.9411981562
 20
215.6842892881
 11
55.214609373
 21
215.8022664031
  0
LINE
  8
QUILTS
 62
7
  6
CONTINUOUS
 10
53.5741428941
 20
215.0944059516
 11
54.257670748
 21
215.3893481728
  0
LINE
  8
QUILTS
 62
7
  6
CONTINUOUS
 10
53.3594401775
 20
213.0562854128
 11
53.9062621827
 21
213.2922385302
  0
LINE
  8
QUILTS
 62
7
  6
CONTINUOUS
 10
51.5611521073
 20
200.7516148433
 11
51.2539283473
 21
201.0758458921
  0
LINE
  8
QUILTS
 62
7
  6
CONTINUOUS
 10
49.5287225193
 20
203.4412860233
 11
49.3439183312
 21
203.6747802911
  0
LINE
  8
QUILTS
 62
7
  6
CONTINUOUS
 10
54.7556391618
 20
216.0905898719
 11
54.631933343
 21
216.3614572853
  0
LINE
  8
QUILTS
 62
7
  6
CONTINUOUS
 10
57.2215524679
 20
225.9318895287
 11
57.2828140949
 21
225.6404812214
  0
LINE
  8
QUILTS
 62
7
  6
CONTINUOUS
 10
59.0795020906
 20
224.691337714
 11
59.1407637795
 21
224.3999293653
  0
LINE
  8
QUILTS
 62
7
  6
CONTINUOUS
 10
91.9098125263
 20
243.9364366515
 11
91.7418110848
 21
243.5943357371
  0
LINE
  8
QUILTS
 62
7
  6
CONTINUOUS
 10
92.1037077918
 20
243.2099343549
 11
92.3621788016
 21
243.6702889858
  0
LINE
  8
QUILTS
 62
7
  6
CONTINUOUS
 10
102.1821436971
 20
245.2582536416
 11
102.5334811065
 21
245.6523293224
  0
LINE
  8
QUILTS
 62
7
  6
CONTINUOUS
 10
109.9282182223
 20
244.8116590381
 11
110.2242716721
 21
245.0516795108
  0
LINE
  8
QUILTS
 62
7
  6
CONTINUOUS
 10
111.3945186674
 20
241.5461878353
 11
111.0984651948
 21
241.3061672917
  0
LINE
  8
QUILTS
 62
7
  6
CONTINUOUS
 10
111.2656433452
 20
240.805382792
 11
111.6934394498
 21
241.1147759755
  0
LINE
  8
QUILTS
 62
7
  6
CONTINUOUS
 10
51.0813121479
 20
199.3102379974
 11
50.7545860671
 21
199.1140010921
  0
LINE
  8
QUILTS
 62
7
  6
CONTINUOUS
 10
50.7223864684
 20
201.0957631421
 11
51.0335107046
 21
200.8756256091
  0
LINE
  8
QUILTS
 62
7
  6
CONTINUOUS
 10
50.0832242907
 20
214.3176305063
 11
50.4054886185
 21
213.9703179472
  0
LINE
  8
QUILTS
 62
7
  6
CONTINUOUS
 10
50.7293257938
 20
214.5153609572
 11
50.5063404424
 21
214.8244510505
  0
LINE
  8
QUILTS
 62
7
  6
CONTINUOUS
 10
53.9858320484
 20
216.1637267541
 11
54.2088171217
 21
215.8546367679
  0
LINE
  8
QUILTS
 62
7
  6
CONTINUOUS
 10
57.8374509746
 20
225.8964118451
 11
57.6570854104
 21
226.3925991894
  0
LINE
  8
QUILTS
 62
7
  6
CONTINUOUS
 10
59.6954006902
 20
224.6558599683
 11
59.5150350951
 21
225.1520473333
  0
LINE
  8
QUILTS
 62
7
  6
CONTINUOUS
 10
65.6961540995
 20
234.8535888307
 11
65.7454483817
 21
234.621877209
  0
LINE
  8
QUILTS
 62
7
  6
CONTINUOUS
 10
64.6706563533
 20
233.5384018785
 11
64.6017149974
 21
234.0618335425
  0
LINE
  8
QUILTS
 62
7
  6
CONTINUOUS
 10
66.2168179813
 20
231.9258479027
 11
66.1478765996
 21
232.4492795936
  0
LINE
  8
0
 62
7
  6
CONTINUOUS
 10
79.9376680195
 20
142.8539355509
 11
79.9544553374
 21
142.6396101184
  0
LINE
  8
0
 62
7
  6
CONTINUOUS
 10
91.914094712
 20
256.4279778685
 11
91.8531134741
 21
256.2218262405
  0
LINE
  8
0
 62
7
  6
CONTINUOUS
 10
58.7311776398
 20
154.2829896037
 11
58.6593396109
 21
154.0803655611
  0
LINE
  8
QUILTS
 62
7
  6
CONTINUOUS
 10
109.6292974171
 20
245.243070827
 11
109.2680893932
 21
244.8005056676
  0
LINE
  8
0
 62
7
  6
CONTINUOUS
 10
115.8669125562
 20
253.1667884802
 11
115.7273540023
 21
253.0032629008
  0
LINE
  8
0
 62
7
  6
CONTINUOUS
 10
44.0066997598
 20
173.3494067273
 11
43.8586578319
 21
173.1935196123
  0
LINE
  8
0
 62
7
  6
CONTINUOUS
 10
136.4224552714
 20
240.4450550058
 11
136.2284503432
 21
240.3524305333
  0
LINE
  8
QUILTS
 62
7
  6
CONTINUOUS
 10
51.8127734631
 20
201.7845841512
 11
51.5962562539
 21
201.6884572364
  0
LINE
  8
QUILTS
 62
7
  6
CONTINUOUS
 10
50.8413921958
 20
198.5895495641
 11
51.057909379
 21
198.6856762842
  0
LINE
  8
0
 62
7
  6
CONTINUOUS
 10
38.3102303727
 20
196.7564301881
 11
38.1115823401
 21
196.674234299
  0
LINE
  8
QUILTS
 62
7
  6
CONTINUOUS
 10
51.2539283473
 20
201.0758458921
 11
51.7932711526
 21
201.264115973
  0
LINE
  8
0
 62
7
  6
CONTINUOUS
 10
48.1637218595
 20
165.7369299866
 11
48.3727450253
 21
165.7871944994
  0
LINE
  8
0
 62
7
  6
CONTINUOUS
 10
153.2153351021
 20
188.0721749628
 11
153.426731685
 21
188.1112734261
  0
LINE
  8
0
 62
7
  6
CONTINUOUS
 10
39.0115857942
 20
188.1112734261
 11
39.222982377
 21
188.0721749628
  0
LINE
  8
0
 62
7
  6
CONTINUOUS
 10
144.0655724539
 20
165.7871944994
 11
144.2745956197
 21
165.7369299866
  0
LINE
  8
0
 62
7
  6
CONTINUOUS
 10
39.7511588056
 20
212.2737623432
 11
39.9283764159
 21
212.1520613832
  0
LINE
  8
0
 62
7
  6
CONTINUOUS
 10
126.6427302035
 20
149.150395568
 11
126.8132379479
 21
149.0194592698
  0
LINE
  8
QUILTS
 62
7
  6
CONTINUOUS
 10
54.631933343
 20
216.3614572853
 11
54.3096689456
 21
216.7087698712
  0
LINE
  8
0
 62
7
  6
CONTINUOUS
 10
50.2545620013
 20
234.0464828948
 11
50.3669581043
 21
233.8632226396
  0
LINE
  8
0
 62
7
  6
CONTINUOUS
 10
103.9593760575
 20
141.0384318442
 11
104.0618860425
 21
140.8494638362
  0
LINE
  8
QUILTS
 62
7
  6
CONTINUOUS
 10
66.2866070675
 20
234.7757785912
 11
66.2373109089
 21
235.0074887419
  0
LINE
  8
QUILTS
 62
7
  6
CONTINUOUS
 10
66.5657638779
 20
233.9132025375
 11
66.6643524423
 21
233.4497792942
  0
LINE
  8
QUILTS
 62
7
  6
CONTINUOUS
 10
68.7794162625
 20
234.9727732334
 11
68.828712421
 21
234.7410630828
  0
LINE
  8
QUILTS
 62
7
  6
CONTINUOUS
 10
69.2225284766
 20
234.2387353673
 11
69.1732322951
 21
234.4704455472
  0
LINE
  8
0
 62
7
  6
CONTINUOUS
 10
68.7056615483
 20
249.6647338985
 11
68.7338018366
 21
249.4516017112
  0
LINE
  8
0
 62
7
  6
CONTINUOUS
 10
79.9520173906
 20
141.8477043319
 11
79.8688989467
 21
140.6087228584
  0
LINE
  8
0
 62
7
  6
CONTINUOUS
 10
92.2526531377
 20
258.4322735431
 11
92.0763565111
 21
257.2030854912
  0
LINE
  8
QUILTS
 62
7
  6
CONTINUOUS
 10
91.9744256681
 20
244.2658793898
 11
91.9098125263
 21
243.9364366515
  0
LINE
  8
QUILTS
 62
7
  6
CONTINUOUS
 10
92.3621788016
 20
243.6702889858
 11
92.5043238211
 21
244.223578885
  0
LINE
  8
QUILTS
 62
7
  6
CONTINUOUS
 10
102.0552175056
 20
246.125203843
 11
101.9213409415
 21
245.8173346369
  0
LINE
  8
QUILTS
 62
7
  6
CONTINUOUS
 10
102.5334811065
 20
245.6523293224
 11
102.6673576707
 21
245.9601985285
  0
LINE
  8
0
 62
7
  6
CONTINUOUS
 10
58.3350153343
 20
153.3579152293
 11
57.7551436921
 21
152.2598566489
  0
LINE
  8
QUILTS
 62
7
  6
CONTINUOUS
 10
104.6405707914
 20
243.8906273318
 11
106.1393476121
 21
246.5141582374
  0
LINE
  8
QUILTS
 62
7
  6
CONTINUOUS
 10
103.7864106148
 20
242.3289238402
 11
104.4525320795
 21
243.4949378487
  0
LINE
  8
QUILTS
 62
7
  6
CONTINUOUS
 10
105.8172991205
 20
247.0151331836
 11
103.1743134425
 21
242.4552648538
  0
LINE
  8
0
 62
7
  6
CONTINUOUS
 10
116.9914215626
 20
254.8600995719
 11
116.3304107583
 21
253.8088867086
  0
LINE
  8
QUILTS
 62
7
  6
CONTINUOUS
 10
109.7313210047
 20
244.539741676
 11
109.9282182223
 21
244.8116590381
  0
LINE
  8
QUILTS
 62
7
  6
CONTINUOUS
 10
109.2100850962
 20
242.9193863095
 11
109.4069822681
 21
243.1913035298
  0
LINE
  8
QUILTS
 62
7
  6
CONTINUOUS
 10
111.5914157937
 20
241.8181049137
 11
111.3945186674
 21
241.5461878353
  0
LINE
  8
QUILTS
 62
7
  6
CONTINUOUS
 10
111.6934394498
 20
241.1147759755
 11
112.0546474052
 21
241.5573409221
  0
LINE
  8
0
 62
7
  6
CONTINUOUS
 10
43.2685258395
 20
172.6654429608
 11
42.2921660739
 21
171.8981715777
  0
LINE
  8
0
 62
7
  6
CONTINUOUS
 10
138.1384770354
 20
241.5345926436
 11
137.1070468264
 21
240.8431192229
  0
LINE
  8
QUILTS
 62
7
  6
CONTINUOUS
 10
50.7545860671
 20
199.1140010921
 11
50.4317605226
 21
199.0218578122
  0
LINE
  8
0
 62
7
  6
CONTINUOUS
 10
155.4554366101
 20
188.2384712465
 11
154.2145541635
 21
188.1916255295
  0
LINE
  8
0
 62
7
  6
CONTINUOUS
 10
38.2237633157
 20
188.1916255295
 11
36.9828808691
 21
188.2384712465
  0
LINE
  8
0
 62
7
  6
CONTINUOUS
 10
146.1796458034
 20
165.0279823466
 11
145.0269894112
 21
165.4898990153
  0
LINE
  8
0
 62
7
  6
CONTINUOUS
 10
39.0641293037
 20
212.6676039125
 11
37.9495806509
 21
213.2151119653
  0
LINE
  8
QUILTS
 62
7
  6
CONTINUOUS
 10
50.4054886185
 20
213.9703179472
 11
50.8644590384
 21
213.681994398
  0
LINE
  8
QUILTS
 62
7
  6
CONTINUOUS
 10
51.089016681
 20
214.265260088
 11
50.7293257938
 21
214.5153609572
  0
LINE
  8
0
 62
7
  6
CONTINUOUS
 10
128.2652329066
 20
147.596949657
 11
127.4001073305
 21
148.4877591231
  0
LINE
  8
0
 62
7
  6
CONTINUOUS
 10
48.9916198467
 20
235.639216417
 11
49.7871191184
 21
234.6857151447
  0
LINE
  8
QUILTS
 62
7
  6
CONTINUOUS
 10
57.0139747451
 20
226.1957424578
 11
57.2215524679
 21
225.9318895287
  0
LINE
  8
QUILTS
 62
7
  6
CONTINUOUS
 10
57.6570854104
 20
226.3925991894
 11
57.4495076876
 21
226.6564521184
  0
LINE
  8
QUILTS
 62
7
  6
CONTINUOUS
 10
58.8719243677
 20
224.955190643
 11
59.0795020906
 21
224.691337714
  0
LINE
  8
QUILTS
 62
7
  6
CONTINUOUS
 10
59.5150350951
 20
225.1520473333
 11
59.3074573103
 21
225.4159003037
  0
LINE
  8
QUILTS
 62
7
  6
CONTINUOUS
 10
63.9312659845
 20
234.0085229256
 11
64.0769570889
 21
233.7060646949
  0
LINE
  8
QUILTS
 62
7
  6
CONTINUOUS
 10
64.6017149974
 20
234.0618335425
 11
64.4560238931
 21
234.3642917732
  0
LINE
  8
QUILTS
 62
7
  6
CONTINUOUS
 10
65.4774275352
 20
232.3959690305
 11
65.6231186395
 21
232.0935107998
  0
LINE
  8
QUILTS
 62
7
  6
CONTINUOUS
 10
66.1478765996
 20
232.4492795936
 11
66.0021854437
 21
232.7517378781
  0
LINE
  8
0
 62
7
  6
CONTINUOUS
 10
104.3817559684
 20
140.1250302998
 11
104.8097626569
 21
138.9593570857
  0
LINE
  8
QUILTS
 62
7
  6
CONTINUOUS
 10
67.2055111281
 20
233.6036806763
 11
67.0905789719
 21
233.9191120983
  0
LINE
  8
0
 62
7
  6
CONTINUOUS
 10
68.1997295659
 20
251.6334532253
 11
68.5386304054
 21
250.4388277659
  0
LINE
  8
QUILTS
 62
7
  6
CONTINUOUS
 10
109.2680893932
 20
244.8005056676
 11
108.9408833012
 21
244.123499783
  0
LINE
  8
QUILTS
 62
7
  6
CONTINUOUS
 10
109.4366921541
 20
243.9640079929
 11
109.7313210047
 21
244.539741676
  0
LINE
  8
QUILTS
 62
7
  6
CONTINUOUS
 10
54.3096689456
 20
216.7087698712
 11
53.8506988038
 21
216.9970933133
  0
LINE
  8
QUILTS
 62
7
  6
CONTINUOUS
 10
53.6261411612
 20
216.4138276233
 11
53.9858320484
 21
216.1637267541
  0
LINE
  8
1_AXIS
 62
2
  6
CONTINUOUS
 10
96.2191587396
 20
199.3328091558
 11
96.2191587396
 21
197.5728091558
  0
LINE
  8
1_AXIS
 62
2
  6
CENTER
 10
96.2191587396
 20
194.0528091558
 11
96.2191587396
 21
135.7028091558
  0
LINE
  8
1_AXIS
 62
2
  6
CENTER
 10
96.2191587396
 20
202.8528091558
 11
96.2191587396
 21
261.2028091558
  0
LINE
  8
QUILTS
 62
7
  6
CONTINUOUS
 10
98.9813530164
 20
247.9132370743
 11
98.5085608787
 21
242.9356405063
  0
LINE
  8
QUILTS
 62
7
  6
CONTINUOUS
 10
99.1307604497
 20
242.876541489
 11
99.3420080036
 21
245.1005740298
  0
LINE
  8
QUILTS
 62
7
  6
CONTINUOUS
 10
99.4023644395
 20
245.7360118138
 11
99.5532555575
 21
247.3246065705
  0
LINE
  8
QUILTS
 62
7
  6
CONTINUOUS
 10
108.9408833012
 20
244.123499783
 11
108.7128426111
 21
243.4145943722
  0
LINE
  8
QUILTS
 62
7
  6
CONTINUOUS
 10
109.3715376712
 20
243.7614635898
 11
109.4366921541
 21
243.9640079929
  0
LINE
  8
QUILTS
 62
7
  6
CONTINUOUS
 10
109.1123533719
 20
242.6155697049
 11
109.2100850962
 21
242.9193863095
  0
LINE
  8
1_AXIS
 62
2
  6
CONTINUOUS
 10
97.0991587396
 20
198.4528091558
 11
95.3391587396
 21
198.4528091558
  0
LINE
  8
1_AXIS
 62
2
  6
CENTER
 10
91.8191587396
 20
198.4528091558
 11
33.4691587396
 21
198.4528091558
  0
LINE
  8
1_AXIS
 62
2
  6
CENTER
 10
100.6191587396
 20
198.4528091558
 11
158.9691587396
 21
198.4528091558
  0
LINE
  8
QUILTS
 62
7
  6
CONTINUOUS
 10
48.2860908497
 20
198.5810587398
 11
50.4122582163
 21
198.5013897457
  0
LINE
  8
QUILTS
 62
7
  6
CONTINUOUS
 10
50.4317605226
 20
199.0218578122
 11
48.305593156
 21
199.1015268063
  0
LINE
  8
QUILTS
 62
7
  6
CONTINUOUS
 10
48.5132542293
 20
203.0453115428
 11
51.8903488769
 21
202.6161434111
  0
LINE
  8
QUILTS
 62
7
  6
CONTINUOUS
 10
51.9560093804
 20
203.1328214181
 11
49.5287225193
 21
203.4412860233
  0
LINE
  8
QUILTS
 62
7
  6
CONTINUOUS
 10
49.1065857253
 20
203.4949320351
 11
48.5789147328
 21
203.5619895498
  0
LINE
  8
QUILTS
 62
7
  6
CONTINUOUS
 10
47.5049291
 20
207.2415318962
 11
48.02788891
 21
207.1443391818
  0
LINE
  8
QUILTS
 62
7
  6
CONTINUOUS
 10
49.073808823
 20
206.9499536985
 11
52.4207518999
 21
206.3279202719
  0
LINE
  8
QUILTS
 62
7
  6
CONTINUOUS
 10
52.5159197411
 20
206.8399849516
 11
49.1689766642
 21
207.4620183782
  0
LINE
  8
QUILTS
 62
7
  6
CONTINUOUS
 10
48.1230567512
 20
207.6564038614
 11
47.6000969412
 21
207.7535965758
  0
LINE
  8
QUILTS
 62
7
  6
CONTINUOUS
 10
50.8644590384
 20
213.681994398
 11
52.3536479957
 21
213.1086557508
  0
LINE
  8
QUILTS
 62
7
  6
CONTINUOUS
 10
52.5782056383
 20
213.6919214408
 11
51.089016681
 21
214.265260088
  0
LINE
  8
QUILTS
 62
7
  6
CONTINUOUS
 10
51.3481165428
 20
219.4570908412
 11
55.7833937725
 21
217.1487763272
  0
LINE
  8
QUILTS
 62
7
  6
CONTINUOUS
 10
56.0719330867
 20
217.7031859809
 11
52.2028613933
 21
219.7168220814
  0
LINE
  8
QUILTS
 62
7
  6
CONTINUOUS
 10
53.9822020796
 20
224.3372280948
 11
58.1404705011
 21
221.5607548399
  0
LINE
  8
QUILTS
 62
7
  6
CONTINUOUS
 10
57.9566868821
 20
222.4349817859
 11
56.6295799114
 21
223.32109029
  0
LINE
  8
QUILTS
 62
7
  6
CONTINUOUS
 10
56.0987371974
 20
223.675533642
 11
54.8601039504
 21
224.5025682955
  0
LINE
  8
QUILTS
 62
7
  6
CONTINUOUS
 10
60.5696465129
 20
232.8486799792
 11
64.0301034984
 21
229.2396305959
  0
LINE
  8
QUILTS
 62
7
  6
CONTINUOUS
 10
64.0394742062
 20
230.1329174264
 11
62.9350730176
 21
231.2847417218
  0
LINE
  8
QUILTS
 62
7
  6
CONTINUOUS
 10
62.493312604
 20
231.7454713753
 11
61.4625380994
 21
232.8205074488
  0
LINE
  8
QUILTS
 62
7
  6
CONTINUOUS
 10
65.7454483817
 20
234.621877209
 11
65.8767203772
 21
234.4544346665
  0
LINE
  8
QUILTS
 62
7
  6
CONTINUOUS
 10
66.6643524423
 20
233.4497792942
 11
66.8612604356
 21
233.1986154804
  0
LINE
  8
QUILTS
 62
7
  6
CONTINUOUS
 10
67.3367831696
 20
233.4362380752
 11
67.2055111281
 21
233.6036806763
  0
LINE
  8
QUILTS
 62
7
  6
CONTINUOUS
 10
67.9378902285
 20
239.0790035217
 11
70.7729163853
 21
234.9604325693
  0
LINE
  8
QUILTS
 62
7
  6
CONTINUOUS
 10
71.2019355021
 20
235.2557486952
 11
68.3669093453
 21
239.3743196476
  0
LINE
  8
QUILTS
 62
7
  6
CONTINUOUS
 10
69.1870755709
 20
239.9206798126
 11
71.8954776196
 21
235.7177572173
  0
LINE
  8
QUILTS
 62
7
  6
CONTINUOUS
 10
72.3332833927
 20
235.9998832916
 11
69.6248813439
 21
240.202805887
  0
LINE
  8
QUILTS
 62
7
  6
CONTINUOUS
 10
80.7103782466
 20
245.5066931834
 11
80.8554940432
 21
244.9949561492
  0
LINE
  8
QUILTS
 62
7
  6
CONTINUOUS
 10
81.8422816018
 20
241.5151438147
 11
82.0744668966
 21
240.6963644883
  0
LINE
  8
QUILTS
 62
7
  6
CONTINUOUS
 10
86.0762061601
 20
246.1454950934
 11
86.2425602639
 21
245.3108476893
  0
LINE
  8
QUILTS
 62
7
  6
CONTINUOUS
 10
86.7099444616
 20
246.1633304711
 11
87.5209205498
 21
242.0944252165
  0
LINE
  8
QUILTS
 62
7
  6
CONTINUOUS
 10
88.1338645956
 20
242.2165914832
 11
87.1565344619
 21
247.1201438496
  0
LINE
  8
QUILTS
 62
7
  6
CONTINUOUS
 10
88.342558292
 20
247.3580725779
 11
88.6786918143
 21
244.6126154798
  0
LINE
  8
QUILTS
 62
7
  6
CONTINUOUS
 10
89.1310254343
 20
245.2038825089
 11
88.924174022
 21
246.893394683
  0
LINE
  8
QUILTS
 62
7
  6
CONTINUOUS
 10
102.0853957518
 20
246.4429230317
 11
102.0552175056
 21
246.125203843
  0
LINE
  8
QUILTS
 62
7
  6
CONTINUOUS
 10
102.6673576707
 20
245.9601985285
 11
102.7075953228
 21
246.3838240145
  0
LINE
  8
QUILTS
 62
7
  6
CONTINUOUS
 10
108.7128426111
 20
243.4145943722
 11
108.5839672775
 21
242.6737892934
  0
LINE
  8
QUILTS
 62
7
  6
CONTINUOUS
 10
111.689147518
 20
242.1219215184
 11
111.5914157937
 21
241.8181049137
  0
LINE
  8
QUILTS
 62
7
  6
CONTINUOUS
 10
112.0546474052
 20
241.5573409221
 11
112.217533658
 21
242.0637020717
  0
LINE
  8
QUILTS
 62
7
  6
CONTINUOUS
 10
48.38360238
 20
201.183399035
 11
50.7223864684
 21
201.0957631421
  0
LINE
  8
QUILTS
 62
7
  6
CONTINUOUS
 10
51.1671222969
 20
201.6002975197
 11
48.4031046905
 21
201.7038672132
  0
LINE
  8
QUILTS
 62
7
  6
CONTINUOUS
 10
50.1872370808
 20
205.2476804818
 11
52.1923871479
 21
204.9928618883
  0
LINE
  8
QUILTS
 62
7
  6
CONTINUOUS
 10
52.2580476139
 20
205.5095395996
 11
50.2528975468
 21
205.7643581931
  0
LINE
  8
QUILTS
 62
7
  6
CONTINUOUS
 10
52.1369522039
 20
216.9871662705
 11
53.6261411612
 21
216.4138276233
  0
LINE
  8
QUILTS
 62
7
  6
CONTINUOUS
 10
53.8506988038
 20
216.9970933133
 11
52.3615098466
 21
217.5704319605
  0
LINE
  8
QUILTS
 62
7
  6
CONTINUOUS
 10
52.9831724734
 20
222.5987451931
 11
56.7578765113
 21
220.6342221959
  0
LINE
  8
QUILTS
 62
7
  6
CONTINUOUS
 10
57.7069890173
 20
220.8448403328
 11
53.2717117876
 21
223.1531548468
  0
LINE
  8
QUILTS
 62
7
  6
CONTINUOUS
 10
56.8370271738
 20
226.3138902418
 11
57.0139747451
 21
226.1957424578
  0
LINE
  8
QUILTS
 62
7
  6
CONTINUOUS
 10
58.6065030108
 20
225.132412319
 11
58.8719243677
 21
224.955190643
  0
LINE
  8
QUILTS
 62
7
  6
CONTINUOUS
 10
59.3074573103
 20
225.4159003037
 11
58.865088382
 21
225.7112697637
  0
LINE
  8
QUILTS
 62
7
  6
CONTINUOUS
 10
57.4495076876
 20
226.6564521184
 11
57.0956122971
 21
226.8927478519
  0
LINE
  8
QUILTS
 62
7
  6
CONTINUOUS
 10
63.7840125134
 20
234.1620994768
 11
63.9312659845
 21
234.0085229256
  0
LINE
  8
QUILTS
 62
7
  6
CONTINUOUS
 10
65.2565473284
 20
232.6263338573
 11
65.4774275352
 21
232.3959690305
  0
LINE
  8
QUILTS
 62
7
  6
CONTINUOUS
 10
66.0021854437
 20
232.7517378781
 11
65.6340517657
 21
233.135679256
  0
LINE
  8
QUILTS
 62
7
  6
CONTINUOUS
 10
64.4560238931
 20
234.3642917732
 11
64.1615167444
 21
234.6714450907
  0
LINE
  8
QUILTS
 62
7
  6
CONTINUOUS
 10
67.9261481996
 20
236.061149877
 11
68.1230561929
 21
235.8099860633
  0
LINE
  8
QUILTS
 62
7
  6
CONTINUOUS
 10
68.3856002759
 20
235.475100861
 11
68.7794162625
 21
234.9727732334
  0
LINE
  8
QUILTS
 62
7
  6
CONTINUOUS
 10
69.3862109921
 20
235.0429532857
 11
68.3360348899
 21
236.3824938017
  0
LINE
  8
QUILTS
 62
7
  6
CONTINUOUS
 10
86.0830726134
 20
241.8331045963
 11
85.9089336372
 21
242.447189109
  0
LINE
  8
QUILTS
 62
7
  6
CONTINUOUS
 10
84.9221460785
 20
245.9270014435
 11
84.7189839634
 21
246.6434332914
  0
LINE
  8
QUILTS
 62
7
  6
CONTINUOUS
 10
91.9485692461
 20
244.4770683746
 11
91.9744256681
 21
244.2658793898
  0
LINE
  8
QUILTS
 62
7
  6
CONTINUOUS
 10
91.9226195641
 20
247.2605022449
 11
91.8579785091
 21
247.7884747069
  0
LINE
  8
QUILTS
 62
7
  6
CONTINUOUS
 10
92.5043238211
 20
244.223578885
 11
92.4526109771
 21
244.6459568546
  0
LINE
  8
QUILTS
 62
7
  6
CONTINUOUS
 10
50.4122582163
 20
198.5013897457
 11
50.8413921958
 21
198.5895495641
  0
LINE
  8
QUILTS
 62
7
  6
CONTINUOUS
 10
51.5962562539
 20
201.6884572364
 11
51.1671222969
 21
201.6002975197
  0
LINE
  8
QUILTS
 62
7
  6
CONTINUOUS
 10
49.6464339651
 20
205.2114022177
 11
50.1872370808
 21
205.2476804818
  0
LINE
  8
QUILTS
 62
7
  6
CONTINUOUS
 10
50.2528975468
 20
205.7643581931
 11
49.7120945062
 21
205.7280805203
  0
LINE
  8
QUILTS
 62
7
  6
CONTINUOUS
 10
53.0127487875
 20
213.6362417266
 11
52.5782056383
 21
213.6919214408
  0
LINE
  8
QUILTS
 62
7
  6
CONTINUOUS
 10
52.3536479957
 20
213.1086557508
 11
52.8874703994
 21
213.0147534637
  0
LINE
  8
QUILTS
 62
7
  6
CONTINUOUS
 10
52.3615098466
 20
217.5704319605
 11
51.8276871647
 21
217.6643343547
  0
LINE
  8
QUILTS
 62
7
  6
CONTINUOUS
 10
66.8612604356
 20
233.1986154804
 11
67.205782186
 21
232.9279994159
  0
LINE
  8
QUILTS
 62
7
  6
CONTINUOUS
 10
69.7963668409
 20
234.6886145083
 11
69.3862109921
 21
235.0429532857
  0
LINE
  8
0
 62
7
  6
CONTINUOUS
 10
112.4863000886
 20
141.8477043319
 11
112.5694185325
 21
140.6087228584
  0
LINE
  8
QUILTS
 62
7
  6
CONTINUOUS
 10
108.5839672775
 20
242.6737892934
 11
108.619402773
 21
242.1036320829
  0
LINE
  8
QUILTS
 62
7
  6
CONTINUOUS
 10
109.1137870496
 20
242.2798535741
 11
109.1123533719
 21
242.6155697049
  0
LINE
  8
QUILTS
 62
7
  6
CONTINUOUS
 10
111.6877138859
 20
242.457637791
 11
111.689147518
 21
242.1219215184
  0
LINE
  8
QUILTS
 62
7
  6
CONTINUOUS
 10
112.6056023697
 20
243.950398115
 11
112.6041686919
 21
244.2861142458
  0
LINE
  8
0
 62
7
  6
CONTINUOUS
 10
124.2385879133
 20
251.6334532253
 11
123.8996870738
 21
250.4388277659
  0
LINE
  8
0
 62
7
  6
CONTINUOUS
 10
88.0565615108
 20
140.1250302998
 11
87.6285548223
 21
138.9593570857
  0
LINE
  8
0
 62
7
  6
CONTINUOUS
 10
143.4466976325
 20
235.639216417
 11
142.6511983608
 21
234.6857151447
  0
LINE
  8
0
 62
7
  6
CONTINUOUS
 10
65.0382101487
 20
148.4877591231
 11
64.1730845726
 21
147.596949657
  0
LINE
  8
0
 62
7
  6
CONTINUOUS
 10
154.4887368283
 20
213.2151119653
 11
153.3741881755
 21
212.6676039125
  0
LINE
  8
0
 62
7
  6
CONTINUOUS
 10
47.411328068
 20
165.4898990153
 11
46.2586716758
 21
165.0279823466
  0
LINE
  8
0
 62
7
  6
CONTINUOUS
 10
37.3576818145
 20
196.4318405783
 11
36.1536553989
 21
196.128024585
  0
LINE
  8
QUILTS
 62
7
  6
CONTINUOUS
 10
49.7120945062
 20
205.7280805203
 11
49.3823597874
 21
205.6649792504
  0
LINE
  8
0
 62
7
  6
CONTINUOUS
 10
152.0373015497
 20
220.7598539646
 11
150.8137955896
 21
220.5476820228
  0
LINE
  8
QUILTS
 62
7
  6
CONTINUOUS
 10
51.7024090547
 20
217.0428459847
 11
52.1369522039
 21
216.9871662705
  0
LINE
  8
0
 62
7
  6
CONTINUOUS
 10
41.6245218896
 20
220.5476820228
 11
40.4010159295
 21
220.7598539646
  0
LINE
  8
0
 62
7
  6
CONTINUOUS
 10
156.2846620803
 20
196.128024585
 11
155.0806356647
 21
196.4318405783
  0
LINE
  8
QUILTS
 62
7
  6
CONTINUOUS
 10
58.2832378958
 20
225.2230028247
 11
58.6065030108
 21
225.132412319
  0
LINE
  8
QUILTS
 62
7
  6
CONTINUOUS
 10
58.865088382
 20
225.7112697637
 11
58.541823267
 21
225.8018602694
  0
LINE
  8
QUILTS
 62
7
  6
CONTINUOUS
 10
56.5137619348
 20
226.4044808302
 11
56.8370271738
 21
226.3138902418
  0
LINE
  8
QUILTS
 62
7
  6
CONTINUOUS
 10
57.0956122971
 20
226.8927478519
 11
56.772347306
 21
226.9833382749
  0
LINE
  8
QUILTS
 62
7
  6
CONTINUOUS
 10
64.960477916
 20
232.7846053877
 11
65.2565473284
 21
232.6263338573
  0
LINE
  8
QUILTS
 62
7
  6
CONTINUOUS
 10
65.6340517657
 20
233.135679256
 11
65.3379823533
 21
233.2939507865
  0
LINE
  8
QUILTS
 62
7
  6
CONTINUOUS
 10
63.4879429978
 20
234.3203711148
 11
63.7840125134
 21
234.1620994768
  0
LINE
  8
QUILTS
 62
7
  6
CONTINUOUS
 10
64.1615167444
 20
234.6714450907
 11
63.8654474352
 21
234.8297165136
  0
LINE
  8
QUILTS
 62
7
  6
CONTINUOUS
 10
69.1732322951
 20
234.4704455472
 11
69.4521161599
 21
234.2835492976
  0
LINE
  8
QUILTS
 62
7
  6
CONTINUOUS
 10
70.0752506942
 20
234.5017182733
 11
69.7963668409
 21
234.6886145083
  0
LINE
  8
QUILTS
 62
7
  6
CONTINUOUS
 10
68.3360348899
 20
236.3824938017
 11
68.057147307
 21
236.5693870654
  0
LINE
  8
0
 62
7
  6
CONTINUOUS
 10
54.2998404438
 20
241.5345926436
 11
55.3312706527
 21
240.8431192229
  0
LINE
  8
0
 62
7
  6
CONTINUOUS
 10
150.1461514053
 20
171.8981715777
 11
149.1697916397
 21
172.6654429608
  0
LINE
  8
0
 62
7
  6
CONTINUOUS
 10
75.4468959166
 20
254.8600995719
 11
76.1079067209
 21
253.8088867086
  0
LINE
  8
0
 62
7
  6
CONTINUOUS
 10
134.1033021448
 20
153.3579152293
 11
134.6831737871
 21
152.2598566489
  0
LINE
  8
QUILTS
 62
7
  6
CONTINUOUS
 10
91.8063868202
 20
244.7811927386
 11
91.9485692461
 21
244.4770683746
  0
LINE
  8
QUILTS
 62
7
  6
CONTINUOUS
 10
102.0118756236
 20
246.7704916096
 11
102.0853957518
 21
246.4429230317
  0
LINE
  8
QUILTS
 62
7
  6
CONTINUOUS
 10
102.7075953228
 20
246.3838240145
 11
102.6340751946
 21
246.7113925924
  0
LINE
  8
0
 62
7
  6
CONTINUOUS
 10
100.1856643415
 20
258.4322735431
 11
100.3619609681
 21
257.2030854912
  0
LINE
  8
QUILTS
 62
7
  6
CONTINUOUS
 10
107.2549643709
 20
241.6129907873
 11
106.6334302402
 21
246.8466781776
  0
LINE
  8
QUILTS
 62
7
  6
CONTINUOUS
 10
106.4928575437
 20
243.0738008155
 11
106.6428671986
 21
241.7393318009
  0
LINE
  8
QUILTS
 62
7
  6
CONTINUOUS
 10
106.1393476121
 20
246.5141582374
 11
106.4768623082
 21
243.511604291
  0
LINE
  8
QUILTS
 62
7
  6
CONTINUOUS
 10
112.217533658
 20
242.0637020717
 11
112.1820981398
 21
242.6338592113
  0
LINE
  8
0
 62
7
  6
CONTINUOUS
 10
112.4838621417
 20
142.6396101184
 11
112.5006494597
 21
142.8539355509
  0
LINE
  8
0
 62
7
  6
CONTINUOUS
 10
123.7045156426
 20
249.4516017112
 11
123.7326559309
 21
249.6647338985
  0
LINE
  8
0
 62
7
  6
CONTINUOUS
 10
88.3764314367
 20
140.8494638362
 11
88.4789414217
 21
141.0384318442
  0
LINE
  8
0
 62
7
  6
CONTINUOUS
 10
142.0713593749
 20
233.8632226396
 11
142.1837554779
 21
234.0464828948
  0
LINE
  8
0
 62
7
  6
CONTINUOUS
 10
65.6250795313
 20
149.0194592698
 11
65.7955872757
 21
149.150395568
  0
LINE
  8
0
 62
7
  6
CONTINUOUS
 10
152.5099410633
 20
212.1520613832
 11
152.6871586735
 21
212.2737623432
  0
LINE
  8
QUILTS
 62
7
  6
CONTINUOUS
 10
52.8874703994
 20
213.0147534637
 11
53.3594401775
 21
213.0562854128
  0
LINE
  8
QUILTS
 62
7
  6
CONTINUOUS
 10
51.8276871647
 20
217.6643343547
 11
51.3557174562
 21
217.6228023788
  0
LINE
  8
QUILTS
 62
7
  6
CONTINUOUS
 10
52.2028613933
 20
219.7168220814
 11
57.274180046
 21
220.0132258523
  0
LINE
  8
0
 62
7
  6
CONTINUOUS
 10
150.0264827807
 20
220.4624807363
 11
149.8115766928
 21
220.4567729834
  0
LINE
  8
0
 62
7
  6
CONTINUOUS
 10
42.6267407864
 20
220.4567729834
 11
42.4118346985
 21
220.4624807363
  0
LINE
  8
0
 62
7
  6
CONTINUOUS
 10
154.3267351391
 20
196.674234299
 11
154.1280871065
 21
196.7564301881
  0
LINE
  8
0
 62
7
  6
CONTINUOUS
 10
56.209867136
 20
240.3524305333
 11
56.0158622078
 21
240.4450550058
  0
LINE
  8
QUILTS
 62
7
  6
CONTINUOUS
 10
67.5500310022
 20
233.3330631408
 11
67.3367831696
 21
233.4362380752
  0
LINE
  8
QUILTS
 62
7
  6
CONTINUOUS
 10
69.4521161599
 20
234.2835492976
 11
69.6653677565
 21
234.1803772906
  0
LINE
  8
QUILTS
 62
7
  6
CONTINUOUS
 10
67.7129003671
 20
236.1643248114
 11
67.9261481996
 21
236.061149877
  0
LINE
  8
0
 62
7
  6
CONTINUOUS
 10
148.5796596473
 20
173.1935196123
 11
148.4316177194
 21
173.3494067273
  0
LINE
  8
0
 62
7
  6
CONTINUOUS
 10
76.7109634769
 20
253.0032629008
 11
76.571404923
 21
253.1667884802
  0
LINE
  8
QUILTS
 62
7
  6
CONTINUOUS
 10
88.7950457315
 20
243.6622649004
 11
89.0535494012
 21
243.2652047996
  0
LINE
  8
QUILTS
 62
7
  6
CONTINUOUS
 10
89.6739171179
 20
243.3411580483
 11
89.4154134483
 21
243.7382181491
  0
LINE
  8
QUILTS
 62
7
  6
CONTINUOUS
 10
92.4526109771
 20
244.6459568546
 11
92.1811838204
 21
245.1486121012
  0
LINE
  8
0
 62
7
  6
CONTINUOUS
 10
133.7789778683
 20
154.0803655611
 11
133.7071398394
 21
154.2829896037
  0
LINE
  8
0
 62
7
  6
CONTINUOUS
 10
100.585204005
 20
256.2218262405
 11
100.5242227672
 21
256.4279778685
  0
LINE
  8
QUILTS
 62
7
  6
CONTINUOUS
 10
53.3854392415
 20
213.7159962754
 11
53.0127487875
 21
213.6362417266
  0
LINE
  8
QUILTS
 62
7
  6
CONTINUOUS
 10
51.3297183226
 20
216.963091543
 11
51.7024090547
 21
217.0428459847
  0
LINE
  8
QUILTS
 62
7
  6
CONTINUOUS
 10
56.7578765113
 20
220.6342221959
 11
51.7809249638
 21
220.2887042643
  0
LINE
  8
QUILTS
 62
7
  6
CONTINUOUS
 10
58.541823267
 20
225.8018602694
 11
58.0143985459
 21
225.7782640611
  0
LINE
  8
QUILTS
 62
7
  6
CONTINUOUS
 10
65.3379823533
 20
233.2939507865
 11
64.8179098245
 21
233.3848253273
  0
LINE
  8
QUILTS
 62
7
  6
CONTINUOUS
 10
89.0535494012
 20
243.2652047996
 11
89.4154461081
 21
242.8808034174
  0
LINE
  8
QUILTS
 62
7
  6
CONTINUOUS
 10
92.1811838204
 20
245.1486121012
 11
91.819287118
 21
245.5330134464
  0
LINE
  8
QUILTS
 62
7
  6
CONTINUOUS
 10
91.5608161036
 20
245.0726588525
 11
91.8063868202
 21
244.7811927386
  0
LINE
  8
QUILTS
 62
7
  6
CONTINUOUS
 10
108.619402773
 20
242.1036320829
 11
108.7865809233
 21
241.6028475831
  0
LINE
  8
QUILTS
 62
7
  6
CONTINUOUS
 10
109.2143770279
 20
241.9122407666
 11
109.1137870496
 21
242.2798535741
  0
LINE
  8
QUILTS
 62
7
  6
CONTINUOUS
 10
112.009194437
 20
244.477505562
 11
112.1097844381
 21
244.1098928255
  0
LINE
  8
QUILTS
 62
7
  6
CONTINUOUS
 10
57.9906043801
 20
225.1678900854
 11
58.2832378958
 21
225.2230028247
  0
LINE
  8
QUILTS
 62
7
  6
CONTINUOUS
 10
56.2211284192
 20
226.3493680909
 11
56.5137619348
 21
226.4044808302
  0
LINE
  8
QUILTS
 62
7
  6
CONTINUOUS
 10
56.772347306
 20
226.9833382749
 11
56.244922585
 21
226.9597420665
  0
LINE
  8
QUILTS
 62
7
  6
CONTINUOUS
 10
64.6628479608
 20
232.7939967812
 11
64.960477916
 21
232.7846053877
  0
LINE
  8
QUILTS
 62
7
  6
CONTINUOUS
 10
63.1903130427
 20
234.3297625083
 11
63.4879429978
 21
234.3203711148
  0
LINE
  8
QUILTS
 62
7
  6
CONTINUOUS
 10
67.205782186
 20
232.9279994159
 11
67.6486214774
 21
232.8696413245
  0
LINE
  8
QUILTS
 62
7
  6
CONTINUOUS
 10
68.057147307
 20
236.5693870654
 11
67.7619236374
 21
236.6082943916
  0
LINE
  8
QUILTS
 62
7
  6
CONTINUOUS
 10
63.8654474352
 20
234.8297165136
 11
63.3453749063
 21
234.9205910544
  0
LINE
  8
QUILTS
 62
7
  6
CONTINUOUS
 10
101.8245929962
 20
247.002004027
 11
102.0118756236
 21
246.7704916096
  0
LINE
  8
QUILTS
 62
7
  6
CONTINUOUS
 10
102.6340751946
 20
246.7113925924
 11
102.363213033
 21
247.1645672904
  0
LINE
  8
QUILTS
 62
7
  6
CONTINUOUS
 10
111.5545466434
 20
242.723978326
 11
111.6877138859
 21
242.457637791
  0
LINE
  8
QUILTS
 62
7
  6
CONTINUOUS
 10
112.1820981398
 20
242.6338592113
 11
111.9823427366
 21
243.0333714741
  0
LINE
  8
QUILTS
 62
7
  6
CONTINUOUS
 10
112.6041686919
 20
244.2861142458
 11
112.4369905302
 21
244.7868987101
  0
LINE
  8
QUILTS
 62
7
  6
CONTINUOUS
 10
110.6720936808
 20
240.6610608712
 11
111.2656433452
 21
240.805382792
  0
LINE
  8
QUILTS
 62
7
  6
CONTINUOUS
 10
67.6486214774
 20
232.8696413245
 11
67.8782110312
 21
232.9144567332
  0
LINE
  8
QUILTS
 62
7
  6
CONTINUOUS
 10
68.0092119977
 20
233.4226954146
 11
67.5500310022
 21
233.3330631408
  0
LINE
  8
QUILTS
 62
7
  6
CONTINUOUS
 10
63.3453749063
 20
234.9205910544
 11
62.8237417315
 21
234.8625855658
  0
LINE
  8
QUILTS
 62
7
  6
CONTINUOUS
 10
67.7619236374
 20
236.6082943916
 11
67.3847203782
 21
236.5829311677
  0
LINE
  8
QUILTS
 62
7
  6
CONTINUOUS
 10
89.4154461081
 20
242.8808034174
 11
89.9712054195
 21
242.6273144795
  0
LINE
  8
QUILTS
 62
7
  6
CONTINUOUS
 10
91.819287118
 20
245.5330134464
 11
91.26352781
 21
245.7865023565
  0
LINE
  8
QUILTS
 62
7
  6
CONTINUOUS
 10
90.0099573983
 20
243.1679456878
 11
89.6739171179
 21
243.3411580483
  0
LINE
  8
QUILTS
 62
7
  6
CONTINUOUS
 10
91.2247758232
 20
245.2458712129
 11
91.5608161036
 21
245.0726588525
  0
LINE
  8
QUILTS
 62
7
  6
CONTINUOUS
 10
102.363213033
 20
247.1645672904
 11
101.9785931193
 21
247.5216853769
  0
LINE
  8
QUILTS
 62
7
  6
CONTINUOUS
 10
108.7865809233
 20
241.6028475831
 11
109.1846580434
 21
241.1395391618
  0
LINE
  8
QUILTS
 62
7
  6
CONTINUOUS
 10
111.9823427366
 20
243.0333714741
 11
111.5842565294
 21
243.4966827891
  0
LINE
  8
QUILTS
 62
7
  6
CONTINUOUS
 10
109.4467096725
 20
241.6140007054
 11
109.2143770279
 21
241.9122407666
  0
LINE
  8
QUILTS
 62
7
  6
CONTINUOUS
 10
111.3222139987
 20
243.0222183872
 11
111.5545466434
 21
242.723978326
  0
LINE
  8
QUILTS
 62
7
  6
CONTINUOUS
 10
111.7768617924
 20
244.7757456232
 11
112.009194437
 21
244.477505562
  0
LINE
  8
QUILTS
 62
7
  6
CONTINUOUS
 10
82.0744668966
 20
240.6963644883
 11
86.0830726134
 21
241.8331045963
  0
LINE
  8
QUILTS
 62
7
  6
CONTINUOUS
 10
85.9089336372
 20
242.447189109
 11
82.5016190073
 21
241.4809600823
  0
LINE
  8
QUILTS
 62
7
  6
CONTINUOUS
 10
110.6506340876
 20
245.6967887896
 11
110.0570935104
 21
245.552463975
  0
LINE
  8
QUILTS
 62
7
  6
CONTINUOUS
 10
101.6938206902
 20
245.625221865
 11
101.3726614987
 21
245.5488650762
  0
LINE
  8
QUILTS
 62
7
  6
CONTINUOUS
 10
87.5209205498
 20
242.0944252165
 11
88.1338645956
 21
242.2165914832
  0
LINE
  8
QUILTS
 62
7
  6
CONTINUOUS
 10
67.4833089427
 20
236.1195079244
 11
67.7129003671
 21
236.1643248114
  0
LINE
  8
QUILTS
 62
7
  6
CONTINUOUS
 10
90.5011035736
 20
242.5850139655
 11
91.1214712903
 21
242.6609672142
  0
LINE
  8
QUILTS
 62
7
  6
CONTINUOUS
 10
91.0568302263
 20
243.1889397501
 11
90.4364625095
 21
243.1129865014
  0
LINE
  8
QUILTS
 62
7
  6
CONTINUOUS
 10
89.4154134483
 20
243.7382181491
 11
88.7950457315
 21
243.6622649004
  0
LINE
  8
QUILTS
 62
7
  6
CONTINUOUS
 10
88.6786918143
 20
244.6126154798
 11
89.4024573059
 21
244.7012279896
  0
LINE
  8
QUILTS
 62
7
  6
CONTINUOUS
 10
101.2086067166
 20
244.9232769781
 11
101.7371673475
 21
244.9799339442
  0
LINE
  8
QUILTS
 62
7
  6
CONTINUOUS
 10
110.7358235845
 20
241.1993185468
 11
110.4057592156
 21
241.1937420033
  0
LINE
  8
QUILTS
 62
7
  6
CONTINUOUS
 10
110.0331000868
 20
243.4369005459
 11
110.3631644557
 21
243.4424770893
  0
LINE
  8
QUILTS
 62
7
  6
CONTINUOUS
 10
110.5869132824
 20
245.1585282557
 11
110.9169776514
 21
245.1641047991
  0
LINE
  8
QUILTS
 62
7
  6
CONTINUOUS
 10
89.9712054195
 20
242.6273144795
 11
90.5011035736
 21
242.5850139655
  0
LINE
  8
QUILTS
 62
7
  6
CONTINUOUS
 10
91.26352781
 20
245.7865023565
 11
90.733624924
 21
245.8288022819
  0
LINE
  8
QUILTS
 62
7
  6
CONTINUOUS
 10
98.5085608787
 20
242.9356405063
 11
99.1307604497
 21
242.876541489
  0
LINE
  8
QUILTS
 62
7
  6
CONTINUOUS
 10
99.3420080036
 20
245.1005740298
 11
101.2086067166
 21
244.9232769781
  0
LINE
  8
QUILTS
 62
7
  6
CONTINUOUS
 10
110.1437075836
 20
240.7192804509
 11
110.6720936808
 21
240.6610608712
  0
LINE
  8
QUILTS
 62
7
  6
CONTINUOUS
 10
110.6252160649
 20
243.9169385708
 11
110.0968208919
 21
243.9751610797
  0
LINE
  8
QUILTS
 62
7
  6
CONTINUOUS
 10
90.4364625095
 20
243.1129865014
 11
90.0099573983
 21
243.1679456878
  0
LINE
  8
QUILTS
 62
7
  6
CONTINUOUS
 10
90.798265979
 20
245.3008298199
 11
91.2247758232
 21
245.2458712129
  0
LINE
  8
QUILTS
 62
7
  6
CONTINUOUS
 10
103.1743134425
 20
242.4552648538
 11
103.7864106148
 21
242.3289238402
  0
LINE
  8
QUILTS
 62
7
  6
CONTINUOUS
 10
106.6428671986
 20
241.7393318009
 11
107.2549643709
 21
241.6129907873
  0
LINE
  8
QUILTS
 62
7
  6
CONTINUOUS
 10
104.4525320795
 20
243.4949378487
 11
106.4928575437
 21
243.0738008155
  0
LINE
  8
QUILTS
 62
7
  6
CONTINUOUS
 10
106.4768623082
 20
243.511604291
 11
104.6405707914
 21
243.8906273318
  0
LINE
  8
QUILTS
 62
7
  6
CONTINUOUS
 10
109.6478987306
 20
240.878772241
 11
110.1437075836
 21
240.7192804509
  0
LINE
  8
QUILTS
 62
7
  6
CONTINUOUS
 10
110.4057592156
 20
241.1937420033
 11
109.7116195586
 21
241.4170328458
  0
LINE
  8
QUILTS
 62
7
  6
CONTINUOUS
 10
101.5235526167
 20
247.1374598329
 11
101.8245929962
 21
247.002004027
  0
LINE
  8
QUILTS
 62
7
  6
CONTINUOUS
 10
109.1846580434
 20
241.1395391618
 11
109.6478987306
 21
240.878772241
  0
LINE
  8
QUILTS
 62
7
  6
CONTINUOUS
 10
111.5842565294
 20
243.4966827891
 11
111.1210249178
 21
243.7574467807
  0
LINE
  8
QUILTS
 62
7
  6
CONTINUOUS
 10
109.7116195586
 20
241.4170328458
 11
109.4467096725
 21
241.6140007054
  0
LINE
  8
QUILTS
 62
7
  6
CONTINUOUS
 10
111.0573041127
 20
243.2191862469
 11
111.3222139987
 21
243.0222183872
  0
LINE
  8
QUILTS
 62
7
  6
CONTINUOUS
 10
111.5119519063
 20
244.9727134829
 11
111.7768617924
 21
244.7757456232
  0
LINE
  8
QUILTS
 62
7
  6
CONTINUOUS
 10
112.4369905302
 20
244.7868987101
 11
112.0389134016
 21
245.2502071048
  0
LINE
  8
QUILTS
 62
7
  6
CONTINUOUS
 10
80.8554940432
 20
244.9949561492
 11
84.363022325
 21
245.9896032559
  0
LINE
  8
QUILTS
 62
7
  6
CONTINUOUS
 10
84.7189839634
 20
246.6434332914
 11
80.7103782466
 21
245.5066931834
  0
LINE
  8
QUILTS
 62
7
  6
CONTINUOUS
 10
87.1565344619
 20
247.1201438496
 11
86.5435904161
 21
246.9979775829
  0
LINE
  8
QUILTS
 62
7
  6
CONTINUOUS
 10
90.1778982623
 20
245.2248765712
 11
90.798265979
 21
245.3008298199
  0
LINE
  8
QUILTS
 62
7
  6
CONTINUOUS
 10
90.733624924
 20
245.8288022819
 11
90.1132572072
 21
245.7528490331
  0
LINE
  8
QUILTS
 62
7
  6
CONTINUOUS
 10
88.924174022
 20
246.893394683
 11
91.9226195641
 21
247.2605022449
  0
LINE
  8
QUILTS
 62
7
  6
CONTINUOUS
 10
91.8579785091
 20
247.7884747069
 11
88.342558292
 21
247.3580725779
  0
LINE
  8
QUILTS
 62
7
  6
CONTINUOUS
 10
101.3726614987
 20
245.5488650762
 11
99.4023644395
 21
245.7360118138
  0
LINE
  8
QUILTS
 62
7
  6
CONTINUOUS
 10
99.5532555575
 20
247.3246065705
 11
101.5235526167
 21
247.1374598329
  0
LINE
  8
QUILTS
 62
7
  6
CONTINUOUS
 10
101.4701513004
 20
247.6768410055
 11
98.9813530164
 21
247.9132370743
  0
LINE
  8
QUILTS
 62
7
  6
CONTINUOUS
 10
111.1790292606
 20
245.6385662807
 11
110.6506340876
 21
245.6967887896
  0
LINE
  8
QUILTS
 62
7
  6
CONTINUOUS
 10
106.6334302402
 20
246.8466781776
 11
105.8172991205
 21
247.0151331836
  0
LINE
  8
QUILTS
 62
7
  6
CONTINUOUS
 10
101.9785931193
 20
247.5216853769
 11
101.4701513004
 21
247.6768410055
  0
LINE
  8
QUILTS
 62
7
  6
CONTINUOUS
 10
110.3631644557
 20
243.4424770893
 11
111.0573041127
 21
243.2191862469
  0
LINE
  8
QUILTS
 62
7
  6
CONTINUOUS
 10
111.1210249178
 20
243.7574467807
 11
110.6252160649
 21
243.9169385708
  0
LINE
  8
QUILTS
 62
7
  6
CONTINUOUS
 10
112.1097844381
 20
244.1098928255
 11
112.6056023697
 21
243.950398115
  0
LINE
  8
QUILTS
 62
7
  6
CONTINUOUS
 10
110.9169776514
 20
245.1641047991
 11
111.5119519063
 21
244.9727134829
  0
LINE
  8
QUILTS
 62
7
  6
CONTINUOUS
 10
111.5756727115
 20
245.5109740168
 11
111.1790292606
 21
245.6385662807
  0
LINE
  8
QUILTS
 62
7
  6
CONTINUOUS
 10
112.0389134016
 20
245.2502071048
 11
111.5756727115
 21
245.5109740168
  0
LINE
  8
0
 62
7
  6
CONTINUOUS
 10
156.2153295903
 20
188.9122649759
 11
156.8878599822
 21
195.3109642309
  0
LINE
  8
0
 62
7
  6
CONTINUOUS
 10
147.1478991834
 20
165.3344472275
 11
150.3648717231
 21
170.9064071128
  0
LINE
  8
0
 62
7
  6
CONTINUOUS
 10
134.4795977907
 20
151.2648731592
 11
129.2744268806
 21
147.4830951275
  0
LINE
  8
0
 62
7
  6
CONTINUOUS
 10
99.4361312793
 20
259.1175731269
 11
93.0021861999
 21
259.1175731269
  0
LINE
  8
0
 62
7
  6
CONTINUOUS
 10
123.8325918412
 20
252.5643681089
 11
117.9548905392
 21
255.1812893323
  0
LINE
  8
0
 62
7
  6
CONTINUOUS
 10
143.4544389597
 20
236.6547829599
 11
139.1492893875
 21
241.436135953
  0
LINE
  8
0
 62
7
  6
CONTINUOUS
 10
154.9088770091
 20
214.139729486
 11
152.9206786387
 21
220.2587748792
  0
POLYLINE
  8
0
 62
7
  6
CONTINUOUS
 66
1
 70
0
  0
VERTEX
  8
0
 62
7
  6
CONTINUOUS
 10
35.5493878288
 20
89.2760359722
  0
VERTEX
  8
0
 62
7
  6
CONTINUOUS
 10
35.5499525455
 20
89.2522789037
  0
VERTEX
  8
0
 62
7
  6
CONTINUOUS
 10
35.5572679904
 20
89.1876157081
  0
VERTEX
  8
0
 62
7
  6
CONTINUOUS
 10
35.5726086696
 20
89.1254308523
  0
VERTEX
  8
0
 62
7
  6
CONTINUOUS
 10
35.5952644701
 20
89.0668170697
  0
VERTEX
  8
0
 62
7
  6
CONTINUOUS
 10
35.6243571064
 20
89.0126923049
  0
VERTEX
  8
0
 62
7
  6
CONTINUOUS
 10
35.6588819784
 20
88.9637752625
  0
VERTEX
  8
0
 62
7
  6
CONTINUOUS
 10
35.6977527789
 20
88.9205713428
  0
VERTEX
  8
0
 62
7
  6
CONTINUOUS
 10
35.7398446797
 20
88.8833703043
  0
VERTEX
  8
0
 62
7
  6
CONTINUOUS
 10
35.7840377345
 20
88.8522507104
  0
VERTEX
  8
0
 62
7
  6
CONTINUOUS
 10
35.8292537851
 20
88.8270954879
  0
VERTEX
  8
0
 62
7
  6
CONTINUOUS
 10
35.8744724903
 20
88.8076191826
  0
VERTEX
  8
0
 62
7
  6
CONTINUOUS
 10
35.918750826
 20
88.7933874676
  0
VERTEX
  8
0
 62
7
  6
CONTINUOUS
 10
35.9600333617
 20
88.7840534781
  0
VERTEX
  8
0
 62
7
  6
CONTINUOUS
 10
35.989486692
 20
88.7795534549
  0
VERTEX
  8
0
 62
7
  6
CONTINUOUS
 10
36.0056742589
 20
88.7777119399
  0
VERTEX
  8
0
 62
7
  6
CONTINUOUS
 10
36.0228525392
 20
88.7759768731
  0
VERTEX
  8
0
 62
7
  6
CONTINUOUS
 10
36.0757581359
 20
88.7709807339
  0
SEQEND
  0
LINE
  8
2_FEATURE
 62
7
  6
CONTINUOUS
 10
35.549386896
 20
95.8578597626
 11
35.549386896
 21
89.2759392863
  0
LINE
  8
2_FEATURE
 62
7
  6
CONTINUOUS
 10
37.5023091881
 20
95.8587202683
 11
37.5023091881
 21
89.2750787804
  0
POLYLINE
  8
0
 62
7
  6
CONTINUOUS
 66
1
 70
0
  0
VERTEX
  8
0
 62
7
  6
CONTINUOUS
 10
37.50230953
 20
89.27518501
  0
VERTEX
  8
0
 62
7
  6
CONTINUOUS
 10
37.518096152
 20
89.1505161332
  0
VERTEX
  8
0
 62
7
  6
CONTINUOUS
 10
37.5576665188
 20
89.0464687543
  0
VERTEX
  8
0
 62
7
  6
CONTINUOUS
 10
37.6164093639
 20
88.9571857385
  0
VERTEX
  8
0
 62
7
  6
CONTINUOUS
 10
37.6886804008
 20
88.8856747338
  0
VERTEX
  8
0
 62
7
  6
CONTINUOUS
 10
37.7684629652
 20
88.8330701653
  0
VERTEX
  8
0
 62
7
  6
CONTINUOUS
 10
37.8495042574
 20
88.7987903465
  0
VERTEX
  8
0
 62
7
  6
CONTINUOUS
 10
37.9173884895
 20
88.7816701796
  0
SEQEND
  0
LINE
  8
1_AXIS
 62
7
  6
CONTINUOUS
 10
43.7191587396
 20
103.0668995244
 11
43.7191587396
 21
97.5668995244
  0
LINE
  8
1_AXIS
 62
7
  6
CONTINUOUS
 10
43.7191587396
 20
87.5668995244
 11
43.7191587396
 21
82.0668995244
  0
LINE
  8
2_FEATURE
 62
7
  6
CONTINUOUS
 10
48.805906901
 20
95.8636375771
 11
48.805906901
 21
89.2701614717
  0
POLYLINE
  8
0
 62
7
  6
CONTINUOUS
 66
1
 70
0
  0
VERTEX
  8
0
 62
7
  6
CONTINUOUS
 10
48.805907673
 20
89.2702549019
  0
VERTEX
  8
0
 62
7
  6
CONTINUOUS
 10
48.8064070038
 20
89.2926160998
  0
VERTEX
  8
0
 62
7
  6
CONTINUOUS
 10
48.8227595747
 20
89.1414177721
  0
VERTEX
  8
0
 62
7
  6
CONTINUOUS
 10
48.8807562337
 20
89.0068197818
  0
VERTEX
  8
0
 62
7
  6
CONTINUOUS
 10
48.9681557848
 20
88.901050659
  0
VERTEX
  8
0
 62
7
  6
CONTINUOUS
 10
49.0178433534
 20
88.8608756178
  0
VERTEX
  8
0
 62
7
  6
CONTINUOUS
 10
49.1192533902
 20
88.8050854962
  0
VERTEX
  8
0
 62
7
  6
CONTINUOUS
 10
49.2109972849
 20
88.7763292856
  0
VERTEX
  8
0
 62
7
  6
CONTINUOUS
 10
49.2916307732
 20
88.7618436988
  0
SEQEND
  0
POLYLINE
  8
0
 62
7
  6
CONTINUOUS
 66
1
 70
0
  0
VERTEX
  8
0
 62
7
  6
CONTINUOUS
 10
68.1693597501
 20
89.2618022099
  0
VERTEX
  8
0
 62
7
  6
CONTINUOUS
 10
68.1790737207
 20
89.1635422005
  0
VERTEX
  8
0
 62
7
  6
CONTINUOUS
 10
68.2420688546
 20
89.0015845038
  0
VERTEX
  8
0
 62
7
  6
CONTINUOUS
 10
68.3467054983
 20
88.8787262614
  0
VERTEX
  8
0
 62
7
  6
CONTINUOUS
 10
68.46950531
 20
88.8012561139
  0
VERTEX
  8
0
 62
7
  6
CONTINUOUS
 10
68.5309397016
 20
88.7779561137
  0
SEQEND
  0
LINE
  8
2_FEATURE
 62
7
  6
CONTINUOUS
 10
68.1693593249
 20
95.8720484692
 11
68.1693593249
 21
89.2617505795
  0
POLYLINE
  8
0
 62
7
  6
CONTINUOUS
 66
1
 70
0
  0
VERTEX
  8
0
 62
7
  6
CONTINUOUS
 10
37.8762204829
 20
96.3428753009
  0
VERTEX
  8
0
 62
7
  6
CONTINUOUS
 10
37.803945491
 20
96.3177984068
  0
VERTEX
  8
0
 62
7
  6
CONTINUOUS
 10
37.7292350747
 20
96.2775909346
  0
VERTEX
  8
0
 62
7
  6
CONTINUOUS
 10
37.6569792867
 20
96.2202902629
  0
VERTEX
  8
0
 62
7
  6
CONTINUOUS
 10
37.5932448841
 20
96.1461875487
  0
VERTEX
  8
0
 62
7
  6
CONTINUOUS
 10
37.5436269861
 20
96.0576713875
  0
VERTEX
  8
0
 62
7
  6
CONTINUOUS
 10
37.5124366008
 20
95.9587521016
  0
VERTEX
  8
0
 62
7
  6
CONTINUOUS
 10
37.50230953
 20
95.8586140506
  0
SEQEND
  0
LINE
  8
0
 62
7
  6
CONTINUOUS
 10
68.9562241474
 20
96.4938493876
 11
68.9565297424
 21
96.4940686234
  0
LINE
  8
0
 62
7
  6
CONTINUOUS
 10
68.9568771564
 20
96.494213696
 11
68.9562241474
 21
96.4938493876
  0
LINE
  8
0
 62
7
  6
CONTINUOUS
 10
68.9568773387
 20
88.6395854287
 11
68.9562439577
 21
88.6399387675
  0
LINE
  8
0
 62
7
  6
CONTINUOUS
 10
68.9565297424
 20
96.4940686234
 11
68.9538701646
 21
96.4928095363
  0
LINE
  8
0
 62
7
  6
CONTINUOUS
 10
68.9538701646
 20
96.4928095363
 11
68.9210077307
 21
96.479542357
  0
LINE
  8
0
 62
7
  6
CONTINUOUS
 10
69.0988723367
 20
96.5506600918
 11
68.9568772317
 21
96.4942135609
  0
POLYLINE
  8
0
 62
7
  6
CONTINUOUS
 66
1
 70
0
  0
VERTEX
  8
0
 62
7
  6
CONTINUOUS
 10
68.5309214864
 20
96.3558372142
  0
VERTEX
  8
0
 62
7
  6
CONTINUOUS
 10
68.4729264944
 20
96.3340674204
  0
VERTEX
  8
0
 62
7
  6
CONTINUOUS
 10
68.3490343525
 20
96.2570423874
  0
VERTEX
  8
0
 62
7
  6
CONTINUOUS
 10
68.2432091916
 20
96.1340875305
  0
VERTEX
  8
0
 62
7
  6
CONTINUOUS
 10
68.1793092322
 20
95.9714291451
  0
VERTEX
  8
0
 62
7
  6
CONTINUOUS
 10
68.16935975
 20
95.8719968097
  0
SEQEND
  0
LINE
  8
0
 62
7
  6
CONTINUOUS
 10
68.9210077307
 20
96.479542357
 11
68.8700876183
 21
96.4623435957
  0
POLYLINE
  8
0
 62
7
  6
CONTINUOUS
 66
1
 70
0
  0
VERTEX
  8
0
 62
7
  6
CONTINUOUS
 10
143.182791379
 20
88.767513996
  0
VERTEX
  8
0
 62
7
  6
CONTINUOUS
 10
143.2575730284
 20
88.7839836658
  0
VERTEX
  8
0
 62
7
  6
CONTINUOUS
 10
143.3490131523
 20
88.8185335477
  0
VERTEX
  8
0
 62
7
  6
CONTINUOUS
 10
143.4443151557
 20
88.8788572081
  0
VERTEX
  8
0
 62
7
  6
CONTINUOUS
 10
143.5302177726
 20
88.9669978639
  0
VERTEX
  8
0
 62
7
  6
CONTINUOUS
 10
143.5945878791
 20
89.0793025389
  0
VERTEX
  8
0
 62
7
  6
CONTINUOUS
 10
143.6293376238
 20
89.2148621841
  0
VERTEX
  8
0
 62
7
  6
CONTINUOUS
 10
143.6324104066
 20
89.270260357
  0
SEQEND
  0
LINE
  8
1_AXIS
 62
7
  6
CONTINUOUS
 10
146.7191587396
 20
80.0668995244
 11
45.7191587396
 21
80.0668995244
  0
POLYLINE
  8
0
 62
7
  6
CONTINUOUS
 66
1
 70
0
  0
VERTEX
  8
0
 62
7
  6
CONTINUOUS
 10
37.9173884895
 20
88.7816701796
  0
VERTEX
  8
0
 62
7
  6
CONTINUOUS
 10
37.9616345556
 20
88.7747154092
  0
VERTEX
  8
0
 62
7
  6
CONTINUOUS
 10
38.00619613
 20
88.7692424529
  0
VERTEX
  8
0
 62
7
  6
CONTINUOUS
 10
38.0670840399
 20
88.7627102839
  0
SEQEND
  0
POLYLINE
  8
0
 62
7
  6
CONTINUOUS
 66
1
 70
0
  0
VERTEX
  8
0
 62
7
  6
CONTINUOUS
 10
68.8700946193
 20
88.6714532583
  0
VERTEX
  8
0
 62
7
  6
CONTINUOUS
 10
68.9200128399
 20
88.6546218952
  0
VERTEX
  8
0
 62
7
  6
CONTINUOUS
 10
68.9410776002
 20
88.646504922
  0
SEQEND
  0
LINE
  8
0
 62
7
  6
CONTINUOUS
 10
68.9568773387
 20
88.6395854287
 11
69.0970412869
 21
88.5835981737
  0
LINE
  8
0
 62
7
  6
CONTINUOUS
 10
68.9410776002
 20
88.646504922
 11
68.9562438803
 21
88.6399386291
  0
LINE
  8
0
 62
7
  6
CONTINUOUS
 10
68.8699097852
 20
96.4622877948
 11
68.5308913176
 21
96.3558286647
  0
LINE
  8
0
 62
7
  6
CONTINUOUS
 10
143.1290374508
 20
88.759396325
 11
143.182791379
 21
88.767513996
  0
POLYLINE
  8
0
 62
7
  6
CONTINUOUS
 66
1
 70
0
  0
VERTEX
  8
0
 62
7
  6
CONTINUOUS
 10
141.8380682731
 20
88.5822131898
  0
VERTEX
  8
0
 62
7
  6
CONTINUOUS
 10
141.9749093968
 20
88.6027725338
  0
VERTEX
  8
0
 62
7
  6
CONTINUOUS
 10
142.17128813
 20
88.6308466635
  0
SEQEND
  0
LINE
  8
0
 62
7
  6
CONTINUOUS
 10
141.7873286026
 20
88.5753965549
 11
141.8380455061
 21
88.5822098123
  0
LINE
  8
0
 62
7
  6
CONTINUOUS
 10
142.17128813
 20
88.6308466635
 11
143.1290955635
 21
88.7594038227
  0
POLYLINE
  8
0
 62
7
  6
CONTINUOUS
 66
1
 70
0
  0
VERTEX
  8
0
 62
7
  6
CONTINUOUS
 10
154.3734717216
 20
88.7629388204
  0
VERTEX
  8
0
 62
7
  6
CONTINUOUS
 10
154.446911613
 20
88.770964729
  0
VERTEX
  8
0
 62
7
  6
CONTINUOUS
 10
154.5017367227
 20
88.7783644313
  0
VERTEX
  8
0
 62
7
  6
CONTINUOUS
 10
154.5621203879
 20
88.790929958
  0
SEQEND
  0
POLYLINE
  8
0
 62
7
  6
CONTINUOUS
 66
1
 70
0
  0
VERTEX
  8
0
 62
7
  6
CONTINUOUS
 10
156.4147546862
 20
88.7759073289
  0
VERTEX
  8
0
 62
7
  6
CONTINUOUS
 10
156.4333972373
 20
88.7777915339
  0
VERTEX
  8
0
 62
7
  6
CONTINUOUS
 10
156.4523574032
 20
88.7800047163
  0
VERTEX
  8
0
 62
7
  6
CONTINUOUS
 10
156.4856447813
 20
88.7854519808
  0
VERTEX
  8
0
 62
7
  6
CONTINUOUS
 10
156.5265508825
 20
88.7953339924
  0
VERTEX
  8
0
 62
7
  6
CONTINUOUS
 10
156.5705960084
 20
88.8101971321
  0
VERTEX
  8
0
 62
7
  6
CONTINUOUS
 10
156.5929273525
 20
88.8195366019
  0
VERTEX
  8
0
 62
7
  6
CONTINUOUS
 10
156.6372055815
 20
88.8420276129
  0
VERTEX
  8
0
 62
7
  6
CONTINUOUS
 10
156.6811012834
 20
88.8702798052
  0
VERTEX
  8
0
 62
7
  6
CONTINUOUS
 10
156.7243808163
 20
88.9052620021
  0
VERTEX
  8
0
 62
7
  6
CONTINUOUS
 10
156.7659214726
 20
88.9475900755
  0
VERTEX
  8
0
 62
7
  6
CONTINUOUS
 10
156.8040423813
 20
88.9973248948
  0
VERTEX
  8
0
 62
7
  6
CONTINUOUS
 10
156.8370868227
 20
89.0543319585
  0
VERTEX
  8
0
 62
7
  6
CONTINUOUS
 10
156.8633982161
 20
89.1183135436
  0
VERTEX
  8
0
 62
7
  6
CONTINUOUS
 10
156.8812261982
 20
89.1886267328
  0
VERTEX
  8
0
 62
7
  6
CONTINUOUS
 10
156.8887858922
 20
89.2642145724
  0
VERTEX
  8
0
 62
7
  6
CONTINUOUS
 10
156.8889256448
 20
89.2760354015
  0
SEQEND
  0
LINE
  8
0
 62
7
  6
CONTINUOUS
 10
154.3104505088
 20
88.7567371672
 11
154.3734717216
 21
88.7629388204
  0
LINE
  8
0
 62
7
  6
CONTINUOUS
 10
152.4605686368
 20
88.5788463405
 11
154.3104505088
 21
88.7567371672
  0
LINE
  8
0
 62
7
  6
CONTINUOUS
 10
156.3545415802
 20
88.7702421994
 11
156.4147546862
 21
88.7759073289
  0
LINE
  8
0
 62
7
  6
CONTINUOUS
 10
156.3545415802
 20
88.7702421994
 11
154.1871497362
 21
88.5783154301
  0
LINE
  8
0
 62
7
  6
CONTINUOUS
 10
152.4026279771
 20
88.5737963009
 11
152.4605681263
 21
88.5788464004
  0
LINE
  8
0
 62
7
  6
CONTINUOUS
 10
39.9777491225
 20
88.5788464233
 11
40.0292292984
 21
88.5742912571
  0
LINE
  8
0
 62
7
  6
CONTINUOUS
 10
36.0757581359
 20
88.7709807339
 11
38.251167743
 21
88.5783154301
  0
LINE
  8
0
 62
7
  6
CONTINUOUS
 10
38.0670840399
 20
88.7627102839
 11
39.7572201941
 21
88.6005574889
  0
LINE
  8
0
 62
7
  6
CONTINUOUS
 10
39.7572201941
 20
88.6005574889
 11
39.9777488234
 21
88.5788463445
  0
POLYLINE
  8
0
 62
7
  6
CONTINUOUS
 66
1
 70
0
  0
VERTEX
  8
0
 62
7
  6
CONTINUOUS
 10
49.3092219167
 20
88.7594038225
  0
VERTEX
  8
0
 62
7
  6
CONTINUOUS
 10
50.2628285404
 20
88.6314309493
  0
VERTEX
  8
0
 62
7
  6
CONTINUOUS
 10
50.4595037425
 20
88.6033462343
  0
VERTEX
  8
0
 62
7
  6
CONTINUOUS
 10
50.6002494974
 20
88.5822131455
  0
SEQEND
  0
LINE
  8
0
 62
7
  6
CONTINUOUS
 10
50.6002702258
 20
88.5822100808
 11
50.6457181265
 21
88.5760131652
  0
LINE
  8
0
 62
7
  6
CONTINUOUS
 10
49.2916307732
 20
88.7618436988
 11
49.3093341106
 21
88.7593890553
  0
LINE
  8
0
 62
7
  6
CONTINUOUS
 10
68.530891316
 20
88.7779703845
 11
68.8699097852
 21
88.671511254
  0
LINE
  8
0
 62
7
  6
CONTINUOUS
 10
123.2076981765
 20
88.5668996469
 11
123.3394407595
 21
88.5831378663
  0
LINE
  8
0
 62
7
  6
CONTINUOUS
 10
154.1871497362
 20
88.5783154301
 11
153.9289364886
 21
88.5668995244
  0
POLYLINE
  8
0
 62
7
  6
CONTINUOUS
 66
1
 70
0
  0
VERTEX
  8
0
 62
7
  6
CONTINUOUS
 10
141.6406079582
 20
88.5668996304
  0
VERTEX
  8
0
 62
7
  6
CONTINUOUS
 10
141.6807362211
 20
88.5675416937
  0
VERTEX
  8
0
 62
7
  6
CONTINUOUS
 10
141.7873286026
 20
88.5753965549
  0
SEQEND
  0
POLYLINE
  8
0
 62
7
  6
CONTINUOUS
 66
1
 70
0
  0
VERTEX
  8
0
 62
7
  6
CONTINUOUS
 10
152.2198421239
 20
88.5668996291
  0
VERTEX
  8
0
 62
7
  6
CONTINUOUS
 10
152.2726456008
 20
88.5674779073
  0
VERTEX
  8
0
 62
7
  6
CONTINUOUS
 10
152.4026279771
 20
88.5737963009
  0
SEQEND
  0
LINE
  8
0
 62
7
  6
CONTINUOUS
 10
153.9289364878
 20
88.5668995244
 11
152.240617183
 21
88.5668995244
  0
LINE
  8
0
 62
7
  6
CONTINUOUS
 10
152.2198396533
 20
88.5668995249
 11
123.2285670502
 21
88.5668995244
  0
LINE
  8
0
 62
7
  6
CONTINUOUS
 10
123.2077574115
 20
88.5668995244
 11
40.2185291001
 21
88.5668995244
  0
LINE
  8
0
 62
7
  6
CONTINUOUS
 10
40.1974753506
 20
88.5668995244
 11
38.5093809913
 21
88.5668995244
  0
LINE
  8
0
 62
7
  6
CONTINUOUS
 10
38.5093809906
 20
88.5668995244
 11
38.251167743
 21
88.5783154301
  0
POLYLINE
  8
0
 62
7
  6
CONTINUOUS
 66
1
 70
0
  0
VERTEX
  8
0
 62
7
  6
CONTINUOUS
 10
40.0292292984
 20
88.5742912571
  0
VERTEX
  8
0
 62
7
  6
CONTINUOUS
 10
40.1592518427
 20
88.5676267866
  0
VERTEX
  8
0
 62
7
  6
CONTINUOUS
 10
40.2184825096
 20
88.5668996291
  0
SEQEND
  0
POLYLINE
  8
0
 62
7
  6
CONTINUOUS
 66
1
 70
0
  0
VERTEX
  8
0
 62
7
  6
CONTINUOUS
 10
50.6457181265
 20
88.5760131652
  0
VERTEX
  8
0
 62
7
  6
CONTINUOUS
 10
50.7522910052
 20
88.5677218991
  0
VERTEX
  8
0
 62
7
  6
CONTINUOUS
 10
50.7977158235
 20
88.5668996309
  0
SEQEND
  0
LINE
  8
0
 62
7
  6
CONTINUOUS
 10
69.0970412869
 20
88.5835981737
 11
69.2306234079
 21
88.5668996497
  0
LINE
  8
1_AXIS
 62
2
  6
CENTER
 10
96.2191587396
 20
78.0668995244
 11
96.2191587396
 21
107.0668995244
  0
POLYLINE
  8
0
 62
7
  6
CONTINUOUS
 66
1
 70
0
  0
VERTEX
  8
0
 62
7
  6
CONTINUOUS
 10
40.2185157785
 20
96.566899419
  0
VERTEX
  8
0
 62
7
  6
CONTINUOUS
 10
40.165676515
 20
96.5663212383
  0
VERTEX
  8
0
 62
7
  6
CONTINUOUS
 10
40.035694204
 20
96.5600031061
  0
SEQEND
  0
LINE
  8
1_AXIS
 62
7
  6
CONTINUOUS
 10
152.2197883798
 20
96.5668995244
 11
149.8161840927
 21
96.5668995244
  0
LINE
  8
1_AXIS
 62
7
  6
CONTINUOUS
 10
123.2077574116
 20
96.5668995244
 11
116.1019935914
 21
96.5668995244
  0
LINE
  8
1_AXIS
 62
7
  6
CONTINUOUS
 10
100.1082721716
 20
96.5668995244
 11
92.3300453076
 21
96.5668995244
  0
LINE
  8
1_AXIS
 62
7
  6
CONTINUOUS
 10
76.3363238878
 20
96.5668995244
 11
69.2305600676
 21
96.5668995244
  0
LINE
  8
1_AXIS
 62
7
  6
CONTINUOUS
 10
42.6221333865
 20
96.5668995244
 11
40.2185290994
 21
96.5668995244
  0
LINE
  8
0
 62
7
  6
CONTINUOUS
 10
38.5093809914
 20
96.5668995244
 11
40.1974753519
 21
96.5668995244
  0
LINE
  8
0
 62
7
  6
CONTINUOUS
 10
40.2185291001
 20
96.5668995244
 11
69.209750429
 21
96.5668995244
  0
LINE
  8
0
 62
7
  6
CONTINUOUS
 10
69.2305600677
 20
96.5668995244
 11
152.2197883791
 21
96.5668995244
  0
LINE
  8
0
 62
7
  6
CONTINUOUS
 10
152.2406171849
 20
96.5668995244
 11
153.9289364878
 21
96.5668995244
  0
LINE
  8
0
 62
7
  6
CONTINUOUS
 10
69.2306194964
 20
96.5668994006
 11
69.0988723367
 21
96.5506600918
  0
LINE
  8
0
 62
7
  6
CONTINUOUS
 10
40.035694204
 20
96.5600031061
 11
39.9777494207
 21
96.5549526558
  0
LINE
  8
0
 62
7
  6
CONTINUOUS
 10
38.251167743
 20
96.5554836187
 11
38.5093809906
 21
96.5668995244
  0
POLYLINE
  8
0
 62
7
  6
CONTINUOUS
 66
1
 70
0
  0
VERTEX
  8
0
 62
7
  6
CONTINUOUS
 10
50.7977111042
 20
96.5668994171
  0
VERTEX
  8
0
 62
7
  6
CONTINUOUS
 10
50.7575866914
 20
96.5662575233
  0
VERTEX
  8
0
 62
7
  6
CONTINUOUS
 10
50.6509943731
 20
96.5584031286
  0
SEQEND
  0
LINE
  8
0
 62
7
  6
CONTINUOUS
 10
153.9289364886
 20
96.5668995244
 11
154.1871497362
 21
96.5554836187
  0
POLYLINE
  8
0
 62
7
  6
CONTINUOUS
 66
1
 70
0
  0
VERTEX
  8
0
 62
7
  6
CONTINUOUS
 10
152.4090833936
 20
96.559508171
  0
VERTEX
  8
0
 62
7
  6
CONTINUOUS
 10
152.2790608967
 20
96.5661723756
  0
VERTEX
  8
0
 62
7
  6
CONTINUOUS
 10
152.2197948301
 20
96.566899419
  0
SEQEND
  0
POLYLINE
  8
0
 62
7
  6
CONTINUOUS
 66
1
 70
0
  0
VERTEX
  8
0
 62
7
  6
CONTINUOUS
 10
141.7925937583
 20
96.5577865541
  0
VERTEX
  8
0
 62
7
  6
CONTINUOUS
 10
141.6860209258
 20
96.5660773464
  0
VERTEX
  8
0
 62
7
  6
CONTINUOUS
 10
141.640600173
 20
96.5668994167
  0
SEQEND
  0
LINE
  8
0
 62
7
  6
CONTINUOUS
 10
123.3412804008
 20
96.5501998126
 11
123.2076938803
 21
96.566899398
  0
LINE
  8
0
 62
7
  6
CONTINUOUS
 10
123.5173096244
 20
88.6542566444
 11
123.5682297101
 21
88.671455414
  0
LINE
  8
0
 62
7
  6
CONTINUOUS
 10
123.5684076939
 20
88.6715112539
 11
123.9074261644
 21
88.7779703849
  0
LINE
  8
0
 62
7
  6
CONTINUOUS
 10
49.3092768285
 20
96.3744023433
 11
49.2555379708
 21
96.3662871166
  0
POLYLINE
  8
0
 62
7
  6
CONTINUOUS
 66
1
 70
0
  0
VERTEX
  8
0
 62
7
  6
CONTINUOUS
 10
50.6002492173
 20
96.5515858608
  0
VERTEX
  8
0
 62
7
  6
CONTINUOUS
 10
50.4634183708
 20
96.5310280251
  0
VERTEX
  8
0
 62
7
  6
CONTINUOUS
 10
50.2670402695
 20
96.5029539068
  0
SEQEND
  0
LINE
  8
0
 62
7
  6
CONTINUOUS
 10
50.6509943731
 20
96.5584031286
 11
50.6002721949
 21
96.5515892712
  0
LINE
  8
0
 62
7
  6
CONTINUOUS
 10
50.2670402695
 20
96.5029539068
 11
49.309221918
 21
96.3743952264
  0
POLYLINE
  8
0
 62
7
  6
CONTINUOUS
 66
1
 70
0
  0
VERTEX
  8
0
 62
7
  6
CONTINUOUS
 10
38.0648823143
 20
96.3708639711
  0
VERTEX
  8
0
 62
7
  6
CONTINUOUS
 10
37.9914214467
 20
96.3628361438
  0
VERTEX
  8
0
 62
7
  6
CONTINUOUS
 10
37.9365950738
 20
96.355436944
  0
VERTEX
  8
0
 62
7
  6
CONTINUOUS
 10
37.8762204829
 20
96.3428753009
  0
SEQEND
  0
POLYLINE
  8
0
 62
7
  6
CONTINUOUS
 66
1
 70
0
  0
VERTEX
  8
0
 62
7
  6
CONTINUOUS
 10
36.0235583312
 20
96.3578912953
  0
VERTEX
  8
0
 62
7
  6
CONTINUOUS
 10
36.0049212208
 20
96.3560076095
  0
VERTEX
  8
0
 62
7
  6
CONTINUOUS
 10
35.9859536303
 20
96.3537934705
  0
VERTEX
  8
0
 62
7
  6
CONTINUOUS
 10
35.9526831976
 20
96.3483492263
  0
VERTEX
  8
0
 62
7
  6
CONTINUOUS
 10
35.9117792954
 20
96.3384690212
  0
VERTEX
  8
0
 62
7
  6
CONTINUOUS
 10
35.8677239197
 20
96.3236035051
  0
VERTEX
  8
0
 62
7
  6
CONTINUOUS
 10
35.845390418
 20
96.3142633889
  0
VERTEX
  8
0
 62
7
  6
CONTINUOUS
 10
35.8011085636
 20
96.2917707601
  0
VERTEX
  8
0
 62
7
  6
CONTINUOUS
 10
35.7572092377
 20
96.2635160013
  0
VERTEX
  8
0
 62
7
  6
CONTINUOUS
 10
35.7139276251
 20
96.2285313501
  0
VERTEX
  8
0
 62
7
  6
CONTINUOUS
 10
35.6723869938
 20
96.1862020877
  0
VERTEX
  8
0
 62
7
  6
CONTINUOUS
 10
35.6342670689
 20
96.1364670641
  0
VERTEX
  8
0
 62
7
  6
CONTINUOUS
 10
35.6012238548
 20
96.0794604176
  0
VERTEX
  8
0
 62
7
  6
CONTINUOUS
 10
35.5749136611
 20
96.0154797946
  0
VERTEX
  8
0
 62
7
  6
CONTINUOUS
 10
35.5570866419
 20
95.945167985
  0
VERTEX
  8
0
 62
7
  6
CONTINUOUS
 10
35.5495275307
 20
95.8695817565
  0
VERTEX
  8
0
 62
7
  6
CONTINUOUS
 10
35.5493878284
 20
95.8577630761
  0
SEQEND
  0
LINE
  8
0
 62
7
  6
CONTINUOUS
 10
39.9777488447
 20
96.5549527079
 11
38.1278669704
 21
96.3770618816
  0
LINE
  8
0
 62
7
  6
CONTINUOUS
 10
38.1278669704
 20
96.3770618816
 11
38.0648823143
 21
96.3708639711
  0
LINE
  8
0
 62
7
  6
CONTINUOUS
 10
36.0837652318
 20
96.3635558702
 11
36.0235583312
 21
96.3578912953
  0
LINE
  8
0
 62
7
  6
CONTINUOUS
 10
36.0837652318
 20
96.3635558702
 11
38.251167743
 21
96.5554836187
  0
LINE
  8
1_AXIS
 62
7
  6
CONTINUOUS
 10
146.7191587396
 20
105.0668995244
 11
45.7191587396
 21
105.0668995244
  0
LINE
  8
0
 62
7
  6
CONTINUOUS
 10
152.4605682963
 20
96.5549526322
 11
152.4090833936
 21
96.559508171
  0
LINE
  8
0
 62
7
  6
CONTINUOUS
 10
154.7489264357
 20
96.5056960486
 11
156.205859977
 21
96.3769114173
  0
LINE
  8
0
 62
7
  6
CONTINUOUS
 10
154.1871497362
 20
96.5554836187
 11
154.7489264357
 21
96.5056960486
  0
LINE
  8
0
 62
7
  6
CONTINUOUS
 10
156.3625459805
 20
96.3628195517
 11
156.20637061
 21
96.376870698
  0
LINE
  8
0
 62
7
  6
CONTINUOUS
 10
154.3712650558
 20
96.3710855392
 11
152.460568639
 21
96.5549527089
  0
POLYLINE
  8
0
 62
7
  6
CONTINUOUS
 66
1
 70
0
  0
VERTEX
  8
0
 62
7
  6
CONTINUOUS
 10
143.1290955625
 20
96.3743952262
  0
VERTEX
  8
0
 62
7
  6
CONTINUOUS
 10
142.1754985991
 20
96.5023667546
  0
VERTEX
  8
0
 62
7
  6
CONTINUOUS
 10
141.97882291
 20
96.5304514695
  0
VERTEX
  8
0
 62
7
  6
CONTINUOUS
 10
141.8380679648
 20
96.5515859062
  0
SEQEND
  0
LINE
  8
0
 62
7
  6
CONTINUOUS
 10
141.8380469952
 20
96.5515890083
 11
141.7925937583
 21
96.5577865541
  0
LINE
  8
0
 62
7
  6
CONTINUOUS
 10
143.1469233985
 20
96.371921131
 11
143.1289777074
 21
96.3744107018
  0
POLYLINE
  8
0
 62
7
  6
CONTINUOUS
 66
1
 70
0
  0
VERTEX
  8
0
 62
7
  6
CONTINUOUS
 10
154.5209169456
 20
96.3521311779
  0
VERTEX
  8
0
 62
7
  6
CONTINUOUS
 10
154.476684225
 20
96.359083476
  0
VERTEX
  8
0
 62
7
  6
CONTINUOUS
 10
154.4321345517
 20
96.3645550626
  0
VERTEX
  8
0
 62
7
  6
CONTINUOUS
 10
154.3712650558
 20
96.3710855392
  0
SEQEND
  0
LINE
  8
0
 62
7
  6
CONTINUOUS
 10
123.907426163
 20
96.3558286642
 11
123.5684076938
 21
96.4622877948
  0
POLYLINE
  8
0
 62
7
  6
CONTINUOUS
 66
1
 70
0
  0
VERTEX
  8
0
 62
7
  6
CONTINUOUS
 10
123.5682226952
 20
96.4623458335
  0
VERTEX
  8
0
 62
7
  6
CONTINUOUS
 10
123.5183045193
 20
96.4791771996
  0
VERTEX
  8
0
 62
7
  6
CONTINUOUS
 10
123.4972395747
 20
96.4872942548
  0
SEQEND
  0
LINE
  8
0
 62
7
  6
CONTINUOUS
 10
123.4814406125
 20
88.6395855185
 11
123.4820932436
 21
88.6399496163
  0
LINE
  8
0
 62
7
  6
CONTINUOUS
 10
123.4817875785
 20
88.6397303721
 11
123.4844471004
 21
88.6409894384
  0
LINE
  8
0
 62
7
  6
CONTINUOUS
 10
123.4844471004
 20
88.6409894384
 11
123.5173096244
 21
88.6542566444
  0
LINE
  8
0
 62
7
  6
CONTINUOUS
 10
123.3394407595
 20
88.5831378663
 11
123.4814405389
 21
88.6395856505
  0
POLYLINE
  8
0
 62
7
  6
CONTINUOUS
 66
1
 70
0
  0
VERTEX
  8
0
 62
7
  6
CONTINUOUS
 10
123.907443464
 20
88.7779769305
  0
VERTEX
  8
0
 62
7
  6
CONTINUOUS
 10
123.9653783614
 20
88.7997266092
  0
VERTEX
  8
0
 62
7
  6
CONTINUOUS
 10
124.0892848425
 20
88.8767578634
  0
VERTEX
  8
0
 62
7
  6
CONTINUOUS
 10
124.1951090192
 20
88.9997137066
  0
VERTEX
  8
0
 62
7
  6
CONTINUOUS
 10
124.2590083972
 20
89.1623720654
  0
VERTEX
  8
0
 62
7
  6
CONTINUOUS
 10
124.2689582579
 20
89.2618090006
  0
SEQEND
  0
POLYLINE
  8
0
 62
7
  6
CONTINUOUS
 66
1
 70
0
  0
VERTEX
  8
0
 62
7
  6
CONTINUOUS
 10
49.2555379708
 20
96.3662871166
  0
VERTEX
  8
0
 62
7
  6
CONTINUOUS
 10
49.1807517393
 20
96.3498176974
  0
VERTEX
  8
0
 62
7
  6
CONTINUOUS
 10
49.089294605
 20
96.3152604751
  0
VERTEX
  8
0
 62
7
  6
CONTINUOUS
 10
48.993967584
 20
96.2549147715
  0
VERTEX
  8
0
 62
7
  6
CONTINUOUS
 10
48.9080713739
 20
96.1667658351
  0
VERTEX
  8
0
 62
7
  6
CONTINUOUS
 10
48.8437145962
 20
96.0544624792
  0
VERTEX
  8
0
 62
7
  6
CONTINUOUS
 10
48.808977847
 20
95.9189175304
  0
VERTEX
  8
0
 62
7
  6
CONTINUOUS
 10
48.8059076729
 20
95.8635441713
  0
SEQEND
  0
LINE
  8
0
 62
7
  6
CONTINUOUS
 10
123.4814398956
 20
96.4942137567
 11
123.3412804008
 21
96.5501998126
  0
LINE
  8
0
 62
7
  6
CONTINUOUS
 10
123.4972395747
 20
96.4872942548
 11
123.482073741
 21
96.4938603265
  0
LINE
  8
0
 62
7
  6
CONTINUOUS
 10
123.4814398956
 20
96.4942137567
 11
123.4820736696
 21
96.4938601989
  0
LINE
  8
0
 62
7
  6
CONTINUOUS
 10
123.4820932436
 20
88.6399496163
 11
123.4817875785
 21
88.6397303721
  0
POLYLINE
  8
0
 62
7
  6
CONTINUOUS
 66
1
 70
0
  0
VERTEX
  8
0
 62
7
  6
CONTINUOUS
 10
154.5621203879
 20
88.790929958
  0
VERTEX
  8
0
 62
7
  6
CONTINUOUS
 10
154.6343787145
 20
88.8160040896
  0
VERTEX
  8
0
 62
7
  6
CONTINUOUS
 10
154.7090831797
 20
88.8562094141
  0
VERTEX
  8
0
 62
7
  6
CONTINUOUS
 10
154.7813363897
 20
88.913507868
  0
VERTEX
  8
0
 62
7
  6
CONTINUOUS
 10
154.8450706945
 20
88.9876094339
  0
VERTEX
  8
0
 62
7
  6
CONTINUOUS
 10
154.894689439
 20
89.0761254529
  0
VERTEX
  8
0
 62
7
  6
CONTINUOUS
 10
154.9258807848
 20
89.17504549
  0
VERTEX
  8
0
 62
7
  6
CONTINUOUS
 10
154.9360083861
 20
89.2751863765
  0
SEQEND
  0
POLYLINE
  8
0
 62
7
  6
CONTINUOUS
 66
1
 70
0
  0
VERTEX
  8
0
 62
7
  6
CONTINUOUS
 10
124.268958258
 20
95.8719900779
  0
VERTEX
  8
0
 62
7
  6
CONTINUOUS
 10
124.2592441872
 20
95.9702533018
  0
VERTEX
  8
0
 62
7
  6
CONTINUOUS
 10
124.1962506338
 20
96.1322102185
  0
VERTEX
  8
0
 62
7
  6
CONTINUOUS
 10
124.0916162522
 20
96.2550693775
  0
VERTEX
  8
0
 62
7
  6
CONTINUOUS
 10
123.9688020819
 20
96.3325469945
  0
VERTEX
  8
0
 62
7
  6
CONTINUOUS
 10
123.9074249621
 20
96.3558279314
  0
SEQEND
  0
LINE
  8
0
 62
7
  6
CONTINUOUS
 10
124.2689581543
 20
95.8720496736
 11
124.2689581543
 21
89.2617493751
  0
LINE
  8
0
 62
7
  6
CONTINUOUS
 10
143.6324105782
 20
95.8636386984
 11
143.6324105782
 21
89.2701603504
  0
POLYLINE
  8
0
 62
7
  6
CONTINUOUS
 66
1
 70
0
  0
VERTEX
  8
0
 62
7
  6
CONTINUOUS
 10
143.6324104066
 20
95.8635386722
  0
VERTEX
  8
0
 62
7
  6
CONTINUOUS
 10
143.6319063635
 20
95.8410738084
  0
VERTEX
  8
0
 62
7
  6
CONTINUOUS
 10
143.6156253892
 20
95.9921256313
  0
VERTEX
  8
0
 62
7
  6
CONTINUOUS
 10
143.5577528544
 20
96.1266667071
  0
VERTEX
  8
0
 62
7
  6
CONTINUOUS
 10
143.4704881917
 20
96.232446868
  0
VERTEX
  8
0
 62
7
  6
CONTINUOUS
 10
143.4208666733
 20
96.2726444145
  0
VERTEX
  8
0
 62
7
  6
CONTINUOUS
 10
143.319571332
 20
96.3285047218
  0
VERTEX
  8
0
 62
7
  6
CONTINUOUS
 10
143.2277716303
 20
96.3573667895
  0
VERTEX
  8
0
 62
7
  6
CONTINUOUS
 10
143.1469233985
 20
96.371921131
  0
SEQEND
  0
LINE
  8
1_AXIS
 62
7
  6
CONTINUOUS
 10
148.7191587396
 20
103.0668995244
 11
148.7191587396
 21
97.5668995244
  0
LINE
  8
1_AXIS
 62
7
  6
CONTINUOUS
 10
148.7191587396
 20
87.5668995244
 11
148.7191587396
 21
82.0668995244
  0
POLYLINE
  8
0
 62
7
  6
CONTINUOUS
 66
1
 70
0
  0
VERTEX
  8
0
 62
7
  6
CONTINUOUS
 10
156.888925644
 20
95.8577636476
  0
VERTEX
  8
0
 62
7
  6
CONTINUOUS
 10
156.8883610124
 20
95.8815189774
  0
VERTEX
  8
0
 62
7
  6
CONTINUOUS
 10
156.8810459505
 20
95.9461815023
  0
VERTEX
  8
0
 62
7
  6
CONTINUOUS
 10
156.8657058412
 20
96.0083658056
  0
VERTEX
  8
0
 62
7
  6
CONTINUOUS
 10
156.8430507522
 20
96.0669791827
  0
VERTEX
  8
0
 62
7
  6
CONTINUOUS
 10
156.8139589182
 20
96.121103705
  0
VERTEX
  8
0
 62
7
  6
CONTINUOUS
 10
156.779434888
 20
96.1700206708
  0
VERTEX
  8
0
 62
7
  6
CONTINUOUS
 10
156.7405649237
 20
96.2132246675
  0
VERTEX
  8
0
 62
7
  6
CONTINUOUS
 10
156.6984738248
 20
96.2504259088
  0
VERTEX
  8
0
 62
7
  6
CONTINUOUS
 10
156.6542815138
 20
96.2815458071
  0
VERTEX
  8
0
 62
7
  6
CONTINUOUS
 10
156.6090661474
 20
96.3067014041
  0
VERTEX
  8
0
 62
7
  6
CONTINUOUS
 10
156.5638481512
 20
96.3261781023
  0
VERTEX
  8
0
 62
7
  6
CONTINUOUS
 10
156.5195705069
 20
96.3404102541
  0
VERTEX
  8
0
 62
7
  6
CONTINUOUS
 10
156.4782893743
 20
96.3497445676
  0
VERTEX
  8
0
 62
7
  6
CONTINUOUS
 10
156.448819256
 20
96.3542470453
  0
VERTEX
  8
0
 62
7
  6
CONTINUOUS
 10
156.432641305
 20
96.3560873226
  0
VERTEX
  8
0
 62
7
  6
CONTINUOUS
 10
156.4154561273
 20
96.3578230273
  0
VERTEX
  8
0
 62
7
  6
CONTINUOUS
 10
156.3625459805
 20
96.3628195517
  0
SEQEND
  0
LINE
  8
0
 62
7
  6
CONTINUOUS
 10
154.9360082911
 20
95.8587206787
 11
154.9360082911
 21
89.2750783702
  0
LINE
  8
0
 62
7
  6
CONTINUOUS
 10
156.8889305831
 20
95.8578597669
 11
156.8889305831
 21
89.2759392818
  0
POLYLINE
  8
0
 62
7
  6
CONTINUOUS
 66
1
 70
0
  0
VERTEX
  8
0
 62
7
  6
CONTINUOUS
 10
154.9360083861
 20
95.8586126626
  0
VERTEX
  8
0
 62
7
  6
CONTINUOUS
 10
154.9202231243
 20
95.9832764659
  0
VERTEX
  8
0
 62
7
  6
CONTINUOUS
 10
154.8806551766
 20
96.0873216989
  0
VERTEX
  8
0
 62
7
  6
CONTINUOUS
 10
154.8219155025
 20
96.1766036157
  0
VERTEX
  8
0
 62
7
  6
CONTINUOUS
 10
154.7496478733
 20
96.2481147908
  0
VERTEX
  8
0
 62
7
  6
CONTINUOUS
 10
154.6698699961
 20
96.3007199802
  0
VERTEX
  8
0
 62
7
  6
CONTINUOUS
 10
154.5888360371
 20
96.3350010931
  0
VERTEX
  8
0
 62
7
  6
CONTINUOUS
 10
154.5209169456
 20
96.3521311779
  0
SEQEND
  0
ARC
  8
0
 62
7
  6
CONTINUOUS
 10
49.7176260715
 20
159.7348152176
 40
6.2
 50
104.5147783931
 51
111.838
  0
ARC
  8
0
 62
7
  6
CONTINUOUS
 10
49.7176260715
 20
159.7348152176
 40
6.2
 50
88.058871156
 51
102.5279766092
  0
ARC
  8
0
 62
7
  6
CONTINUOUS
 10
52.8525322739
 20
156.2531491563
 40
6.2
 50
341.4720233908
 51
355.941128844
  0
ARC
  8
0
 62
7
  6
CONTINUOUS
 10
52.8525322739
 20
156.2531491563
 40
6.2
 50
332.162
 51
339.4852216069
  0
ARC
  8
0
 62
7
  6
CONTINUOUS
 10
49.8598910288
 20
163.9324050834
 40
2.0
 50
36.6723979408
 51
88.058871156
  0
ARC
  8
0
 62
7
  6
CONTINUOUS
 10
57.0419980407
 20
155.9558671532
 40
2.0
 50
355.941128844
 51
47.3276020592
  0
ARC
  8
0
 62
7
  6
CONTINUOUS
 10
45.9610848366
 20
165.7705738044
 40
0.8
 50
213.0354765661
 51
291.838
  0
ARC
  8
0
 62
7
  6
CONTINUOUS
 10
63.5991863107
 20
148.1543012381
 40
0.8
 50
237.0354765661
 51
315.838
  0
ARC
  8
0
 62
7
  6
CONTINUOUS
 10
58.4625608612
 20
151.8862780777
 40
0.8
 50
152.162
 51
230.9645234339
  0
ARC
  8
0
 62
7
  6
CONTINUOUS
 10
37.9898679162
 20
181.9960389598
 40
6.2
 50
80.5147783931
 51
87.838
  0
ARC
  8
0
 62
7
  6
CONTINUOUS
 10
37.9898679162
 20
181.9960389598
 40
6.2
 50
64.058871156
 51
78.5279766092
  0
ARC
  8
0
 62
7
  6
CONTINUOUS
 10
39.4376260715
 20
177.5402975194
 40
6.2
 50
317.4720233908
 51
331.941128844
  0
ARC
  8
0
 62
7
  6
CONTINUOUS
 10
39.4376260715
 20
177.5402975194
 40
6.2
 50
308.162
 51
315.4852216069
  0
ARC
  8
0
 62
7
  6
CONTINUOUS
 10
39.8271470327
 20
185.7728637436
 40
2.0
 50
12.6723979408
 51
64.058871156
  0
ARC
  8
0
 62
7
  6
CONTINUOUS
 10
43.1439780086
 20
175.5647076535
 40
2.0
 50
331.941128844
 51
23.3276020592
  0
ARC
  8
0
 62
7
  6
CONTINUOUS
 10
37.0130609206
 20
189.0379017716
 40
0.8
 50
189.0354765661
 51
267.838
  0
ARC
  8
0
 62
7
  6
CONTINUOUS
 10
36.349386896
 20
195.3523383204
 40
0.8
 50
104.162
 51
182.9645234339
  0
ARC
  8
0
 62
7
  6
CONTINUOUS
 10
42.7864757213
 20
171.2691580862
 40
0.8
 50
128.162
 51
206.9645234339
  0
ARC
  8
0
 62
7
  6
CONTINUOUS
 10
69.4859216783
 20
144.1682843692
 40
6.2
 50
128.5147783931
 51
135.838
  0
ARC
  8
0
 62
7
  6
CONTINUOUS
 10
69.4859216783
 20
144.1682843692
 40
6.2
 50
112.058871156
 51
126.5279766092
  0
ARC
  8
0
 62
7
  6
CONTINUOUS
 10
93.8766368368
 20
137.9880410158
 40
6.2
 50
152.5147783931
 51
159.838
  0
ARC
  8
0
 62
7
  6
CONTINUOUS
 10
93.8766368368
 20
137.9880410158
 40
6.2
 50
136.058871156
 51
150.5279766092
  0
ARC
  8
0
 62
7
  6
CONTINUOUS
 10
73.7659221657
 20
142.2627053791
 40
6.2
 50
5.4720233908
 51
19.941128844
  0
ARC
  8
0
 62
7
  6
CONTINUOUS
 10
73.7659221657
 20
142.2627053791
 40
6.2
 50
356.162
 51
3.4852216069
  0
ARC
  8
0
 62
7
  6
CONTINUOUS
 10
67.9085735727
 20
148.0608378953
 40
2.0
 50
60.6723979408
 51
112.058871156
  0
ARC
  8
0
 62
7
  6
CONTINUOUS
 10
90.8524134857
 20
140.9025003349
 40
2.0
 50
84.6723979408
 51
136.058871156
  0
ARC
  8
0
 62
7
  6
CONTINUOUS
 10
77.7141050709
 20
143.6951339977
 40
2.0
 50
19.941128844
 51
71.3276020592
  0
ARC
  8
0
 62
7
  6
CONTINUOUS
 10
86.8775773609
 20
139.2350976385
 40
0.8
 50
261.0354765661
 51
339.838
  0
ARC
  8
0
 62
7
  6
CONTINUOUS
 10
80.6671047821
 20
140.5551743362
 40
0.8
 50
176.162
 51
254.9645234339
  0
ARC
  8
0
 62
7
  6
CONTINUOUS
 10
36.3304831407
 20
207.102787774
 40
6.2
 50
56.5147783931
 51
63.838
  0
ARC
  8
0
 62
7
  6
CONTINUOUS
 10
36.3304831407
 20
207.102787774
 40
6.2
 50
40.058871156
 51
54.5279766092
  0
ARC
  8
0
 62
7
  6
CONTINUOUS
 10
42.6838725451
 20
226.656509749
 40
6.2
 50
269.4720233908
 51
283.941128844
  0
ARC
  8
0
 62
7
  6
CONTINUOUS
 10
42.6838725451
 20
226.656509749
 40
6.2
 50
260.162
 51
267.4852216069
  0
ARC
  8
0
 62
7
  6
CONTINUOUS
 10
35.8407627114
 20
202.4434091286
 40
6.2
 50
293.4720233908
 51
307.941128844
  0
ARC
  8
0
 62
7
  6
CONTINUOUS
 10
35.8407627114
 20
202.4434091286
 40
6.2
 50
284.162
 51
291.4852216069
  0
ARC
  8
0
 62
7
  6
CONTINUOUS
 10
39.5450941662
 20
209.8058001593
 40
2.0
 50
348.6723979408
 51
40.058871156
  0
ARC
  8
0
 62
7
  6
CONTINUOUS
 10
43.6957566781
 20
222.5802258407
 40
2.0
 50
283.941128844
 51
335.3276020592
  0
ARC
  8
0
 62
7
  6
CONTINUOUS
 10
38.4231388979
 20
199.1311088355
 40
2.0
 50
307.941128844
 51
359.3276020592
  0
ARC
  8
0
 62
7
  6
CONTINUOUS
 10
38.3023091881
 20
213.9331527574
 40
0.8
 50
165.0354765661
 51
243.838
  0
ARC
  8
0
 62
7
  6
CONTINUOUS
 10
40.2643255223
 20
219.9716181289
 40
0.8
 50
80.162
 51
158.9645234339
  0
ARC
  8
0
 62
7
  6
CONTINUOUS
 10
62.5739997727
 20
248.7467339695
 40
6.2
 50
8.5147783931
 51
15.838
  0
ARC
  8
0
 62
7
  6
CONTINUOUS
 10
62.5739997727
 20
248.7467339695
 40
6.2
 50
352.058871156
 51
6.5279766092
  0
ARC
  8
0
 62
7
  6
CONTINUOUS
 10
45.0263944479
 20
230.7138767025
 40
6.2
 50
32.5147783931
 51
39.838
  0
ARC
  8
0
 62
7
  6
CONTINUOUS
 10
45.0263944479
 20
230.7138767025
 40
6.2
 50
16.058871156
 51
30.5279766092
  0
ARC
  8
0
 62
7
  6
CONTINUOUS
 10
58.7837197146
 20
245.9929343143
 40
6.2
 50
245.4720233908
 51
259.941128844
  0
ARC
  8
0
 62
7
  6
CONTINUOUS
 10
58.7837197146
 20
245.9929343143
 40
6.2
 50
236.162
 51
243.4852216069
  0
ARC
  8
0
 62
7
  6
CONTINUOUS
 10
49.062501932
 20
231.8757012918
 40
2.0
 50
324.6723979408
 51
16.058871156
  0
ARC
  8
0
 62
7
  6
CONTINUOUS
 10
58.0501478349
 20
241.8574933103
 40
2.0
 50
259.941128844
 51
311.3276020592
  0
ARC
  8
0
 62
7
  6
CONTINUOUS
 10
49.605906901
 20
236.1517116999
 40
0.8
 50
141.0354765661
 51
219.838
  0
ARC
  8
0
 62
7
  6
CONTINUOUS
 10
53.8543631455
 20
240.8701003738
 40
0.8
 50
56.162
 51
134.9645234339
  0
ARC
  8
0
 62
7
  6
CONTINUOUS
 10
85.9391587396
 20
258.0833147303
 40
6.2
 50
344.5147783931
 51
351.838
  0
ARC
  8
0
 62
7
  6
CONTINUOUS
 10
85.9391587396
 20
258.0833147303
 40
6.2
 50
328.058871156
 51
342.5279766092
  0
ARC
  8
0
 62
7
  6
CONTINUOUS
 10
81.3564943818
 20
257.1092393512
 40
6.2
 50
221.4720233908
 51
235.941128844
  0
ARC
  8
0
 62
7
  6
CONTINUOUS
 10
81.3564943818
 20
257.1092393512
 40
6.2
 50
212.162
 51
219.4852216069
  0
ARC
  8
0
 62
7
  6
CONTINUOUS
 10
89.5032457195
 20
255.8613147303
 40
2.0
 50
276.6723979408
 51
328.058871156
  0
ARC
  8
0
 62
7
  6
CONTINUOUS
 10
66.7337240647
 20
248.1664807365
 40
2.0
 50
300.6723979408
 51
352.058871156
  0
ARC
  8
0
 62
7
  6
CONTINUOUS
 10
79.0043077317
 20
253.6296965705
 40
2.0
 50
235.941128844
 51
287.3276020592
  0
ARC
  8
0
 62
7
  6
CONTINUOUS
 10
93.0445496243
 20
258.3186955767
 40
0.8
 50
93.0354765661
 51
171.838
  0
ARC
  8
0
 62
7
  6
CONTINUOUS
 10
68.9693593249
 20
251.8517879087
 40
0.8
 50
117.0354765661
 51
195.838
  0
ARC
  8
0
 62
7
  6
CONTINUOUS
 10
74.769658799
 20
254.434247618
 40
0.8
 50
32.162
 51
110.9645234339
  0
ARC
  8
0
 62
7
  6
CONTINUOUS
 10
118.6723953135
 20
142.2627053791
 40
6.2
 50
176.5147783931
 51
183.838
  0
ARC
  8
0
 62
7
  6
CONTINUOUS
 10
118.6723953135
 20
142.2627053791
 40
6.2
 50
160.058871156
 51
174.5279766092
  0
ARC
  8
0
 62
7
  6
CONTINUOUS
 10
98.5616806424
 20
137.9880410158
 40
6.2
 50
29.4720233908
 51
43.941128844
  0
ARC
  8
0
 62
7
  6
CONTINUOUS
 10
98.5616806424
 20
137.9880410158
 40
6.2
 50
20.162
 51
27.4852216069
  0
ARC
  8
0
 62
7
  6
CONTINUOUS
 10
122.9523958009
 20
144.1682843692
 40
6.2
 50
53.4720233908
 51
67.941128844
  0
ARC
  8
0
 62
7
  6
CONTINUOUS
 10
122.9523958009
 20
144.1682843692
 40
6.2
 50
44.162
 51
51.4852216069
  0
ARC
  8
0
 62
7
  6
CONTINUOUS
 10
114.7242124083
 20
143.6951339977
 40
2.0
 50
108.6723979408
 51
160.058871156
  0
ARC
  8
0
 62
7
  6
CONTINUOUS
 10
101.5859039935
 20
140.9025003349
 40
2.0
 50
43.941128844
 51
95.3276020592
  0
ARC
  8
0
 62
7
  6
CONTINUOUS
 10
124.5297439064
 20
148.0608378953
 40
2.0
 50
67.941128844
 51
119.3276020592
  0
ARC
  8
0
 62
7
  6
CONTINUOUS
 10
111.7712126971
 20
140.5551743362
 40
0.8
 50
285.0354765661
 51
3.838
  0
ARC
  8
0
 62
7
  6
CONTINUOUS
 10
105.5607401183
 20
139.2350976385
 40
0.8
 50
200.162
 51
278.9645234339
  0
ARC
  8
0
 62
7
  6
CONTINUOUS
 10
142.7206914077
 20
159.7348152176
 40
6.2
 50
68.162
 51
75.4852216069
  0
ARC
  8
0
 62
7
  6
CONTINUOUS
 10
142.7206914077
 20
159.7348152176
 40
6.2
 50
77.4720233908
 51
91.941128844
  0
ARC
  8
0
 62
7
  6
CONTINUOUS
 10
139.5857852052
 20
156.2531491563
 40
6.2
 50
200.5147783931
 51
207.838
  0
ARC
  8
0
 62
7
  6
CONTINUOUS
 10
139.5857852052
 20
156.2531491563
 40
6.2
 50
184.058871156
 51
198.5279766092
  0
ARC
  8
0
 62
7
  6
CONTINUOUS
 10
142.5784264504
 20
163.9324050834
 40
2.0
 50
91.941128844
 51
143.3276020592
  0
ARC
  8
0
 62
7
  6
CONTINUOUS
 10
135.3963194385
 20
155.9558671532
 40
2.0
 50
132.6723979408
 51
184.058871156
  0
ARC
  8
0
 62
7
  6
CONTINUOUS
 10
133.975756618
 20
151.8862780777
 40
0.8
 50
309.0354765661
 51
27.838
  0
ARC
  8
0
 62
7
  6
CONTINUOUS
 10
128.8391311685
 20
148.1543012381
 40
0.8
 50
224.162
 51
302.9645234339
  0
ARC
  8
0
 62
7
  6
CONTINUOUS
 10
146.4772326426
 20
165.7705738044
 40
0.8
 50
248.162
 51
326.9645234339
  0
ARC
  8
0
 62
7
  6
CONTINUOUS
 10
154.448449563
 20
181.9960389598
 40
6.2
 50
92.162
 51
99.4852216069
  0
ARC
  8
0
 62
7
  6
CONTINUOUS
 10
154.448449563
 20
181.9960389598
 40
6.2
 50
101.4720233908
 51
115.941128844
  0
ARC
  8
0
 62
7
  6
CONTINUOUS
 10
153.0006914077
 20
177.5402975194
 40
6.2
 50
208.058871156
 51
222.5279766092
  0
ARC
  8
0
 62
7
  6
CONTINUOUS
 10
153.0006914077
 20
177.5402975194
 40
6.2
 50
224.5147783931
 51
231.838
  0
ARC
  8
0
 62
7
  6
CONTINUOUS
 10
152.6111704464
 20
185.7728637436
 40
2.0
 50
115.941128844
 51
167.3276020592
  0
ARC
  8
0
 62
7
  6
CONTINUOUS
 10
149.2943394705
 20
175.5647076535
 40
2.0
 50
156.6723979408
 51
208.058871156
  0
ARC
  8
0
 62
7
  6
CONTINUOUS
 10
155.4252565586
 20
189.0379017716
 40
0.8
 50
272.162
 51
350.9645234339
  0
ARC
  8
0
 62
7
  6
CONTINUOUS
 10
156.0889305831
 20
195.3523383204
 40
0.8
 50
357.0354765661
 51
75.838
  0
ARC
  8
0
 62
7
  6
CONTINUOUS
 10
149.6518417578
 20
171.2691580862
 40
0.8
 50
333.0354765661
 51
51.838
  0
ARC
  8
0
 62
7
  6
CONTINUOUS
 10
96.2191587396
 20
198.4528091558
 40
55.8
 50
96.6723979408
 51
107.3276020592
  0
ARC
  8
0
 62
7
  6
CONTINUOUS
 10
96.2191587396
 20
198.4528091558
 40
55.8
 50
72.6723979408
 51
83.3276020592
  0
ARC
  8
0
 62
7
  6
CONTINUOUS
 10
96.2191587396
 20
198.4528091558
 40
55.8
 50
120.6723979408
 51
131.3276020592
  0
ARC
  8
0
 62
7
  6
CONTINUOUS
 10
96.2191587396
 20
198.4528091558
 40
55.8
 50
144.6723979408
 51
155.3276020592
  0
ARC
  8
0
 62
7
  6
CONTINUOUS
 10
96.2191587396
 20
198.4528091558
 40
55.8
 50
168.6723979408
 51
179.3276020592
  0
ARC
  8
0
 62
7
  6
CONTINUOUS
 10
96.2191587396
 20
198.4528091558
 40
55.8
 50
192.6723979408
 51
203.3276020592
  0
ARC
  8
0
 62
7
  6
CONTINUOUS
 10
96.2191587396
 20
198.4528091558
 40
55.8
 50
216.6723979408
 51
227.3276020592
  0
ARC
  8
0
 62
7
  6
CONTINUOUS
 10
96.2191587396
 20
198.4528091558
 40
55.8
 50
48.6723979408
 51
59.3276020592
  0
ARC
  8
0
 62
7
  6
CONTINUOUS
 10
96.2191587396
 20
198.4528091558
 40
55.8
 50
240.6723979408
 51
251.3276020592
  0
ARC
  8
0
 62
7
  6
CONTINUOUS
 10
96.2191587396
 20
198.4528091558
 40
55.8
 50
264.6723979408
 51
275.3276020592
  0
ARC
  8
0
 62
7
  6
CONTINUOUS
 10
96.2191587396
 20
198.4528091558
 40
55.8
 50
24.6723979408
 51
35.3276020592
  0
ARC
  8
0
 62
7
  6
CONTINUOUS
 10
96.2191587396
 20
198.4528091558
 40
55.8
 50
288.6723979408
 51
299.3276020592
  0
ARC
  8
0
 62
7
  6
CONTINUOUS
 10
96.2191587396
 20
198.4528091558
 40
55.8
 50
312.6723979408
 51
323.3276020592
  0
ARC
  8
0
 62
7
  6
CONTINUOUS
 10
96.2191587396
 20
198.4528091558
 40
55.8
 50
0.6723979408
 51
11.3276020592
  0
ARC
  8
0
 62
7
  6
CONTINUOUS
 10
96.2191587396
 20
198.4528091558
 40
55.8
 50
336.6723979408
 51
347.3276020592
  0
CIRCLE
  8
1_AXIS
 62
7
  6
CONTINUOUS
 10
96.2191587396
 20
198.4528091558
 40
52.5
  0
ARC
  8
0
 62
7
  6
CONTINUOUS
 10
106.4991587396
 20
258.0833147303
 40
6.2
 50
197.4720233908
 51
211.941128844
  0
ARC
  8
0
 62
7
  6
CONTINUOUS
 10
106.4991587396
 20
258.0833147303
 40
6.2
 50
188.162
 51
195.4852216069
  0
ARC
  8
0
 62
7
  6
CONTINUOUS
 10
111.0818230973
 20
257.1092393512
 40
6.2
 50
304.058871156
 51
318.5279766092
  0
ARC
  8
0
 62
7
  6
CONTINUOUS
 10
111.0818230973
 20
257.1092393512
 40
6.2
 50
320.5147783931
 51
327.838
  0
ARC
  8
0
 62
7
  6
CONTINUOUS
 10
102.9350717597
 20
255.8613147303
 40
2.0
 50
211.941128844
 51
263.3276020592
  0
ARC
  8
0
 62
7
  6
CONTINUOUS
 10
125.7045934145
 20
248.1664807365
 40
2.0
 50
187.941128844
 51
239.3276020592
  0
ARC
  8
0
 62
7
  6
CONTINUOUS
 10
113.4340097475
 20
253.6296965705
 40
2.0
 50
252.6723979408
 51
304.058871156
  0
CIRCLE
  8
0
 62
7
  6
CONTINUOUS
 10
96.2191587396
 20
253.4528091558
 40
0.8660254038
  0
ARC
  8
0
 62
7
  6
CONTINUOUS
 10
99.3937678549
 20
258.3186955767
 40
0.8
 50
8.162
 51
86.9645234339
  0
ARC
  8
0
 62
7
  6
CONTINUOUS
 10
123.4689581543
 20
251.8517879087
 40
0.8
 50
344.162
 51
62.9645234339
  0
ARC
  8
0
 62
7
  6
CONTINUOUS
 10
117.6686586801
 20
254.434247618
 40
0.8
 50
69.0354765661
 51
147.838
  0
ARC
  8
0
 62
7
  6
CONTINUOUS
 10
156.1078343384
 20
207.102787774
 40
6.2
 50
116.162
 51
123.4852216069
  0
ARC
  8
0
 62
7
  6
CONTINUOUS
 10
156.1078343384
 20
207.102787774
 40
6.2
 50
125.4720233908
 51
139.941128844
  0
ARC
  8
0
 62
7
  6
CONTINUOUS
 10
149.7544449341
 20
226.656509749
 40
6.2
 50
256.058871156
 51
270.5279766092
  0
ARC
  8
0
 62
7
  6
CONTINUOUS
 10
149.7544449341
 20
226.656509749
 40
6.2
 50
272.5147783931
 51
279.838
  0
ARC
  8
0
 62
7
  6
CONTINUOUS
 10
156.5975547678
 20
202.4434091286
 40
6.2
 50
232.058871156
 51
246.5279766092
  0
ARC
  8
0
 62
7
  6
CONTINUOUS
 10
156.5975547678
 20
202.4434091286
 40
6.2
 50
248.5147783931
 51
255.838
  0
ARC
  8
0
 62
7
  6
CONTINUOUS
 10
152.893223313
 20
209.8058001593
 40
2.0
 50
139.941128844
 51
191.3276020592
  0
ARC
  8
0
 62
7
  6
CONTINUOUS
 10
148.7425608011
 20
222.5802258407
 40
2.0
 50
204.6723979408
 51
256.058871156
  0
ARC
  8
0
 62
7
  6
CONTINUOUS
 10
154.0151785813
 20
199.1311088355
 40
2.0
 50
180.6723979408
 51
232.058871156
  0
ARC
  8
0
 62
7
  6
CONTINUOUS
 10
154.1360082911
 20
213.9331527574
 40
0.8
 50
296.162
 51
14.9645234339
  0
ARC
  8
0
 62
7
  6
CONTINUOUS
 10
152.1739919569
 20
219.9716181289
 40
0.8
 50
21.0354765661
 51
99.838
  0
ARC
  8
0
 62
7
  6
CONTINUOUS
 10
129.8643177065
 20
248.7467339695
 40
6.2
 50
164.162
 51
171.4852216069
  0
ARC
  8
0
 62
7
  6
CONTINUOUS
 10
129.8643177065
 20
248.7467339695
 40
6.2
 50
173.4720233908
 51
187.941128844
  0
ARC
  8
0
 62
7
  6
CONTINUOUS
 10
147.4119230313
 20
230.7138767025
 40
6.2
 50
140.162
 51
147.4852216069
  0
ARC
  8
0
 62
7
  6
CONTINUOUS
 10
147.4119230313
 20
230.7138767025
 40
6.2
 50
149.4720233908
 51
163.941128844
  0
ARC
  8
0
 62
7
  6
CONTINUOUS
 10
133.6545977646
 20
245.9929343143
 40
6.2
 50
280.058871156
 51
294.5279766092
  0
ARC
  8
0
 62
7
  6
CONTINUOUS
 10
133.6545977646
 20
245.9929343143
 40
6.2
 50
296.5147783931
 51
303.838
  0
ARC
  8
0
 62
7
  6
CONTINUOUS
 10
143.3758155472
 20
231.8757012918
 40
2.0
 50
163.941128844
 51
215.3276020592
  0
ARC
  8
0
 62
7
  6
CONTINUOUS
 10
134.3881696443
 20
241.8574933103
 40
2.0
 50
228.6723979408
 51
280.058871156
  0
ARC
  8
0
 62
7
  6
CONTINUOUS
 10
142.8324105782
 20
236.1517116999
 40
0.8
 50
320.162
 51
38.9645234339
  0
ARC
  8
0
 62
7
  6
CONTINUOUS
 10
138.5839543337
 20
240.8701003738
 40
0.8
 50
45.0354765661
 51
123.838
  0
ARC
  8
1_AXIS
 62
7
  6
CONTINUOUS
 10
146.7191587396
 20
103.0668995244
 40
2.0
 50
0.0
 51
90.0
  0
ARC
  8
1_AXIS
 62
7
  6
CONTINUOUS
 10
146.7191587396
 20
82.0668995244
 40
2.0
 50
270.0
 51
360.0
  0
ARC
  8
1_AXIS
 62
7
  6
CONTINUOUS
 10
45.7191587396
 20
103.0668995244
 40
2.0
 50
90.0
 51
180.0
  0
ARC
  8
1_AXIS
 62
7
  6
CONTINUOUS
 10
45.7191587396
 20
82.0668995244
 40
2.0
 50
180.0
 51
270.0
  0
ARC
  8
1_AXIS
 62
7
  6
CONTINUOUS
 10
149.7191587396
 20
97.5668995244
 40
1.0
 50
180.0
 51
270.0
  0
ARC
  8
1_AXIS
 62
7
  6
CONTINUOUS
 10
149.7191587396
 20
87.5668995244
 40
1.0
 50
90.0
 51
180.0
  0
ARC
  8
1_AXIS
 62
7
  6
CONTINUOUS
 10
42.7191587396
 20
97.5668995244
 40
1.0
 50
270.0
 51
360.0
  0
ARC
  8
1_AXIS
 62
7
  6
CONTINUOUS
 10
42.7191587396
 20
87.5668995244
 40
1.0
 50
0.0
 51
90.0
  0
ENDSEC
  0
EOF
